  0
SECTION
  2
HEADER
  9
$ACADVER
  1
AC1015
  9
$ACADMAINTVER
 70
     6
  9
$DWGCODEPAGE
  3
ANSI_1251
  9
$INSBASE
 10
0.0
 20
0.0
 30
0.0
  9
$EXTMIN
 10
0.0
 20
0.0
 30
0.0
  9
$EXTMAX
 10
1189.0
 20
841.0
 30
0.0
  9
$LIMMIN
 10
0.0
 20
0.0
  9
$LIMMAX
 10
1189.0
 20
841.0
  9
$ORTHOMODE
 70
     0
  9
$REGENMODE
 70
     1
  9
$FILLMODE
 70
     1
  9
$QTEXTMODE
 70
     0
  9
$MIRRTEXT
 70
     1
  9
$LTSCALE
 40
1.0
  9
$ATTMODE
 70
     1
  9
$TEXTSIZE
 40
3.5
  9
$TRACEWID
 40
1.0
  9
$TEXTSTYLE
  7
Standard
  9
$CLAYER
  8
0
  9
$CELTYPE
  6
ByLayer
  9
$CECOLOR
 62
   256
  9
$CELTSCALE
 40
1.0
  9
$DISPSILH
 70
     0
  9
$DIMSCALE
 40
1.0
  9
$DIMASZ
 40
3.5
  9
$DIMEXO
 40
0.01
  9
$DIMDLI
 40
3.75
  9
$DIMRND
 40
0.0
  9
$DIMDLE
 40
0.0
  9
$DIMEXE
 40
1.0
  9
$DIMTP
 40
0.0
  9
$DIMTM
 40
0.0
  9
$DIMTXT
 40
3.5
  9
$DIMCEN
 40
2.5
  9
$DIMTSZ
 40
0.0
  9
$DIMTOL
 70
     0
  9
$DIMLIM
 70
     0
  9
$DIMTIH
 70
     1
  9
$DIMTOH
 70
     1
  9
$DIMSE1
 70
     0
  9
$DIMSE2
 70
     0
  9
$DIMTAD
 70
     1
  9
$DIMZIN
 70
     0
  9
$DIMBLK
  1

  9
$DIMASO
 70
     1
  9
$DIMSHO
 70
     1
  9
$DIMPOST
  1

  9
$DIMAPOST
  1

  9
$DIMALT
 70
     0
  9
$DIMALTD
 70
     3
  9
$DIMALTF
 40
0.0393700787
  9
$DIMLFAC
 40
1.0
  9
$DIMTOFL
 70
     1
  9
$DIMTVP
 40
0.0
  9
$DIMTIX
 70
     0
  9
$DIMSOXD
 70
     0
  9
$DIMSAH
 70
     0
  9
$DIMBLK1
  1

  9
$DIMBLK2
  1

  9
$DIMSTYLE
  2
ISO-25
  9
$DIMCLRD
 70
     0
  9
$DIMCLRE
 70
     0
  9
$DIMCLRT
 70
     0
  9
$DIMTFAC
 40
1.0
  9
$DIMGAP
 40
3.0
  9
$DIMJUST
 70
     0
  9
$DIMSD1
 70
     0
  9
$DIMSD2
 70
     0
  9
$DIMTOLJ
 70
     0
  9
$DIMTZIN
 70
     0
  9
$DIMALTZ
 70
     0
  9
$DIMALTTZ
 70
     0
  9
$DIMUPT
 70
     0
  9
$DIMDEC
 70
     2
  9
$DIMTDEC
 70
     3
  9
$DIMALTU
 70
     2
  9
$DIMALTTD
 70
     3
  9
$DIMTXSTY
  7
Standard
  9
$DIMAUNIT
 70
     0
  9
$DIMADEC
 70
     2
  9
$DIMALTRND
 40
0.0
  9
$DIMAZIN
 70
     0
  9
$DIMDSEP
 70
    44
  9
$DIMATFIT
 70
     3
  9
$DIMFRAC
 70
     0
  9
$DIMLDRBLK
  1

  9
$DIMLUNIT
 70
     2
  9
$DIMLWD
 70
    -2
  9
$DIMLWE
 70
    -2
  9
$DIMTMOVE
 70
     0
  9
$LUNITS
 70
     2
  9
$LUPREC
 70
     4
  9
$SKETCHINC
 40
1.0
  9
$FILLETRAD
 40
10.0
  9
$AUNITS
 70
     0
  9
$AUPREC
 70
     2
  9
$MENU
  1
.
  9
$ELEVATION
 40
0.0
  9
$PELEVATION
 40
0.0
  9
$THICKNESS
 40
0.0
  9
$LIMCHECK
 70
     0
  9
$CHAMFERA
 40
0.0
  9
$CHAMFERB
 40
0.0
  9
$CHAMFERC
 40
0.0
  9
$CHAMFERD
 40
0.0
  9
$SKPOLY
 70
     0
  9
$TDCREATE
 40
2459275.575513403
  9
$TDUCREATE
 40
2459275.450513403
  9
$TDUPDATE
 40
2459275.575513981
  9
$TDUUPDATE
 40
2459275.450513981
  9
$TDINDWG
 40
0.0000000116
  9
$TDUSRTIMER
 40
0.0000000116
  9
$USRTIMER
 70
     1
  9
$ANGBASE
 50
0.0
  9
$ANGDIR
 70
     0
  9
$PDMODE
 70
     0
  9
$PDSIZE
 40
-1.0
  9
$PLINEWID
 40
0.0
  9
$SPLFRAME
 70
     0
  9
$SPLINETYPE
 70
     6
  9
$SPLINESEGS
 70
     8
  9
$HANDSEED
  5
282
  9
$SURFTAB1
 70
     6
  9
$SURFTAB2
 70
     6
  9
$SURFTYPE
 70
     6
  9
$SURFU
 70
     6
  9
$SURFV
 70
     6
  9
$UCSBASE
  2

  9
$UCSNAME
  2

  9
$UCSORG
 10
0.0
 20
0.0
 30
0.0
  9
$UCSXDIR
 10
1.0
 20
0.0
 30
0.0
  9
$UCSYDIR
 10
0.0
 20
1.0
 30
0.0
  9
$UCSORTHOREF
  2

  9
$UCSORTHOVIEW
 70
     0
  9
$UCSORGTOP
 10
0.0
 20
0.0
 30
0.0
  9
$UCSORGBOTTOM
 10
0.0
 20
0.0
 30
0.0
  9
$UCSORGLEFT
 10
0.0
 20
0.0
 30
0.0
  9
$UCSORGRIGHT
 10
0.0
 20
0.0
 30
0.0
  9
$UCSORGFRONT
 10
0.0
 20
0.0
 30
0.0
  9
$UCSORGBACK
 10
0.0
 20
0.0
 30
0.0
  9
$PUCSBASE
  2

  9
$PUCSNAME
  2

  9
$PUCSORG
 10
0.0
 20
0.0
 30
0.0
  9
$PUCSXDIR
 10
1.0
 20
0.0
 30
0.0
  9
$PUCSYDIR
 10
0.0
 20
1.0
 30
0.0
  9
$PUCSORTHOREF
  2

  9
$PUCSORTHOVIEW
 70
     0
  9
$PUCSORGTOP
 10
0.0
 20
0.0
 30
0.0
  9
$PUCSORGBOTTOM
 10
0.0
 20
0.0
 30
0.0
  9
$PUCSORGLEFT
 10
0.0
 20
0.0
 30
0.0
  9
$PUCSORGRIGHT
 10
0.0
 20
0.0
 30
0.0
  9
$PUCSORGFRONT
 10
0.0
 20
0.0
 30
0.0
  9
$PUCSORGBACK
 10
0.0
 20
0.0
 30
0.0
  9
$USERI1
 70
     0
  9
$USERI2
 70
     0
  9
$USERI3
 70
     0
  9
$USERI4
 70
     0
  9
$USERI5
 70
     0
  9
$USERR1
 40
0.0
  9
$USERR2
 40
0.0
  9
$USERR3
 40
0.0
  9
$USERR4
 40
0.0
  9
$USERR5
 40
0.0
  9
$WORLDVIEW
 70
     1
  9
$SHADEDGE
 70
     3
  9
$SHADEDIF
 70
    70
  9
$TILEMODE
 70
     1
  9
$MAXACTVP
 70
    64
  9
$PINSBASE
 10
0.0
 20
0.0
 30
0.0
  9
$PLIMCHECK
 70
     0
  9
$PEXTMIN
 10
1.0000000000E+20
 20
1.0000000000E+20
 30
1.0000000000E+20
  9
$PEXTMAX
 10
-1.0000000000E+20
 20
-1.0000000000E+20
 30
-1.0000000000E+20
  9
$PLIMMIN
 10
0.0
 20
0.0
  9
$PLIMMAX
 10
420.0
 20
297.0
  9
$UNITMODE
 70
     0
  9
$VISRETAIN
 70
     1
  9
$PLINEGEN
 70
     0
  9
$PSLTSCALE
 70
     1
  9
$TREEDEPTH
 70
  3020
  9
$CMLSTYLE
  2
Standard
  9
$CMLJUST
 70
     0
  9
$CMLSCALE
 40
20.0
  9
$PROXYGRAPHICS
 70
     1
  9
$MEASUREMENT
 70
     1
  9
$CELWEIGHT
370
    -1
  9
$ENDCAPS
280
     0
  9
$JOINSTYLE
280
     0
  9
$LWDISPLAY
290
     1
  9
$INSUNITS
 70
     4
  9
$HYPERLINKBASE
  1

  9
$STYLESHEET
  1

  9
$XEDIT
290
     1
  9
$CEPSNTYPE
380
     0
  9
$PSTYLEMODE
290
     1
  9
$FINGERPRINTGUID
  2
{d2ffcdd0-b462-4e2c-b24d-b9758078c37f}
  9
$VERSIONGUID
  2
{FAEB1C32-E019-11D5-929B-00C0DF256EC4}
  9
$EXTNAMES
290
     1
  9
$PSVPSCALE
 40
0.0
  9
$OLESTARTUP
290
     0
  0
ENDSEC
  0
SECTION
  2
CLASSES
  0
CLASS
  1
ACDBDICTIONARYWDFLT
  2
AcDbDictionaryWithDefault
  3
ObjectDBX Classes
 90
        0
280
     0
281
     0
  0
CLASS
  1
VISUALSTYLE
  2
AcDbVisualStyle
  3
ObjectDBX Classes
 90
     4095
280
     0
281
     0
  0
CLASS
  1
MATERIAL
  2
AcDbMaterial
  3
ObjectDBX Classes
 90
     1153
280
     0
281
     0
  0
CLASS
  1
SCALE
  2
AcDbScale
  3
ObjectDBX Classes
 90
     1153
280
     0
281
     0
  0
CLASS
  1
TABLESTYLE
  2
AcDbTableStyle
  3
ObjectDBX Classes
 90
     4095
280
     0
281
     0
  0
CLASS
  1
MLEADERSTYLE
  2
AcDbMLeaderStyle
  3
ACDB_MLEADERSTYLE_CLASS
 90
     4095
280
     0
281
     0
  0
CLASS
  1
SUN
  2
AcDbSun
  3
SCENEOE
 90
     1153
280
     0
281
     0
  0
CLASS
  1
ACDBPLACEHOLDER
  2
AcDbPlaceHolder
  3
ObjectDBX Classes
 90
        0
280
     0
281
     0
  0
CLASS
  1
LAYOUT
  2
AcDbLayout
  3
ObjectDBX Classes
 90
        0
280
     0
281
     0
  0
ENDSEC
  0
SECTION
  2
TABLES
  0
TABLE
  2
VPORT
  5
8
330
0
100
AcDbSymbolTable
 70
     1
  0
VPORT
  5
29
330
8
100
AcDbSymbolTableRecord
100
AcDbViewportTableRecord
  2
*Active
 70
     0
 10
0.0
 20
0.0
 11
1.0
 21
1.0
 12
594.5
 22
420.5
 13
0.0
 23
0.0
 14
10.0
 24
10.0
 15
10.0
 25
10.0
 16
0.0
 26
0.0
 36
1.0
 17
0.0
 27
0.0
 37
0.0
 40
841.0
 41
1.4137931034
 42
50.0
 43
0.0
 44
0.0
 50
0.0
 51
0.0
 71
     0
 72
  2000
 73
     1
 74
     3
 75
     0
 76
     0
 77
     0
 78
     0
281
     0
 65
     1
110
0.0
120
0.0
130
0.0
111
1.0
121
0.0
131
0.0
112
0.0
122
1.0
132
0.0
 79
     0
146
0.0
  0
ENDTAB
  0
TABLE
  2
LTYPE
  5
5
330
0
100
AcDbSymbolTable
 70
     6
  0
LTYPE
  5
14
330
5
100
AcDbSymbolTableRecord
100
AcDbLinetypeTableRecord
  2
ByBlock
 70
     0
  3

 72
    65
 73
     0
 40
0.0
  0
LTYPE
  5
15
330
5
100
AcDbSymbolTableRecord
100
AcDbLinetypeTableRecord
  2
ByLayer
 70
     0
  3

 72
    65
 73
     0
 40
0.0
  0
LTYPE
  5
16
330
5
100
AcDbSymbolTableRecord
100
AcDbLinetypeTableRecord
  2
Continuous
 70
     0
  3
Solid line
 72
    65
 73
     0
 40
0.0
  0
LTYPE
  5
6E
330
5
100
AcDbSymbolTableRecord
100
AcDbLinetypeTableRecord
  2
HIDDEN
 70
     0
  3
Hidden __ __ __ __ __ __ __ __ __ __ __ __ __ __
 72
    65
 73
     2
 40
1.905
 49
1.27
 74
     0
 49
-0.635
 74
     0
  0
LTYPE
  5
6F
330
5
100
AcDbSymbolTableRecord
100
AcDbLinetypeTableRecord
  2
PHANTOM
 70
     0
  3
Phantom ______  __  __  ______  __  __  ______
 72
    65
 73
     6
 40
12.7
 49
6.35
 74
     0
 49
-1.27
 74
     0
 49
1.27
 74
     0
 49
-1.27
 74
     0
 49
1.27
 74
     0
 49
-1.27
 74
     0
  0
LTYPE
  5
70
330
5
100
AcDbSymbolTableRecord
100
AcDbLinetypeTableRecord
  2
CENTER
 70
     0
  3
Center ____ _ ____ _ ____ _ ____ _ ____ _ ____
 72
    65
 73
     4
 40
10.16
 49
6.35
 74
     0
 49
-1.27
 74
     0
 49
1.27
 74
     0
 49
-1.27
 74
     0
  0
LTYPE
  5
71
330
5
100
AcDbSymbolTableRecord
100
AcDbLinetypeTableRecord
  2
CENTERX2
 70
     0
  3
Center (2x) ________  __  ________  __  _____
 72
    65
 73
     4
 40
20.32
 49
12.7
 74
     0
 49
-2.54
 74
     0
 49
2.54
 74
     0
 49
-2.54
 74
     0
  0
LTYPE
  5
72
330
5
100
AcDbSymbolTableRecord
100
AcDbLinetypeTableRecord
  2
DOT2
 70
     0
  3
Dot (.5x) ........................................
 72
    65
 73
     2
 40
0.635
 49
0.0
 74
     0
 49
-0.635
 74
     0
  0
ENDTAB
  0
TABLE
  2
LAYER
  5
2
330
0
100
AcDbSymbolTable
 70
     5
  0
LAYER
  5
10
330
2
100
AcDbSymbolTableRecord
100
AcDbLayerTableRecord
  2
0
 70
     0
 62
     7
  6
Continuous
370
    -3
390
F
  0
LAYER
  5
73
330
2
100
AcDbSymbolTableRecord
100
AcDbLayerTableRecord
  2
ОСЕВЫЕ
 70
     0
 62
     7
  6
Continuous
370
    -3
390
F
  0
LAYER
  5
74
330
2
100
AcDbSymbolTableRecord
100
AcDbLayerTableRecord
  2
ВОДЯНЫЕ_ЗНАКИ
 70
     0
 62
    11
  6
Continuous
370
    -3
390
F
  0
LAYER
  5
75
330
2
100
AcDbSymbolTableRecord
100
AcDbLayerTableRecord
  2
ОСНОВНОЙ
 70
     0
 62
     7
  6
Continuous
370
    25
390
F
  0
LAYER
  5
76
330
2
100
AcDbSymbolTableRecord
100
AcDbLayerTableRecord
  2
FORMAT
 70
     0
 62
     7
  6
Continuous
370
    -3
390
F
  0
ENDTAB
  0
TABLE
  2
STYLE
  5
3
330
0
100
AcDbSymbolTable
 70
     1
  0
STYLE
  5
11
330
3
100
AcDbSymbolTableRecord
100
AcDbTextStyleTableRecord
  2
Standard
 70
     0
 40
0.0
 41
1.0
 50
0.0
 71
     0
 42
3.5
  3
txt
  4

  0
ENDTAB
  0
TABLE
  2
VIEW
  5
6
330
0
100
AcDbSymbolTable
 70
     0
  0
ENDTAB
  0
TABLE
  2
UCS
  5
7
330
0
100
AcDbSymbolTable
 70
     0
  0
ENDTAB
  0
TABLE
  2
APPID
  5
9
330
0
100
AcDbSymbolTable
 70
     1
  0
APPID
  5
12
330
9
100
AcDbSymbolTableRecord
100
AcDbRegAppTableRecord
  2
ACAD
 70
     0
  0
ENDTAB
  0
TABLE
  2
DIMSTYLE
  5
A
330
0
100
AcDbSymbolTable
 70
     1
100
AcDbDimStyleTable
  0
DIMSTYLE
105
27
330
A
100
AcDbSymbolTableRecord
100
AcDbDimStyleTableRecord
  2
ISO-25
 70
     0
 41
2.5
 42
0.625
 43
3.75
 44
1.25
 73
     0
 74
     0
 77
     1
 78
     8
140
2.5
141
2.5
143
0.0393700787
147
0.625
171
     3
172
     1
178
     0
271
     2
272
     2
274
     3
278
    44
283
     0
284
     8
340
11
  0
ENDTAB
  0
TABLE
  2
BLOCK_RECORD
  5
1
330
0
100
AcDbSymbolTable
 70
     1
  0
BLOCK_RECORD
  5
1F
330
1
100
AcDbSymbolTableRecord
100
AcDbBlockTableRecord
  2
*Model_Space
340
22
  0
BLOCK_RECORD
  5
1B
330
1
100
AcDbSymbolTableRecord
100
AcDbBlockTableRecord
  2
*Paper_Space
340
1E
  0
BLOCK_RECORD
  5
23
330
1
100
AcDbSymbolTableRecord
100
AcDbBlockTableRecord
  2
*Paper_Space0
340
26
  0
ENDTAB
  0
ENDSEC
  0
SECTION
  2
BLOCKS
  0
BLOCK
  5
20
330
1F
100
AcDbEntity
  8
0
100
AcDbBlockBegin
  2
*Model_Space
 70
     0
 10
0.0
 20
0.0
 30
0.0
  3
*Model_Space
  1

  0
ENDBLK
  5
21
330
1F
100
AcDbEntity
  8
0
100
AcDbBlockEnd
  0
BLOCK
  5
1C
330
1B
100
AcDbEntity
 67
     1
  8
0
100
AcDbBlockBegin
  2
*Paper_Space
 70
     0
 10
0.0
 20
0.0
 30
0.0
  3
*Paper_Space
  1

  0
ENDBLK
  5
1D
330
1B
100
AcDbEntity
 67
     1
  8
0
100
AcDbBlockEnd
  0
BLOCK
  5
24
330
23
100
AcDbEntity
  8
0
100
AcDbBlockBegin
  2
*Paper_Space0
 70
     0
 10
0.0
 20
0.0
 30
0.0
  3
*Paper_Space0
  1

  0
ENDBLK
  5
25
330
23
100
AcDbEntity
  8
0
100
AcDbBlockEnd
  0
ENDSEC
  0
SECTION
  2
ENTITIES
  0
ARC
  5
77
330
1F
100
AcDbEntity
  8
0
  6
Continuous
 62
     7
370
    25
100
AcDbCircle
 10
39.4862540654
 20
227.0193754326
 30
0.0
 40
4.176571428571439
100
AcDbArc
 50
282.795595001
 51
318.333259686
  0
ARC
  5
78
330
1F
100
AcDbEntity
  8
0
  6
Continuous
 62
     7
370
    25
100
AcDbCircle
 10
39.4862540654
 20
227.0193754326
 30
0.0
 40
4.176571428571437
100
AcDbArc
 50
221.666740314
 51
257.204404999
  0
ARC
  5
79
330
1F
100
AcDbEntity
  8
0
  6
Continuous
 62
     7
370
    25
100
AcDbCircle
 10
39.4862540654
 20
810.8662325756
 30
0.0
 40
4.176571428571521
100
AcDbArc
 50
41.666740314
 51
77.204404999
  0
ARC
  5
7A
330
1F
100
AcDbEntity
  8
0
  6
Continuous
 62
     7
370
    25
100
AcDbCircle
 10
39.4862540654
 20
810.8662325756
 30
0.0
 40
4.17657142857152
100
AcDbArc
 50
102.795595001
 51
138.333259686
  0
LINE
  5
7B
330
1F
100
AcDbEntity
  8
0
  6
Continuous
 62
     7
370
    25
100
AcDbLine
 10
39.4862540654
 20
222.9465233732
 30
0.0
 11
40.4112540654
 21
222.9465233732
 31
0.0
  0
LINE
  5
7C
330
1F
100
AcDbEntity
  8
0
  6
Continuous
 62
     7
370
    25
100
AcDbLine
 10
38.5612540654
 20
222.9465233732
 30
0.0
 11
39.4862540654
 21
222.9465233732
 31
0.0
  0
LINE
  5
7D
330
1F
100
AcDbEntity
  8
0
  6
Continuous
 62
     7
370
    25
100
AcDbLine
 10
39.4862540654
 20
814.939084635
 30
0.0
 11
38.5612540654
 21
814.939084635
 31
0.0
  0
LINE
  5
7E
330
1F
100
AcDbEntity
  8
0
  6
Continuous
 62
     7
370
    25
100
AcDbLine
 10
40.4112540654
 20
814.939084635
 30
0.0
 11
39.4862540654
 21
814.939084635
 31
0.0
  0
LINE
  5
7F
330
1F
100
AcDbEntity
  8
0
  6
Continuous
 62
     7
370
    25
100
AcDbLine
 10
611.2785105758
 20
235.442804004
 30
0.0
 11
611.2785105758
 21
802.442804004
 31
0.0
  0
LINE
  5
80
330
1F
100
AcDbEntity
  8
0
  6
Continuous
 62
     7
370
    25
100
AcDbLine
 10
611.2785105758
 20
802.442804004
 30
0.0
 11
620.4862540653
 21
811.6505474935
 31
0.0
  0
LINE
  5
81
330
1F
100
AcDbEntity
  8
0
  6
Continuous
 62
     7
370
    25
100
AcDbLine
 10
620.4862540653
 20
226.2350605145
 30
0.0
 11
620.4862540653
 21
811.6505474935
 31
0.0
  0
LINE
  5
82
330
1F
100
AcDbEntity
  8
0
  6
Continuous
 62
     7
370
    25
100
AcDbLine
 10
620.4862540653
 20
226.2350605145
 30
0.0
 11
611.2785105758
 21
235.442804004
 31
0.0
  0
SPLINE
  5
83
330
1F
100
AcDbEntity
  8
0
  6
Continuous
 62
     7
370
    25
100
AcDbSpline
210
0.0
220
0.0
230
1.0
 70
     8
 71
     3
 72
    10
 73
     6
 74
     0
 42
0.00000001
 43
0.00000001
 40
0.0
 40
0.0
 40
0.0
 40
0.0
 40
0.5
 40
0.5
 40
1.0
 40
1.0
 40
1.0
 40
1.0
 10
620.4862540653213
 20
226.2350605144632
 30
0.0
 10
620.6530449096279
 20
226.1030177627206
 30
0.0
 10
620.8197524103434
 20
225.9709750109781
 30
0.0
 10
621.1247519463194
 20
225.7068895074931
 30
0.0
 10
621.2628915765928
 20
225.5748467557507
 30
0.0
 10
621.3749671093127
 20
225.4428040040082
 30
0.0
  0
LINE
  5
84
330
1F
100
AcDbEntity
  8
0
  6
Continuous
 62
     7
370
    25
100
AcDbLine
 10
621.0046700076
 20
225.442804004
 30
0.0
 11
621.3749671093
 21
225.442804004
 31
0.0
  0
SPLINE
  5
85
330
1F
100
AcDbEntity
  8
0
  6
Continuous
 62
     7
370
    25
100
AcDbSpline
210
0.0
220
0.0
230
1.0
 70
     8
 71
     3
 72
    10
 73
     6
 74
     0
 42
0.00000001
 43
0.00000001
 40
0.0
 40
0.0
 40
0.0
 40
0.0
 40
0.5
 40
0.5
 40
1.0
 40
1.0
 40
1.0
 40
1.0
 10
620.4862540653213
 20
226.2350605144632
 30
0.0
 10
620.5835565623494
 20
226.1030071256394
 30
0.0
 10
620.6807947665841
 20
225.9709750109782
 30
0.0
 10
620.8587111625703
 20
225.7068895074932
 30
0.0
 10
620.9392873469002
 20
225.5748573928319
 30
0.0
 10
621.0046700076497
 20
225.4428040040082
 30
0.0
  0
LINE
  5
86
330
1F
100
AcDbEntity
  8
0
  6
Continuous
 62
     7
370
    25
100
AcDbLine
 10
621.6862540653
 20
225.442804004
 30
0.0
 11
621.6862540653
 21
812.442804004
 31
0.0
  0
LINE
  5
87
330
1F
100
AcDbEntity
  8
0
  6
Continuous
 62
     7
370
    25
100
AcDbLine
 10
621.3749671093
 20
225.442804004
 30
0.0
 11
621.6862540653
 21
225.442804004
 31
0.0
  0
SPLINE
  5
88
330
1F
100
AcDbEntity
  8
0
  6
Continuous
 62
     7
370
    25
100
AcDbSpline
210
0.0
220
0.0
230
1.0
 70
     8
 71
     3
 72
    10
 73
     6
 74
     0
 42
0.00000001
 43
0.00000001
 40
0.0
 40
0.0
 40
0.0
 40
0.0
 40
0.5
 40
0.5
 40
1.0
 40
1.0
 40
1.0
 40
1.0
 10
621.3749671093126
 20
812.4428040040028
 30
0.0
 10
621.2628915765928
 20
812.3107612522602
 30
0.0
 10
621.1247519463194
 20
812.1787185005177
 30
0.0
 10
620.8197524103432
 20
811.9146329970326
 30
0.0
 10
620.6530449096276
 20
811.7825902452902
 30
0.0
 10
620.4862540653212
 20
811.6505474935476
 30
0.0
  0
LINE
  5
89
330
1F
100
AcDbEntity
  8
0
  6
Continuous
 62
     7
370
    25
100
AcDbLine
 10
621.6862540653
 20
812.442804004
 30
0.0
 11
621.3749671093
 21
812.442804004
 31
0.0
  0
LINE
  5
8A
330
1F
100
AcDbEntity
  8
0
  6
Continuous
 62
     7
370
    25
100
AcDbLine
 10
621.0046700076
 20
812.442804004
 30
0.0
 11
621.3749671093
 21
812.442804004
 31
0.0
  0
SPLINE
  5
8B
330
1F
100
AcDbEntity
  8
0
  6
Continuous
 62
     7
370
    25
100
AcDbSpline
210
0.0
220
0.0
230
1.0
 70
     8
 71
     3
 72
    10
 73
     6
 74
     0
 42
0.00000001
 43
0.00000001
 40
0.0
 40
0.0
 40
0.0
 40
0.0
 40
0.5
 40
0.5
 40
1.0
 40
1.0
 40
1.0
 40
1.0
 10
621.0046700076495
 20
812.4428040040028
 30
0.0
 10
620.9392873469001
 20
812.310750615179
 30
0.0
 10
620.8587111625702
 20
812.1787185005177
 30
0.0
 10
620.680794766584
 20
811.9146329970328
 30
0.0
 10
620.5835565623493
 20
811.7826008823714
 30
0.0
 10
620.4862540653212
 20
811.6505474935476
 30
0.0
  0
LINE
  5
8C
330
1F
100
AcDbEntity
  8
0
  6
Continuous
 62
     7
370
    25
100
AcDbLine
 10
619.9862540653
 20
224.9243880617
 30
0.0
 11
619.9862540653
 21
224.55409096
 31
0.0
  0
SPLINE
  5
8D
330
1F
100
AcDbEntity
  8
0
  6
Continuous
 62
     7
370
    25
100
AcDbSpline
210
0.0
220
0.0
230
1.0
 70
     8
 71
     3
 72
    10
 73
     6
 74
     0
 42
0.00000001
 43
0.00000001
 40
0.0
 40
0.0
 40
0.0
 40
0.0
 40
0.5
 40
0.5
 40
1.0
 40
1.0
 40
1.0
 40
1.0
 10
619.9862540653394
 20
224.5540909600133
 30
0.0
 10
619.9802521220784
 20
224.6661664927333
 30
0.0
 10
619.9742501788172
 20
224.8043061230065
 30
0.0
 10
619.9622462922952
 20
225.1093056589829
 30
0.0
 10
619.9562443490341
 20
225.2760131596984
 30
0.0
 10
619.9502424057731
 20
225.4428040040047
 30
0.0
  0
SPLINE
  5
8E
330
1F
100
AcDbEntity
  8
0
  6
Continuous
 62
     7
370
    25
100
AcDbSpline
210
0.0
220
0.0
230
1.0
 70
     8
 71
     3
 72
    10
 73
     6
 74
     0
 42
0.00000001
 43
0.00000001
 40
0.0
 40
0.0
 40
0.0
 40
0.0
 40
0.5
 40
0.5
 40
1.0
 40
1.0
 40
1.0
 40
1.0
 10
619.9862540653395
 20
224.9243880616764
 30
0.0
 10
619.9802507532488
 20
224.9897803660187
 30
0.0
 10
619.9742501788174
 20
225.0703469067558
 30
0.0
 10
619.9622462922954
 20
225.248263302742
 30
0.0
 10
619.9562457178638
 20
225.3454871553789
 30
0.0
 10
619.9502424057732
 20
225.4428040040047
 30
0.0
  0
LINE
  5
8F
330
1F
100
AcDbEntity
  8
0
  6
Continuous
 62
     7
370
    25
100
AcDbLine
 10
620.4862540653
 20
224.242804004
 30
0.0
 11
620.4862540653
 21
224.55409096
 31
0.0
  0
LINE
  5
90
330
1F
100
AcDbEntity
  8
0
  6
Continuous
 62
     7
370
    25
100
AcDbLine
 10
33.4862540654
 20
224.242804004
 30
0.0
 11
620.4862540653
 21
224.242804004
 31
0.0
  0
LINE
  5
91
330
1F
100
AcDbEntity
  8
0
  6
Continuous
 62
     7
370
    25
100
AcDbLine
 10
33.4862540654
 20
224.55409096
 30
0.0
 11
33.4862540654
 21
224.242804004
 31
0.0
  0
LINE
  5
92
330
1F
100
AcDbEntity
  8
0
  6
Continuous
 62
     7
370
    25
100
AcDbLine
 10
33.9862540654
 20
224.55409096
 30
0.0
 11
33.4862540654
 21
224.55409096
 31
0.0
  0
SPLINE
  5
93
330
1F
100
AcDbEntity
  8
0
  6
Continuous
 62
     7
370
    25
100
AcDbSpline
210
0.0
220
0.0
230
1.0
 70
     8
 71
     3
 72
    10
 73
     6
 74
     0
 42
0.00000001
 43
0.00000001
 40
0.0
 40
0.0
 40
0.0
 40
0.0
 40
0.5
 40
0.5
 40
1.0
 40
1.0
 40
1.0
 40
1.0
 10
34.05827738455647
 20
225.4428040040046
 30
0.0
 10
34.04627349803441
 20
225.2760131596983
 30
0.0
 10
34.03426961151229
 20
225.1093056589826
 30
0.0
 10
34.01026183846817
 20
224.8043061230066
 30
0.0
 10
33.99825795194605
 20
224.6661664927332
 30
0.0
 10
33.98625406542399
 20
224.5540909600133
 30
0.0
  0
LINE
  5
94
330
1F
100
AcDbEntity
  8
0
  6
Continuous
 62
     7
370
    25
100
AcDbLine
 10
34.0582773846
 20
225.442804004
 30
0.0
 11
619.9502424058
 21
225.442804004
 31
0.0
  0
LINE
  5
95
330
1F
100
AcDbEntity
  8
0
  6
Continuous
 62
     7
370
    25
100
AcDbLine
 10
620.4862540653
 20
224.55409096
 30
0.0
 11
619.9862540653
 21
224.55409096
 31
0.0
  0
LINE
  5
96
330
1F
100
AcDbEntity
  8
0
  6
Continuous
 62
     7
370
    25
100
AcDbLine
 10
45.1081568205
 20
235.6505474935
 30
0.0
 11
611.2785105758
 21
235.6505474934
 31
0.0
  0
LINE
  5
97
330
1F
100
AcDbEntity
  8
0
  6
Continuous
 62
     7
370
    25
100
AcDbLine
 10
34.0582773846
 20
225.442804004
 30
0.0
 11
34.1673682937
 21
226.6428040044
 31
0.0
  0
LINE
  5
98
330
1F
100
AcDbEntity
  8
0
  6
Continuous
 62
     7
370
    25
100
AcDbLine
 10
619.8869915405
 20
226.8343230393
 30
0.0
 11
619.9502424058
 21
225.442804004
 31
0.0
  0
LINE
  5
99
330
1F
100
AcDbEntity
  8
0
  6
Continuous
 62
     7
370
    25
100
AcDbLine
 10
33.4862540653
 20
813.6428040042
 30
0.0
 11
33.4862540653
 21
813.3315170482
 31
0.0
  0
LINE
  5
9A
330
1F
100
AcDbEntity
  8
0
  6
Continuous
 62
     7
370
    25
100
AcDbLine
 10
620.4862540653
 20
813.6428040042
 30
0.0
 11
33.4862540653
 21
813.6428040042
 31
0.0
  0
LINE
  5
9B
330
1F
100
AcDbEntity
  8
0
  6
Continuous
 62
     7
370
    25
100
AcDbLine
 10
620.4862540653
 20
813.3315170482
 30
0.0
 11
620.4862540653
 21
813.6428040042
 31
0.0
  0
LINE
  5
9C
330
1F
100
AcDbEntity
  8
0
  6
Continuous
 62
     7
370
    25
100
AcDbLine
 10
619.9862540653
 20
813.3315170482
 30
0.0
 11
620.4862540653
 21
813.3315170482
 31
0.0
  0
SPLINE
  5
9D
330
1F
100
AcDbEntity
  8
0
  6
Continuous
 62
     7
370
    25
100
AcDbSpline
210
0.0
220
0.0
230
1.0
 70
     8
 71
     3
 72
    10
 73
     6
 74
     0
 42
0.00000001
 43
0.00000001
 40
0.0
 40
0.0
 40
0.0
 40
0.0
 40
0.5
 40
0.5
 40
1.0
 40
1.0
 40
1.0
 40
1.0
 10
619.9502424057557
 20
812.4428040041663
 30
0.0
 10
619.9562443490167
 20
812.6095948484726
 30
0.0
 10
619.9622462922777
 20
812.7763023491883
 30
0.0
 10
619.9742501787997
 20
813.0813018851644
 30
0.0
 10
619.9802521220607
 20
813.2194415154377
 30
0.0
 10
619.9862540653219
 20
813.3315170481576
 30
0.0
  0
LINE
  5
9E
330
1F
100
AcDbEntity
  8
0
  6
Continuous
 62
     7
370
    25
100
AcDbLine
 10
619.9502424058
 20
812.4428040042
 30
0.0
 11
34.0582773845
 21
812.4428040042
 31
0.0
  0
SPLINE
  5
9F
330
1F
100
AcDbEntity
  8
0
  6
Continuous
 62
     7
370
    25
100
AcDbSpline
210
0.0
220
0.0
230
1.0
 70
     8
 71
     3
 72
    10
 73
     6
 74
     0
 42
0.00000001
 43
0.00000001
 40
0.0
 40
0.0
 40
0.0
 40
0.0
 40
0.5
 40
0.5
 40
1.0
 40
1.0
 40
1.0
 40
1.0
 10
33.98625406532213
 20
813.3315170481576
 30
0.0
 10
33.99825795184408
 20
813.2194415154377
 30
0.0
 10
34.01026183836614
 20
813.0813018851644
 30
0.0
 10
34.03426961141032
 20
812.7763023491881
 30
0.0
 10
34.04627349793232
 20
812.6095948484726
 30
0.0
 10
34.05827738445439
 20
812.4428040041662
 30
0.0
  0
LINE
  5
A0
330
1F
100
AcDbEntity
  8
0
  6
Continuous
 62
     7
370
    25
100
AcDbLine
 10
33.4862540653
 20
813.3315170482
 30
0.0
 11
33.9862540653
 21
813.3315170482
 31
0.0
  0
LINE
  5
A1
330
1F
100
AcDbEntity
  8
0
  6
Continuous
 62
     7
370
    25
100
AcDbLine
 10
619.9862540653
 20
812.9612199465
 30
0.0
 11
619.9862540653
 21
813.3315170482
 31
0.0
  0
SPLINE
  5
A2
330
1F
100
AcDbEntity
  8
0
  6
Continuous
 62
     7
370
    25
100
AcDbSpline
210
0.0
220
0.0
230
1.0
 70
     8
 71
     3
 72
    10
 73
     6
 74
     0
 42
0.00000001
 43
0.00000001
 40
0.0
 40
0.0
 40
0.0
 40
0.0
 40
0.5
 40
0.5
 40
1.0
 40
1.0
 40
1.0
 40
1.0
 10
619.9502424057557
 20
812.4428040041663
 30
0.0
 10
619.9562457178463
 20
812.5401208527923
 30
0.0
 10
619.9622462922777
 20
812.6373447054291
 30
0.0
 10
619.9742501787997
 20
812.8152611014152
 30
0.0
 10
619.9802507532313
 20
812.8958276421523
 30
0.0
 10
619.9862540653219
 20
812.9612199464946
 30
0.0
  0
LINE
  5
A3
330
1F
100
AcDbEntity
  8
0
  6
Continuous
 62
     7
370
    25
100
AcDbLine
 10
611.2785105758
 20
802.2350605146
 30
0.0
 11
45.1081568205
 21
802.2350605146
 31
0.0
  0
LINE
  5
A4
330
1F
100
AcDbEntity
  8
0
  6
Continuous
 62
     7
370
    25
100
AcDbLine
 10
34.1310046572
 20
811.6428040044
 30
0.0
 11
34.0582773845
 21
812.4428040042
 31
0.0
  0
LINE
  5
A5
330
1F
100
AcDbEntity
  8
0
  6
Continuous
 62
     7
370
    25
100
AcDbLine
 10
619.9502424058
 20
812.4428040042
 30
0.0
 11
619.8869915405
 21
811.0512849687
 31
0.0
  0
LINE
  5
A6
330
1F
100
AcDbEntity
  8
0
  6
Continuous
 62
     7
370
    25
100
AcDbLine
 10
33.9862540653
 20
812.9612199465
 30
0.0
 11
33.9862540653
 21
813.3315170482
 31
0.0
  0
SPLINE
  5
A7
330
1F
100
AcDbEntity
  8
0
  6
Continuous
 62
     7
370
    25
100
AcDbSpline
210
0.0
220
0.0
230
1.0
 70
     8
 71
     3
 72
    10
 73
     6
 74
     0
 42
0.00000001
 43
0.00000001
 40
0.0
 40
0.0
 40
0.0
 40
0.0
 40
0.5
 40
0.5
 40
1.0
 40
1.0
 40
1.0
 40
1.0
 10
33.98625406532213
 20
812.9612199464945
 30
0.0
 10
33.9982606587178
 20
812.8958278098207
 30
0.0
 10
34.0102618383662
 20
812.8152611014152
 30
0.0
 10
34.03426961141032
 20
812.637344705429
 30
0.0
 10
34.04627079105871
 20
812.5401206032682
 30
0.0
 10
34.05827738445439
 20
812.4428040041662
 30
0.0
  0
LINE
  5
A8
330
1F
100
AcDbEntity
  8
0
  6
Continuous
 62
     7
370
    25
100
AcDbLine
 10
33.9862540654
 20
224.9243880617
 30
0.0
 11
33.9862540654
 21
224.55409096
 31
0.0
  0
SPLINE
  5
A9
330
1F
100
AcDbEntity
  8
0
  6
Continuous
 62
     7
370
    25
100
AcDbSpline
210
0.0
220
0.0
230
1.0
 70
     8
 71
     3
 72
    10
 73
     6
 74
     0
 42
0.00000001
 43
0.00000001
 40
0.0
 40
0.0
 40
0.0
 40
0.0
 40
0.5
 40
0.5
 40
1.0
 40
1.0
 40
1.0
 40
1.0
 10
34.05827738455663
 20
225.4428040040046
 30
0.0
 10
34.04627079116091
 20
225.3454874049027
 30
0.0
 10
34.03426961151251
 20
225.2482633027419
 30
0.0
 10
34.0102618384684
 20
225.0703469067557
 30
0.0
 10
33.99826065881978
 20
224.9897801983501
 30
0.0
 10
33.98625406542411
 20
224.9243880616764
 30
0.0
  0
LINE
  5
AA
330
1F
100
AcDbEntity
  8
0
  6
Continuous
 62
     7
370
    25
100
AcDbLine
 10
620.4862540653
 20
224.9243880617
 30
0.0
 11
619.9862540653
 21
224.9243880617
 31
0.0
  0
LINE
  5
AB
330
1F
100
AcDbEntity
  8
0
  6
Continuous
 62
     7
370
    25
100
AcDbLine
 10
620.4862540653
 20
224.9243880617
 30
0.0
 11
620.4862540653
 21
224.55409096
 31
0.0
  0
LINE
  5
AC
330
1F
100
AcDbEntity
  8
0
  6
Continuous
 62
     7
370
    25
100
AcDbLine
 10
620.4862540653
 20
812.9612199465
 30
0.0
 11
620.4862540653
 21
813.3315170482
 31
0.0
  0
LINE
  5
AD
330
1F
100
AcDbEntity
  8
0
  6
Continuous
 62
     7
370
    25
100
AcDbLine
 10
619.9862540653
 20
812.9612199465
 30
0.0
 11
620.4862540653
 21
812.9612199465
 31
0.0
  0
LINE
  5
AE
330
1F
100
AcDbEntity
  8
0
  6
Continuous
 62
     7
370
    25
100
AcDbLine
 10
33.4862540653
 20
812.9612199465
 30
0.0
 11
33.9862540653
 21
812.9612199465
 31
0.0
  0
LINE
  5
AF
330
1F
100
AcDbEntity
  8
0
  6
Continuous
 62
     7
370
    25
100
AcDbLine
 10
33.4862540653
 20
812.9612199465
 30
0.0
 11
33.4862540653
 21
813.3315170482
 31
0.0
  0
LINE
  5
B0
330
1F
100
AcDbEntity
  8
0
  6
Continuous
 62
     7
370
    25
100
AcDbLine
 10
33.4862540654
 20
224.9243880617
 30
0.0
 11
33.4862540654
 21
224.55409096
 31
0.0
  0
LINE
  5
B1
330
1F
100
AcDbEntity
  8
0
  6
Continuous
 62
     7
370
    25
100
AcDbLine
 10
33.9862540654
 20
224.9243880617
 30
0.0
 11
33.4862540654
 21
224.9243880617
 31
0.0
  0
SPLINE
  5
B2
330
1F
100
AcDbEntity
  8
0
  6
Continuous
 62
     7
370
    25
100
AcDbSpline
210
0.0
220
0.0
230
1.0
 70
     8
 71
     3
 72
    14
 73
    10
 74
     0
 42
0.00000001
 43
0.00000001
 40
0.0
 40
0.0
 40
0.0
 40
0.0
 40
0.25
 40
0.25
 40
0.5
 40
0.5
 40
0.75
 40
0.75
 40
1.0
 40
1.0
 40
1.0
 40
1.0
 10
621.6862540653215
 20
225.4428040040089
 30
0.0
 10
621.6862540653218
 20
225.2857243713291
 30
0.0
 10
621.6550212773244
 20
225.1287065427769
 30
0.0
 10
621.5347977313478
 20
224.8384612275621
 30
0.0
 10
621.4458542762007
 20
224.7053479400367
 30
0.0
 10
621.2237101292927
 20
224.4832037931279
 30
0.0
 10
621.0905968417675
 20
224.3942603379803
 30
0.0
 10
620.8003515265531
 20
224.2740367920029
 30
0.0
 10
620.643333698001
 20
224.2428040040048
 30
0.0
 10
620.4862540653212
 20
224.2428040040048
 30
0.0
  0
SPLINE
  5
B3
330
1F
100
AcDbEntity
  8
0
  6
Continuous
 62
     7
370
    25
100
AcDbSpline
210
0.0
220
0.0
230
1.0
 70
     8
 71
     3
 72
    14
 73
    10
 74
     0
 42
0.00000001
 43
0.00000001
 40
0.0
 40
0.0
 40
0.0
 40
0.0
 40
0.25
 40
0.25
 40
0.5
 40
0.5
 40
0.75
 40
0.75
 40
1.0
 40
1.0
 40
1.0
 40
1.0
 10
621.1862540653214
 20
225.4428040040072
 30
0.0
 10
621.1862540653217
 20
225.3511626196573
 30
0.0
 10
621.1680349389898
 20
225.2595804849553
 30
0.0
 10
621.0979045371702
 20
225.0902707177465
 30
0.0
 10
621.0460208550011
 20
225.0126213000234
 30
0.0
 10
620.9164367693045
 20
224.8830372143267
 30
0.0
 10
620.8387873515817
 20
224.8311535321571
 30
0.0
 10
620.6694775843733
 20
224.761023130337
 30
0.0
 10
620.5778954496712
 20
224.7428040040048
 30
0.0
 10
620.4862540653213
 20
224.7428040040048
 30
0.0
  0
SPLINE
  5
B4
330
1F
100
AcDbEntity
  8
0
  6
Continuous
 62
     7
370
    25
100
AcDbSpline
210
0.0
220
0.0
230
1.0
 70
     8
 71
     3
 72
    14
 73
    10
 74
     0
 42
0.00000001
 43
0.00000001
 40
0.0
 40
0.0
 40
0.0
 40
0.0
 40
0.25
 40
0.25
 40
0.5
 40
0.5
 40
0.75
 40
0.75
 40
1.0
 40
1.0
 40
1.0
 40
1.0
 10
620.4862540651147
 20
813.6428040041664
 30
0.0
 10
620.6433336978114
 20
813.6428040041932
 30
0.0
 10
620.8003515263857
 20
813.6115712162155
 30
0.0
 10
621.0905968416469
 20
813.4913476702627
 30
0.0
 10
621.2237101291964
 20
813.4024042151198
 30
0.0
 10
621.4458542761479
 20
813.1802600682065
 30
0.0
 10
621.5347977313137
 20
813.0471467806725
 30
0.0
 10
621.6550212773163
 20
812.7569014654318
 30
0.0
 10
621.6862540653212
 20
812.599883636863
 30
0.0
 10
621.6862540653212
 20
812.4428040041662
 30
0.0
  0
SPLINE
  5
B5
330
1F
100
AcDbEntity
  8
0
  6
Continuous
 62
     7
370
    25
100
AcDbSpline
210
0.0
220
0.0
230
1.0
 70
     8
 71
     3
 72
    14
 73
    10
 74
     0
 42
0.00000001
 43
0.00000001
 40
0.0
 40
0.0
 40
0.0
 40
0.0
 40
0.25
 40
0.25
 40
0.5
 40
0.5
 40
0.75
 40
0.75
 40
1.0
 40
1.0
 40
1.0
 40
1.0
 10
620.4862540652008
 20
813.1428040041662
 30
0.0
 10
620.5778954495604
 20
813.142804004182
 30
0.0
 10
620.6694775842753
 20
813.1245848778617
 30
0.0
 10
620.8387873515111
 20
813.0544544760559
 30
0.0
 10
620.9164367692483
 20
813.002570793889
 30
0.0
 10
621.0460208549699
 20
812.8729867081898
 30
0.0
 10
621.0979045371502
 20
812.7953372904615
 30
0.0
 10
621.168034938985
 20
812.6260275232379
 30
0.0
 10
621.1862540653212
 20
812.5344453885259
 30
0.0
 10
621.1862540653212
 20
812.4428040041662
 30
0.0
  0
LINE
  5
B6
330
1F
100
AcDbEntity
  8
0
  6
Continuous
 62
     7
370
    25
100
AcDbLine
 10
32.2862540654
 20
225.4428040042
 30
0.0
 11
32.7862540654
 21
225.4428040042
 31
0.0
  0
LINE
  5
B7
330
1F
100
AcDbEntity
  8
0
  6
Continuous
 62
     7
370
    25
100
AcDbLine
 10
32.2862540654
 20
812.4428040042
 30
0.0
 11
32.7862540654
 21
812.4428040042
 31
0.0
  0
LINE
  5
B8
330
1F
100
AcDbEntity
  8
0
  6
Continuous
 62
     7
370
    25
100
AcDbLine
 10
32.2862540654
 20
812.4428040042
 30
0.0
 11
32.2862540654
 21
225.4428040042
 31
0.0
  0
LINE
  5
B9
330
1F
100
AcDbEntity
  8
0
  6
Continuous
 62
     7
370
    25
100
AcDbLine
 10
32.7862540654
 20
812.4428040042
 30
0.0
 11
32.7862540654
 21
812.1428040034
 31
0.0
  0
LINE
  5
BA
330
1F
100
AcDbEntity
  8
0
  6
Continuous
 62
     7
370
    25
100
AcDbLine
 10
32.7862540654
 20
226.1428040053
 30
0.0
 11
32.7862540654
 21
225.4428040042
 31
0.0
  0
SPLINE
  5
BB
330
1F
100
AcDbEntity
  8
0
  6
Continuous
 62
     7
370
    25
100
AcDbSpline
210
0.0
220
0.0
230
1.0
 70
     8
 71
     3
 72
    10
 73
     6
 74
     0
 42
0.00000001
 43
0.00000001
 40
0.0
 40
0.0
 40
0.0
 40
0.0
 40
0.4447430148481368
 40
0.8301181032953789
 40
0.9999999999999999
 40
0.9999999999999999
 40
0.9999999999999999
 40
0.9999999999999999
 10
33.48625406542477
 20
224.9724372208939
 30
0.0
 10
33.57274012959177
 20
224.9768244670151
 30
0.0
 10
33.73416739241735
 20
224.9850133138485
 30
0.0
 10
33.9172650947549
 20
225.0493213158916
 30
0.0
 10
33.99512588585246
 20
225.1157116232764
 30
0.0
 10
34.01894753821222
 20
225.1360238600298
 30
0.0
  0
SPLINE
  5
BC
330
1F
100
AcDbEntity
  8
0
  6
Continuous
 62
     7
370
    25
100
AcDbSpline
210
0.0
220
0.0
230
1.0
 70
     8
 71
     3
 72
     9
 73
     5
 74
     0
 42
0.00000001
 43
0.00000001
 40
0.0
 40
0.0
 40
0.0
 40
0.0
 40
0.4333454081667435
 40
0.9999999999999999
 40
0.9999999999999999
 40
0.9999999999999999
 40
0.9999999999999999
 10
619.9702018916781
 20
225.1318904055103
 30
0.0
 10
620.0398563967706
 20
225.0968094830754
 30
0.0
 10
620.2005930834405
 20
225.0158557640011
 30
0.0
 10
620.3829312857428
 20
224.9881415866548
 30
0.0
 10
620.4862540653437
 20
224.9724372208026
 30
0.0
  0
LINE
  5
BD
330
1F
100
AcDbEntity
  8
0
  6
Continuous
 62
     7
370
    25
100
AcDbLine
 10
620.4862540653
 20
224.9724372208
 30
0.0
 11
620.4862540653
 21
224.9243880617
 31
0.0
  0
LINE
  5
BE
330
1F
100
AcDbEntity
  8
0
  6
Continuous
 62
     7
370
    25
100
AcDbLine
 10
33.4862540654
 20
224.9243880617
 30
0.0
 11
33.4862540654
 21
224.9724372209
 31
0.0
  0
LINE
  5
BF
330
1F
100
AcDbEntity
  8
0
  6
Continuous
 62
     7
370
    25
100
AcDbLine
 10
620.4862540653
 20
812.9612199465
 30
0.0
 11
620.4862540653
 21
812.9131707874
 31
0.0
  0
SPLINE
  5
C0
330
1F
100
AcDbEntity
  8
0
  6
Continuous
 62
     7
370
    25
100
AcDbSpline
210
0.0
220
0.0
230
1.0
 70
     8
 71
     3
 72
    10
 73
     6
 74
     0
 42
0.00000001
 43
0.00000001
 40
0.0
 40
0.0
 40
0.0
 40
0.0
 40
0.4632378770688451
 40
0.8646389825877063
 40
1.0
 40
1.0
 40
1.0
 40
1.0
 10
620.4862540653222
 20
812.9131707873685
 30
0.0
 10
620.3998682524925
 20
812.9086543274931
 30
0.0
 10
620.2386281099816
 20
812.9002243016574
 30
0.0
 10
620.0618452131403
 20
812.8397667854231
 30
0.0
 10
619.9891996126694
 20
812.7786442550698
 30
0.0
 10
619.9708797984164
 20
812.7632303360508
 30
0.0
  0
LINE
  5
C1
330
1F
100
AcDbEntity
  8
0
  6
Continuous
 62
     7
370
    25
100
AcDbLine
 10
33.0158872822
 20
225.4428040042
 30
0.0
 11
32.7862540654
 21
225.4428040042
 31
0.0
  0
SPLINE
  5
C2
330
1F
100
AcDbEntity
  8
0
  6
Continuous
 62
     7
370
    25
100
AcDbSpline
210
0.0
220
0.0
230
1.0
 70
     8
 71
     3
 72
     9
 73
     5
 74
     0
 42
0.00000001
 43
0.00000001
 40
0.0
 40
0.0
 40
0.0
 40
0.0
 40
0.4274156952037143
 40
1.0
 40
1.0
 40
1.0
 40
1.0
 10
33.28625406558372
 20
811.8256483068488
 30
0.0
 10
33.31270987629242
 20
811.8103559709698
 30
0.0
 10
33.37460701999962
 20
811.7745773693634
 30
0.0
 10
33.4456029246934
 20
811.7543728149275
 30
0.0
 10
33.48625406542577
 20
811.7428040041721
 30
0.0
  0
SPLINE
  5
C3
330
1F
100
AcDbEntity
  8
0
  6
Continuous
 62
     7
370
    25
100
AcDbSpline
210
0.0
220
0.0
230
1.0
 70
     8
 71
     3
 72
    11
 73
     7
 74
     0
 42
0.00000001
 43
0.00000001
 40
0.0
 40
0.0
 40
0.0
 40
0.0
 40
0.2813502932886071
 40
0.5568310756050334
 40
0.8434802755104645
 40
1.0
 40
1.0
 40
1.0
 40
1.0
 10
33.48625406542527
 20
226.1428040041722
 30
0.0
 10
33.45535026656976
 20
226.1401641531017
 30
0.0
 10
33.3941873818403
 20
226.1349395233568
 30
0.0
 10
33.30981855127302
 20
226.0979811675446
 30
0.0
 10
33.24718934349763
 20
226.0524691820291
 30
0.0
 10
33.21880250210641
 20
226.0151199684654
 30
0.0
 10
33.20877675267059
 20
226.0019288616545
 30
0.0
  0
ARC
  5
C4
330
1F
100
AcDbEntity
  8
0
  6
Continuous
 62
     7
370
    25
100
AcDbCircle
 10
620.4862540653
 20
812.4428040042
 30
0.0
 40
0.7000000000000455
100
AcDbArc
 50
217.4956835845
 51
270.0
  0
ARC
  5
C5
330
1F
100
AcDbEntity
  8
0
  6
Continuous
 62
     7
370
    25
100
AcDbCircle
 10
33.4862540654
 20
225.4428040042
 30
0.0
 40
0.7000000000000455
100
AcDbArc
 50
30.3346990217
 51
89.9999999999
  0
ARC
  5
C6
330
1F
100
AcDbEntity
  8
0
  6
Continuous
 62
     7
370
    25
100
AcDbCircle
 10
33.4862540653
 20
812.4428040042
 30
0.0
 40
0.7000000000000531
100
AcDbArc
 50
270.0000000085
 51
329.6653009761
  0
ARC
  5
C7
330
1F
100
AcDbEntity
  8
0
  6
Continuous
 62
     7
370
    25
100
AcDbCircle
 10
620.4862540653
 20
225.442804004
 30
0.0
 40
0.6999999999999719
100
AcDbArc
 50
90.0000000019
 51
142.5043164163
  0
LINE
  5
C8
330
1F
100
AcDbEntity
  8
0
  6
Continuous
 62
     7
370
    25
100
AcDbLine
 10
32.7862540656
 20
811.7767786006
 30
0.0
 11
32.7862540656
 21
226.5088294081
 31
0.0
  0
SPLINE
  5
C9
330
1F
100
AcDbEntity
  8
0
  6
Continuous
 62
     7
370
    25
100
AcDbSpline
210
0.0
220
0.0
230
1.0
 70
     8
 71
     3
 72
     9
 73
     5
 74
     0
 42
0.00000001
 43
0.00000001
 40
0.0
 40
0.0
 40
0.0
 40
0.0
 40
0.5000000000000112
 40
1.0
 40
1.0
 40
1.0
 40
1.0
 10
33.00036680480684
 20
811.6428040043586
 30
0.0
 10
32.93867469030653
 20
811.665133103728
 30
0.0
 10
32.81529046130588
 20
811.7097913024664
 30
0.0
 10
32.79593286415783
 20
811.754449501205
 30
0.0
 10
32.78625406558378
 20
811.7767786005743
 30
0.0
  0
LINE
  5
CA
330
1F
100
AcDbEntity
  8
0
  6
Continuous
 62
     7
370
    25
100
AcDbLine
 10
33.7862540656
 20
811.6428040044
 30
0.0
 11
33.0003668048
 21
811.6428040044
 31
0.0
  0
LINE
  5
CB
330
1F
100
AcDbEntity
  8
0
  6
Continuous
 62
     7
370
    25
100
AcDbLine
 10
33.7862540656
 20
811.6428040044
 30
0.0
 11
33.7862540656
 21
226.6428040044
 31
0.0
  0
SPLINE
  5
CC
330
1F
100
AcDbEntity
  8
0
  6
Continuous
 62
     7
370
    25
100
AcDbSpline
210
0.0
220
0.0
230
1.0
 70
     8
 71
     3
 72
     9
 73
     5
 74
     0
 42
0.00000001
 43
0.00000001
 40
0.0
 40
0.0
 40
0.0
 40
0.0
 40
0.5000000000000067
 40
1.0
 40
1.0
 40
1.0
 40
1.0
 10
32.78625406558988
 20
226.5088294081431
 30
0.0
 10
32.79593286416399
 20
226.5311585075124
 30
0.0
 10
32.8152904613121
 20
226.5758167062508
 30
0.0
 10
32.93867469031259
 20
226.6204749049893
 30
0.0
 10
33.00036680481294
 20
226.6428040043586
 30
0.0
  0
LINE
  5
CD
330
1F
100
AcDbEntity
  8
0
  6
Continuous
 62
     7
370
    25
100
AcDbLine
 10
33.0003668048
 20
226.6428040044
 30
0.0
 11
33.7862540656
 21
226.6428040044
 31
0.0
  0
ARC
  5
CE
330
1F
100
AcDbEntity
  8
0
  6
Continuous
 62
     7
370
    25
100
AcDbCircle
 10
34.7244208153
 20
810.6428040044
 30
0.0
 40
0.9999999999999192
100
AcDbArc
 50
48.0127875042
 51
90.0
  0
LINE
  5
CF
330
1F
100
AcDbEntity
  8
0
  6
Continuous
 62
     7
370
    25
100
AcDbLine
 10
35.3933855469
 20
811.3860981506
 30
0.0
 11
45.1081568205
 21
802.6428040044
 31
0.0
  0
LINE
  5
D0
330
1F
100
AcDbEntity
  8
0
  6
Continuous
 62
     7
370
    25
100
AcDbLine
 10
45.1081568205
 20
802.6428040044
 30
0.0
 11
45.1081568205
 21
235.6428040044
 31
0.0
  0
LINE
  5
D1
330
1F
100
AcDbEntity
  8
0
  6
Continuous
 62
     7
370
    25
100
AcDbLine
 10
45.1081568205
 20
235.6428040044
 30
0.0
 11
35.3933855469
 21
226.8995098581
 31
0.0
  0
ARC
  5
D2
330
1F
100
AcDbEntity
  8
0
  6
Continuous
 62
     7
370
    25
100
AcDbCircle
 10
34.7244208153
 20
227.6428040044
 30
0.0
 40
1.000000000000398
100
AcDbArc
 50
270.0
 51
311.9872124959
  0
LINE
  5
D3
330
1F
100
AcDbEntity
  8
0
  6
Continuous
 62
     7
370
    25
100
AcDbLine
 10
34.7244208153
 20
226.6428040044
 30
0.0
 11
33.7862540656
 21
226.6428040044
 31
0.0
  0
LINE
  5
D4
330
1F
100
AcDbEntity
  8
0
  6
Continuous
 62
     7
370
    25
100
AcDbLine
 10
33.7862540656
 20
811.6428040044
 30
0.0
 11
34.7244208153
 21
811.6428040044
 31
0.0
  0
LINE
  5
D5
330
1F
100
AcDbEntity
  8
0
  6
Continuous
 62
     7
370
    25
100
AcDbLine
 10
32.7862540656
 20
811.7767786006
 30
0.0
 11
33.2862540656
 21
811.7767786006
 31
0.0
  0
SPLINE
  5
D6
330
1F
100
AcDbEntity
  8
0
  6
Continuous
 62
     7
370
    25
100
AcDbSpline
210
0.0
220
0.0
230
1.0
 70
     8
 71
     3
 72
     9
 73
     5
 74
     0
 42
0.00000001
 43
0.00000001
 40
0.0
 40
0.0
 40
0.0
 40
0.0
 40
0.4999999999999695
 40
0.9999999999999999
 40
0.9999999999999999
 40
0.9999999999999999
 40
0.9999999999999999
 10
33.39331043519527
 20
811.6428040043586
 30
0.0
 10
33.36246437794516
 20
811.665133103728
 30
0.0
 10
33.30077226344502
 20
811.7097913024663
 30
0.0
 10
33.29109346487081
 20
811.754449501205
 30
0.0
 10
33.28625406558378
 20
811.7767786005743
 30
0.0
  0
SPLINE
  5
D7
330
1F
100
AcDbEntity
  8
0
  6
Continuous
 62
     7
370
    25
100
AcDbSpline
210
0.0
220
0.0
230
1.0
 70
     8
 71
     3
 72
     9
 73
     5
 74
     0
 42
0.00000001
 43
0.00000001
 40
0.0
 40
0.0
 40
0.0
 40
0.0
 40
0.4999999999999837
 40
1.0
 40
1.0
 40
1.0
 40
1.0
 10
33.28625406558988
 20
226.5088294081431
 30
0.0
 10
33.29109346487691
 20
226.5311585075124
 30
0.0
 10
33.30077226345091
 20
226.5758167062508
 30
0.0
 10
33.36246437795126
 20
226.6204749049893
 30
0.0
 10
33.39331043520144
 20
226.6428040043586
 30
0.0
  0
LINE
  5
D8
330
1F
100
AcDbEntity
  8
0
  6
Continuous
 62
     7
370
    25
100
AcDbLine
 10
33.2862540656
 20
226.5088294081
 30
0.0
 11
32.7862540656
 21
226.5088294081
 31
0.0
  0
LINE
  5
D9
330
1F
100
AcDbEntity
  8
0
  6
Continuous
 62
     7
370
    25
100
AcDbLine
 10
32.7862540656
 20
812.1428040044
 30
0.0
 11
32.7862540656
 21
811.7767786006
 31
0.0
  0
LINE
  5
DA
330
1F
100
AcDbEntity
  8
0
  6
Continuous
 62
     7
370
    25
100
AcDbLine
 10
33.2862540656
 20
812.1428040044
 30
0.0
 11
32.7862540656
 21
812.1428040044
 31
0.0
  0
LINE
  5
DB
330
1F
100
AcDbEntity
  8
0
  6
Continuous
 62
     7
370
    25
100
AcDbLine
 10
33.2862540656
 20
812.1428040044
 30
0.0
 11
33.2862540656
 21
811.7767786006
 31
0.0
  0
LINE
  5
DC
330
1F
100
AcDbEntity
  8
0
  6
Continuous
 62
     7
370
    25
100
AcDbLine
 10
32.7862540656
 20
226.1428040044
 30
0.0
 11
33.2862540656
 21
226.1428040044
 31
0.0
  0
LINE
  5
DD
330
1F
100
AcDbEntity
  8
0
  6
Continuous
 62
     7
370
    25
100
AcDbLine
 10
32.7862540656
 20
226.5088294081
 30
0.0
 11
32.7862540656
 21
226.1428040044
 31
0.0
  0
LINE
  5
DE
330
1F
100
AcDbEntity
  8
0
  6
Continuous
 62
     7
370
    25
100
AcDbLine
 10
33.2862540656
 20
226.5088294081
 30
0.0
 11
33.2862540656
 21
226.1428040044
 31
0.0
  0
SPLINE
  5
DF
330
1F
100
AcDbEntity
  8
0
  6
Continuous
 62
     7
370
    25
100
AcDbSpline
210
0.0
220
0.0
230
1.0
 70
     8
 71
     3
 72
     9
 73
     5
 74
     0
 42
0.00000001
 43
0.00000001
 40
0.0
 40
0.0
 40
0.0
 40
0.0
 40
0.4999999999999967
 40
1.0
 40
1.0
 40
1.0
 40
1.0
 10
32.78625406558378
 20
812.1428040043587
 30
0.0
 10
32.79593286415777
 20
812.2548705358344
 30
0.0
 10
32.81529046130588
 20
812.4790035987854
 30
0.0
 10
32.93867469030648
 20
812.6671170712141
 30
0.0
 10
33.00036680480684
 20
812.7611738074283
 30
0.0
  0
LINE
  5
E0
330
1F
100
AcDbEntity
  8
0
  6
Continuous
 62
     7
370
    25
100
AcDbLine
 10
33.3933104352
 20
812.4519889059
 30
0.0
 11
33.0003668048
 21
812.7611738074
 31
0.0
  0
SPLINE
  5
E1
330
1F
100
AcDbEntity
  8
0
  6
Continuous
 62
     7
370
    25
100
AcDbSpline
210
0.0
220
0.0
230
1.0
 70
     8
 71
     3
 72
     9
 73
     5
 74
     0
 42
0.00000001
 43
0.00000001
 40
0.0
 40
0.0
 40
0.0
 40
0.0
 40
0.5000000000000041
 40
0.9999999999999999
 40
0.9999999999999999
 40
0.9999999999999999
 40
0.9999999999999999
 10
33.28625406558378
 20
812.1428040043586
 30
0.0
 10
33.29109346487085
 20
812.1988372700963
 30
0.0
 10
33.30077226344491
 20
812.310903801572
 30
0.0
 10
33.36246437794516
 20
812.4049605377863
 30
0.0
 10
33.39331043519533
 20
812.4519889058936
 30
0.0
  0
SPLINE
  5
E2
330
1F
100
AcDbEntity
  8
0
  6
Continuous
 62
     7
370
    25
100
AcDbSpline
210
0.0
220
0.0
230
1.0
 70
     8
 71
     3
 72
     9
 73
     5
 74
     0
 42
0.00000001
 43
0.00000001
 40
0.0
 40
0.0
 40
0.0
 40
0.0
 40
0.5000000000000023
 40
1.0
 40
1.0
 40
1.0
 40
1.0
 10
33.000366804813
 20
225.5244342012889
 30
0.0
 10
32.93867469031275
 20
225.6184909375033
 30
0.0
 10
32.8152904613121
 20
225.8066044099319
 30
0.0
 10
32.79593286416394
 20
226.0307374728831
 30
0.0
 10
32.78625406558994
 20
226.1428040043587
 30
0.0
  0
LINE
  5
E3
330
1F
100
AcDbEntity
  8
0
  6
Continuous
 62
     7
370
    25
100
AcDbLine
 10
33.3933104352
 20
225.8336191028
 30
0.0
 11
33.0003668048
 21
225.5244342013
 31
0.0
  0
SPLINE
  5
E4
330
1F
100
AcDbEntity
  8
0
  6
Continuous
 62
     7
370
    25
100
AcDbSpline
210
0.0
220
0.0
230
1.0
 70
     8
 71
     3
 72
     9
 73
     5
 74
     0
 42
0.00000001
 43
0.00000001
 40
0.0
 40
0.0
 40
0.0
 40
0.0
 40
0.500000000000075
 40
0.9999999999999999
 40
0.9999999999999999
 40
0.9999999999999999
 40
0.9999999999999999
 10
33.39331043520144
 20
225.8336191028238
 30
0.0
 10
33.36246437795121
 20
225.8806474709309
 30
0.0
 10
33.30077226345102
 20
225.9747042071453
 30
0.0
 10
33.29109346487702
 20
226.0867707386209
 30
0.0
 10
33.28625406558994
 20
226.1428040043587
 30
0.0
  0
LINE
  5
E5
330
1F
100
AcDbEntity
  8
0
  6
Continuous
 62
     7
370
    25
100
AcDbLine
 10
33.7862540656
 20
225.1428040044
 30
0.0
 11
33.7862540656
 21
225.6428040044
 31
0.0
  0
ARC
  5
E6
330
1F
100
AcDbEntity
  8
0
  6
Continuous
 62
     7
370
    25
100
AcDbCircle
 10
33.7862540656
 20
226.1428040044
 30
0.0
 40
1.0
100
AcDbArc
 50
218.1971863421
 51
270.0
  0
ARC
  5
E7
330
1F
100
AcDbEntity
  8
0
  6
Continuous
 62
     7
370
    25
100
AcDbCircle
 10
33.7862540656
 20
226.1428040044
 30
0.0
 40
0.5000000000000036
100
AcDbArc
 50
218.1971863421
 51
270.0
  0
ARC
  5
E8
330
1F
100
AcDbEntity
  8
0
  6
Continuous
 62
     7
370
    25
100
AcDbCircle
 10
33.7862540656
 20
812.1428040044
 30
0.0
 40
0.999999999999964
100
AcDbArc
 50
107.4576031394
 51
141.8028136579
  0
ARC
  5
E9
330
1F
100
AcDbEntity
  8
0
  6
Continuous
 62
     7
370
    25
100
AcDbCircle
 10
33.7862540656
 20
812.1428040044
 30
0.0
 40
0.5000000000000523
100
AcDbArc
 50
90.0
 51
141.8028136579
  0
LINE
  5
EA
330
1F
100
AcDbEntity
  8
0
  6
Continuous
 62
     7
370
    25
100
AcDbLine
 10
33.7862540656
 20
225.1428040044
 30
0.0
 11
34.1081568205
 21
225.1428040044
 31
0.0
  0
LINE
  5
EB
330
1F
100
AcDbEntity
  8
0
  6
Continuous
 62
     7
370
    25
100
AcDbLine
 10
33.7862540656
 20
225.6428040044
 30
0.0
 11
34.0764592028
 21
225.6428040044
 31
0.0
  0
LINE
  5
EC
330
1F
100
AcDbEntity
  8
0
  6
Continuous
 62
     7
370
    25
100
AcDbLine
 10
34.1081568205
 20
812.6428040044
 30
0.0
 11
33.7862540656
 21
812.6428040044
 31
0.0
  0
LINE
  5
ED
330
1F
100
AcDbEntity
  8
0
  6
Continuous
 62
     8
370
    25
100
AcDbLine
 10
620.4862540653
 20
226.142804004
 30
0.0
 11
620.4862540653
 21
226.2350605145
 31
0.0
  0
LINE
  5
EE
330
1F
100
AcDbEntity
  8
0
  6
Continuous
 62
     8
370
    25
100
AcDbLine
 10
620.4862540653
 20
811.6505474935
 30
0.0
 11
620.4862540653
 21
811.7428040042
 31
0.0
  0
LINE
  5
EF
330
1F
100
AcDbEntity
  8
0
  6
Continuous
 62
     8
370
    25
100
AcDbLine
 10
33.4862540654
 20
811.7428040042
 30
0.0
 11
33.4862540654
 21
811.6428040044
 31
0.0
  0
LINE
  5
F0
330
1F
100
AcDbEntity
  8
0
  6
Continuous
 62
     8
370
    25
100
AcDbLine
 10
33.4862540654
 20
226.6428040044
 30
0.0
 11
33.4862540654
 21
226.1428040042
 31
0.0
  0
LINE
  5
F1
330
1F
100
AcDbEntity
  8
0
  6
Continuous
 62
     8
370
    25
100
AcDbLine
 10
33.7862540656
 20
812.6428040044
 30
0.0
 11
33.7862540656
 21
812.9612199465
 31
0.0
  0
LINE
  5
F2
330
1F
100
AcDbEntity
  8
0
  6
Continuous
 62
     7
370
    25
100
AcDbLine
 10
111.9862540653
 20
86.5504499755
 30
0.0
 11
111.9862540653
 21
85.0504499755
 31
0.0
  0
LINE
  5
F3
330
1F
100
AcDbEntity
  8
0
  6
Continuous
 62
     7
370
    25
100
AcDbLine
 10
126.9862540653
 20
85.0504499755
 30
0.0
 11
126.9862540653
 21
86.5504499755
 31
0.0
  0
CIRCLE
  5
F4
330
1F
100
AcDbEntity
  8
0
  6
Continuous
 62
     7
370
    25
100
AcDbCircle
 10
39.4862540654
 20
48.3427064865
 30
0.0
 40
3.120000000000012
  0
CIRCLE
  5
F5
330
1F
100
AcDbEntity
  8
0
  6
Continuous
 62
     7
370
    25
100
AcDbCircle
 10
39.4862540654
 20
48.3427064865
 30
0.0
 40
0.9250000000000114
  0
LINE
  5
F6
330
1F
100
AcDbEntity
  8
0
  6
Continuous
 62
     7
370
    25
100
AcDbLine
 10
582.4862540654
 20
85.0504499761
 30
0.0
 11
582.4862540654
 21
85.5504499761
 31
0.0
  0
LINE
  5
F7
330
1F
100
AcDbEntity
  8
0
  6
Continuous
 62
     7
370
    25
100
AcDbLine
 10
579.9862540654
 20
85.0504499761
 30
0.0
 11
579.9862540654
 21
85.5504499761
 31
0.0
  0
LINE
  5
F8
330
1F
100
AcDbEntity
  8
0
  6
Continuous
 62
     7
370
    25
100
AcDbLine
 10
579.9862540654
 20
85.5504499761
 30
0.0
 11
582.4862540654
 21
85.5504499761
 31
0.0
  0
LINE
  5
F9
330
1F
100
AcDbEntity
  8
0
  6
Continuous
 62
     7
370
    25
100
AcDbLine
 10
568.9862540654
 20
85.0504499761
 30
0.0
 11
568.9862540654
 21
85.5504499761
 31
0.0
  0
LINE
  5
FA
330
1F
100
AcDbEntity
  8
0
  6
Continuous
 62
     7
370
    25
100
AcDbLine
 10
568.9862540654
 20
85.5504499761
 30
0.0
 11
579.9862540654
 21
85.5504499761
 31
0.0
  0
LINE
  5
FB
330
1F
100
AcDbEntity
  8
0
  6
Continuous
 62
     7
370
    25
100
AcDbLine
 10
566.4862540654
 20
85.0504499761
 30
0.0
 11
566.4862540654
 21
85.5504499761
 31
0.0
  0
LINE
  5
FC
330
1F
100
AcDbEntity
  8
0
  6
Continuous
 62
     7
370
    25
100
AcDbLine
 10
566.4862540654
 20
85.5504499761
 30
0.0
 11
568.9862540654
 21
85.5504499761
 31
0.0
  0
SPLINE
  5
FD
330
1F
100
AcDbEntity
  8
0
  6
Continuous
 62
     7
370
    25
100
AcDbSpline
210
0.0
220
0.0
230
1.0
 70
     8
 71
     3
 72
     9
 73
     5
 74
     0
 42
0.00000001
 43
0.00000001
 40
0.0
 40
0.0
 40
0.0
 40
0.0
 40
0.499999999999999
 40
1.0
 40
1.0
 40
1.0
 40
1.0
 10
568.2401258101945
 20
85.55044997607256
 30
0.0
 10
568.3644805193992
 20
85.5600067019295
 30
0.0
 10
568.6131899378083
 20
85.57912015364336
 30
0.0
 10
568.8618993562175
 20
85.69669020404244
 30
0.0
 10
568.986254065422
 20
85.75547522924198
 30
0.0
  0
SPLINE
  5
FE
330
1F
100
AcDbEntity
  8
0
  6
Continuous
 62
     7
370
    25
100
AcDbSpline
210
0.0
220
0.0
230
1.0
 70
     8
 71
     3
 72
     9
 73
     5
 74
     0
 42
0.00000001
 43
0.00000001
 40
0.0
 40
0.0
 40
0.0
 40
0.0
 40
0.4999999999999999
 40
1.0
 40
1.0
 40
1.0
 40
1.0
 10
568.986254065422
 20
85.75547522924198
 30
0.0
 10
568.8618993562175
 20
85.82777550576027
 30
0.0
 10
568.6131899378083
 20
85.97237605879685
 30
0.0
 10
568.3644805193991
 20
86.157758670314
 30
0.0
 10
568.2401258101945
 20
86.25044997607256
 30
0.0
  0
LINE
  5
FF
330
1F
100
AcDbEntity
  8
0
  6
Continuous
 62
     7
370
    25
100
AcDbLine
 10
568.2401258102
 20
86.2504499761
 30
0.0
 11
580.7323823206
 21
86.2504499761
 31
0.0
  0
SPLINE
  5
100
330
1F
100
AcDbEntity
  8
0
  6
Continuous
 62
     7
370
    25
100
AcDbSpline
210
0.0
220
0.0
230
1.0
 70
     8
 71
     3
 72
     9
 73
     5
 74
     0
 42
0.00000001
 43
0.00000001
 40
0.0
 40
0.0
 40
0.0
 40
0.0
 40
0.5000000000000226
 40
1.0
 40
1.0
 40
1.0
 40
1.0
 10
580.7323823206497
 20
86.25044997607256
 30
0.0
 10
580.6080276114449
 20
86.157758670314
 30
0.0
 10
580.3593181930357
 20
85.97237605879687
 30
0.0
 10
580.1106087746266
 20
85.82777550576027
 30
0.0
 10
579.986254065422
 20
85.75547522924198
 30
0.0
  0
SPLINE
  5
101
330
1F
100
AcDbEntity
  8
0
  6
Continuous
 62
     7
370
    25
100
AcDbSpline
210
0.0
220
0.0
230
1.0
 70
     8
 71
     3
 72
     9
 73
     5
 74
     0
 42
0.00000001
 43
0.00000001
 40
0.0
 40
0.0
 40
0.0
 40
0.0
 40
0.4999999999999681
 40
1.0
 40
1.0
 40
1.0
 40
1.0
 10
579.986254065422
 20
85.75547522924198
 30
0.0
 10
580.1106087746266
 20
85.69669020404244
 30
0.0
 10
580.3593181930358
 20
85.57912015364334
 30
0.0
 10
580.608027611445
 20
85.56000670192948
 30
0.0
 10
580.7323823206497
 20
85.55044997607256
 30
0.0
  0
SPLINE
  5
102
330
1F
100
AcDbEntity
  8
0
  6
Continuous
 62
     7
370
    25
100
AcDbSpline
210
0.0
220
0.0
230
1.0
 70
     8
 71
     3
 72
     9
 73
     5
 74
     0
 42
0.00000001
 43
0.00000001
 40
0.0
 40
0.0
 40
0.0
 40
0.0
 40
0.7426436486448873
 40
1.0
 40
1.0
 40
1.0
 40
1.0
 10
580.7323823206497
 20
86.25044997607256
 30
0.0
 10
580.608027611445
 20
86.0887233069239
 30
0.0
 10
580.4405789172678
 20
85.87095174253525
 30
0.0
 10
580.2731302230906
 20
85.7002499271305
 30
0.0
 10
580.2300362381179
 20
85.65631873074824
 30
0.0
  0
SPLINE
  5
103
330
1F
100
AcDbEntity
  8
0
  6
Continuous
 62
     7
370
    25
100
AcDbSpline
210
0.0
220
0.0
230
1.0
 70
     8
 71
     3
 72
     9
 73
     5
 74
     0
 42
0.00000001
 43
0.00000001
 40
0.0
 40
0.0
 40
0.0
 40
0.0
 40
0.2573563513607012
 40
1.0
 40
1.0
 40
1.0
 40
1.0
 10
568.74247189273
 20
85.6563187307443
 30
0.0
 10
568.699377907756
 20
85.70024992712783
 30
0.0
 10
568.5319292135777
 20
85.87095174253378
 30
0.0
 10
568.3644805193992
 20
86.08872330692395
 30
0.0
 10
568.2401258101945
 20
86.25044997607256
 30
0.0
  0
LINE
  5
104
330
1F
100
AcDbEntity
  8
0
  6
Continuous
 62
     7
370
    25
100
AcDbLine
 10
578.4862540654
 20
125.5043217208
 30
0.0
 11
570.4862540654
 21
125.5043217208
 31
0.0
  0
LINE
  5
105
330
1F
100
AcDbEntity
  8
0
  6
Continuous
 62
     7
370
    25
100
AcDbLine
 10
582.4862540654
 20
121.5043217208
 30
0.0
 11
578.4862540654
 21
125.5043217208
 31
0.0
  0
LINE
  5
106
330
1F
100
AcDbEntity
  8
0
  6
Continuous
 62
     7
370
    25
100
AcDbLine
 10
582.4862540654
 20
88.0043217208
 30
0.0
 11
582.4862540654
 21
121.5043217208
 31
0.0
  0
LINE
  5
107
330
1F
100
AcDbEntity
  8
0
  6
Continuous
 62
     7
370
    25
100
AcDbLine
 10
580.7323823206
 20
86.2504499761
 30
0.0
 11
582.4862540654
 21
88.0043217208
 31
0.0
  0
LINE
  5
108
330
1F
100
AcDbEntity
  8
0
  6
Continuous
 62
     7
370
    25
100
AcDbLine
 10
568.2401258102
 20
86.2504499761
 30
0.0
 11
566.4862540654
 21
88.0043217208
 31
0.0
  0
LINE
  5
109
330
1F
100
AcDbEntity
  8
0
  6
Continuous
 62
     7
370
    25
100
AcDbLine
 10
566.4862540654
 20
88.0043217208
 30
0.0
 11
566.4862540654
 21
121.5043217208
 31
0.0
  0
LINE
  5
10A
330
1F
100
AcDbEntity
  8
0
  6
Continuous
 62
     7
370
    25
100
AcDbLine
 10
570.4862540654
 20
125.5043217208
 30
0.0
 11
566.4862540654
 21
121.5043217208
 31
0.0
  0
LINE
  5
10B
330
1F
100
AcDbEntity
  8
0
  6
Continuous
 62
     7
370
    25
100
AcDbLine
 10
571.4862540654
 20
114.7543217208
 30
0.0
 11
571.4862540654
 21
94.7543217208
 31
0.0
  0
ARC
  5
10C
330
1F
100
AcDbEntity
  8
0
  6
Continuous
 62
     7
370
    25
100
AcDbCircle
 10
574.4862540654
 20
94.7543217208
 30
0.0
 40
3.0
100
AcDbArc
 50
180.0
 51
0.0
  0
LINE
  5
10D
330
1F
100
AcDbEntity
  8
0
  6
Continuous
 62
     7
370
    25
100
AcDbLine
 10
577.4862540654
 20
94.7543217208
 30
0.0
 11
577.4862540654
 21
114.7543217208
 31
0.0
  0
ARC
  5
10E
330
1F
100
AcDbEntity
  8
0
  6
Continuous
 62
     7
370
    25
100
AcDbCircle
 10
574.4862540654
 20
114.7543217208
 30
0.0
 40
3.0
100
AcDbArc
 50
0.0
 51
180.0
  0
LINE
  5
10F
330
1F
100
AcDbEntity
  8
0
  6
Continuous
 62
     7
370
    25
100
AcDbLine
 10
87.4862540654
 20
85.0504499761
 30
0.0
 11
87.4862540654
 21
85.5504499761
 31
0.0
  0
LINE
  5
110
330
1F
100
AcDbEntity
  8
0
  6
Continuous
 62
     7
370
    25
100
AcDbLine
 10
84.9862540654
 20
85.0504499761
 30
0.0
 11
84.9862540654
 21
85.5504499761
 31
0.0
  0
LINE
  5
111
330
1F
100
AcDbEntity
  8
0
  6
Continuous
 62
     7
370
    25
100
AcDbLine
 10
84.9862540654
 20
85.5504499761
 30
0.0
 11
87.4862540654
 21
85.5504499761
 31
0.0
  0
LINE
  5
112
330
1F
100
AcDbEntity
  8
0
  6
Continuous
 62
     7
370
    25
100
AcDbLine
 10
73.9862540654
 20
85.0504499761
 30
0.0
 11
73.9862540654
 21
85.5504499761
 31
0.0
  0
LINE
  5
113
330
1F
100
AcDbEntity
  8
0
  6
Continuous
 62
     7
370
    25
100
AcDbLine
 10
73.9862540654
 20
85.5504499761
 30
0.0
 11
84.9862540654
 21
85.5504499761
 31
0.0
  0
LINE
  5
114
330
1F
100
AcDbEntity
  8
0
  6
Continuous
 62
     7
370
    25
100
AcDbLine
 10
71.4862540654
 20
85.0504499761
 30
0.0
 11
71.4862540654
 21
85.5504499761
 31
0.0
  0
LINE
  5
115
330
1F
100
AcDbEntity
  8
0
  6
Continuous
 62
     7
370
    25
100
AcDbLine
 10
71.4862540654
 20
85.5504499761
 30
0.0
 11
73.9862540654
 21
85.5504499761
 31
0.0
  0
SPLINE
  5
116
330
1F
100
AcDbEntity
  8
0
  6
Continuous
 62
     7
370
    25
100
AcDbSpline
210
0.0
220
0.0
230
1.0
 70
     8
 71
     3
 72
     9
 73
     5
 74
     0
 42
0.00000001
 43
0.00000001
 40
0.0
 40
0.0
 40
0.0
 40
0.0
 40
0.499999999999999
 40
1.0
 40
1.0
 40
1.0
 40
1.0
 10
73.24012581019457
 20
85.55044997607256
 30
0.0
 10
73.3644805193991
 20
85.5600067019295
 30
0.0
 10
73.61318993780836
 20
85.57912015364336
 30
0.0
 10
73.86189935621762
 20
85.69669020404244
 30
0.0
 10
73.98625406542214
 20
85.75547522924198
 30
0.0
  0
SPLINE
  5
117
330
1F
100
AcDbEntity
  8
0
  6
Continuous
 62
     7
370
    25
100
AcDbSpline
210
0.0
220
0.0
230
1.0
 70
     8
 71
     3
 72
     9
 73
     5
 74
     0
 42
0.00000001
 43
0.00000001
 40
0.0
 40
0.0
 40
0.0
 40
0.0
 40
0.4999999999999999
 40
1.0
 40
1.0
 40
1.0
 40
1.0
 10
73.98625406542214
 20
85.75547522924198
 30
0.0
 10
73.86189935621756
 20
85.82777550576027
 30
0.0
 10
73.61318993780836
 20
85.97237605879687
 30
0.0
 10
73.3644805193992
 20
86.157758670314
 30
0.0
 10
73.24012581019457
 20
86.25044997607256
 30
0.0
  0
LINE
  5
118
330
1F
100
AcDbEntity
  8
0
  6
Continuous
 62
     7
370
    25
100
AcDbLine
 10
73.2401258102
 20
86.2504499761
 30
0.0
 11
85.7323823206
 21
86.2504499761
 31
0.0
  0
SPLINE
  5
119
330
1F
100
AcDbEntity
  8
0
  6
Continuous
 62
     7
370
    25
100
AcDbSpline
210
0.0
220
0.0
230
1.0
 70
     8
 71
     3
 72
     9
 73
     5
 74
     0
 42
0.00000001
 43
0.00000001
 40
0.0
 40
0.0
 40
0.0
 40
0.0
 40
0.5000000000000105
 40
1.0
 40
1.0
 40
1.0
 40
1.0
 10
85.73238232064969
 20
86.25044997607256
 30
0.0
 10
85.60802761144512
 20
86.157758670314
 30
0.0
 10
85.3593181930359
 20
85.97237605879687
 30
0.0
 10
85.1106087746267
 20
85.82777550576027
 30
0.0
 10
84.9862540654221
 20
85.75547522924198
 30
0.0
  0
SPLINE
  5
11A
330
1F
100
AcDbEntity
  8
0
  6
Continuous
 62
     7
370
    25
100
AcDbSpline
210
0.0
220
0.0
230
1.0
 70
     8
 71
     3
 72
     9
 73
     5
 74
     0
 42
0.00000001
 43
0.00000001
 40
0.0
 40
0.0
 40
0.0
 40
0.0
 40
0.4999999999999802
 40
1.0
 40
1.0
 40
1.0
 40
1.0
 10
84.9862540654221
 20
85.75547522924198
 30
0.0
 10
85.1106087746267
 20
85.69669020404244
 30
0.0
 10
85.35931819303596
 20
85.57912015364336
 30
0.0
 10
85.60802761144507
 20
85.5600067019295
 30
0.0
 10
85.73238232064969
 20
85.55044997607256
 30
0.0
  0
SPLINE
  5
11B
330
1F
100
AcDbEntity
  8
0
  6
Continuous
 62
     7
370
    25
100
AcDbSpline
210
0.0
220
0.0
230
1.0
 70
     8
 71
     3
 72
     9
 73
     5
 74
     0
 42
0.00000001
 43
0.00000001
 40
0.0
 40
0.0
 40
0.0
 40
0.0
 40
0.7426436486448672
 40
1.0
 40
1.0
 40
1.0
 40
1.0
 10
85.73238232064969
 20
86.25044997607257
 30
0.0
 10
85.60802761144507
 20
86.08872330692391
 30
0.0
 10
85.4405789172678
 20
85.87095174253527
 30
0.0
 10
85.2731302230906
 20
85.70024992713049
 30
0.0
 10
85.23003623811798
 20
85.65631873074823
 30
0.0
  0
SPLINE
  5
11C
330
1F
100
AcDbEntity
  8
0
  6
Continuous
 62
     7
370
    25
100
AcDbSpline
210
0.0
220
0.0
230
1.0
 70
     8
 71
     3
 72
     9
 73
     5
 74
     0
 42
0.00000001
 43
0.00000001
 40
0.0
 40
0.0
 40
0.0
 40
0.0
 40
0.257356351360696
 40
1.0
 40
1.0
 40
1.0
 40
1.0
 10
73.74247189273004
 20
85.65631873074432
 30
0.0
 10
73.69937790775616
 20
85.70024992712784
 30
0.0
 10
73.53192921357754
 20
85.87095174253378
 30
0.0
 10
73.36448051939914
 20
86.08872330692395
 30
0.0
 10
73.24012581019457
 20
86.25044997607257
 30
0.0
  0
LINE
  5
11D
330
1F
100
AcDbEntity
  8
0
  6
Continuous
 62
     7
370
    25
100
AcDbLine
 10
83.4862540654
 20
125.5043217208
 30
0.0
 11
75.4862540654
 21
125.5043217208
 31
0.0
  0
LINE
  5
11E
330
1F
100
AcDbEntity
  8
0
  6
Continuous
 62
     7
370
    25
100
AcDbLine
 10
87.4862540654
 20
121.5043217208
 30
0.0
 11
83.4862540654
 21
125.5043217208
 31
0.0
  0
LINE
  5
11F
330
1F
100
AcDbEntity
  8
0
  6
Continuous
 62
     7
370
    25
100
AcDbLine
 10
87.4862540654
 20
88.0043217208
 30
0.0
 11
87.4862540654
 21
121.5043217208
 31
0.0
  0
LINE
  5
120
330
1F
100
AcDbEntity
  8
0
  6
Continuous
 62
     7
370
    25
100
AcDbLine
 10
85.7323823206
 20
86.2504499761
 30
0.0
 11
87.4862540654
 21
88.0043217208
 31
0.0
  0
LINE
  5
121
330
1F
100
AcDbEntity
  8
0
  6
Continuous
 62
     7
370
    25
100
AcDbLine
 10
73.2401258102
 20
86.2504499761
 30
0.0
 11
71.4862540654
 21
88.0043217208
 31
0.0
  0
LINE
  5
122
330
1F
100
AcDbEntity
  8
0
  6
Continuous
 62
     7
370
    25
100
AcDbLine
 10
71.4862540654
 20
88.0043217208
 30
0.0
 11
71.4862540654
 21
121.5043217208
 31
0.0
  0
LINE
  5
123
330
1F
100
AcDbEntity
  8
0
  6
Continuous
 62
     7
370
    25
100
AcDbLine
 10
75.4862540654
 20
125.5043217208
 30
0.0
 11
71.4862540654
 21
121.5043217208
 31
0.0
  0
LINE
  5
124
330
1F
100
AcDbEntity
  8
0
  6
Continuous
 62
     7
370
    25
100
AcDbLine
 10
76.4862540654
 20
114.7543217208
 30
0.0
 11
76.4862540654
 21
94.7543217208
 31
0.0
  0
ARC
  5
125
330
1F
100
AcDbEntity
  8
0
  6
Continuous
 62
     7
370
    25
100
AcDbCircle
 10
79.4862540654
 20
94.7543217208
 30
0.0
 40
3.0
100
AcDbArc
 50
180.0
 51
0.0
  0
LINE
  5
126
330
1F
100
AcDbEntity
  8
0
  6
Continuous
 62
     7
370
    25
100
AcDbLine
 10
82.4862540654
 20
94.7543217208
 30
0.0
 11
82.4862540654
 21
114.7543217208
 31
0.0
  0
ARC
  5
127
330
1F
100
AcDbEntity
  8
0
  6
Continuous
 62
     7
370
    25
100
AcDbCircle
 10
79.4862540654
 20
114.7543217208
 30
0.0
 40
3.0
100
AcDbArc
 50
0.0
 51
180.0
  0
LINE
  5
128
330
1F
100
AcDbEntity
  8
0
  6
Continuous
 62
     7
370
    25
100
AcDbLine
 10
596.978510576
 20
44.3427064865
 30
0.0
 11
596.978510576
 21
83.8504499761
 31
0.0
  0
LINE
  5
129
330
1F
100
AcDbEntity
  8
0
  6
Continuous
 62
     7
370
    25
100
AcDbLine
 10
620.4862540653
 20
83.8504499761
 30
0.0
 11
596.978510576
 21
83.8504499761
 31
0.0
  0
LINE
  5
12A
330
1F
100
AcDbEntity
  8
0
  6
Continuous
 62
     7
370
    25
100
AcDbLine
 10
620.4862540653
 20
33.0589896116
 30
0.0
 11
620.4862540653
 21
83.8504499761
 31
0.0
  0
LINE
  5
12B
330
1F
100
AcDbEntity
  8
0
  6
Continuous
 62
     7
370
    25
100
AcDbLine
 10
620.4862540652
 20
33.0589896117
 30
0.0
 11
596.978510576
 21
44.3427064865
 31
0.0
  0
SPLINE
  5
12C
330
1F
100
AcDbEntity
  8
0
  6
Continuous
 62
     7
370
    25
100
AcDbSpline
210
0.0
220
0.0
230
1.0
 70
     8
 71
     3
 72
    14
 73
    10
 74
     0
 42
0.00000001
 43
0.00000001
 40
0.0
 40
0.0
 40
0.0
 40
0.0
 40
0.25
 40
0.25
 40
0.5
 40
0.5
 40
0.75
 40
0.75
 40
1.0
 40
1.0
 40
1.0
 40
1.0
 10
620.4862540651147
 20
33.05898961160942
 30
0.0
 10
620.6433336978114
 20
32.99929935118465
 30
0.0
 10
620.8003515263857
 20
32.93960909075989
 30
0.0
 10
621.0905968416469
 20
32.8202285699104
 30
0.0
 10
621.2237101291964
 20
32.76053830948562
 30
0.0
 10
621.4458542761479
 20
32.64115778863612
 30
0.0
 10
621.5347977313137
 20
32.58146752821133
 30
0.0
 10
621.6550212773163
 20
32.46208700736182
 30
0.0
 10
621.6862540653212
 20
32.40239674693706
 30
0.0
 10
621.6862540653212
 20
32.34270648651231
 30
0.0
  0
LINE
  5
12D
330
1F
100
AcDbEntity
  8
0
  6
Continuous
 62
     7
370
    25
100
AcDbLine
 10
621.6862540653
 20
83.8504499761
 30
0.0
 11
620.4862540653
 21
83.8504499761
 31
0.0
  0
LINE
  5
12E
330
1F
100
AcDbEntity
  8
0
  6
Continuous
 62
     7
370
    25
100
AcDbLine
 10
621.6862540653
 20
32.3427064865
 30
0.0
 11
621.6862540653
 21
83.8504499761
 31
0.0
  0
LINE
  5
12F
330
1F
100
AcDbEntity
  8
0
  6
Continuous
 62
     7
370
    25
100
AcDbLine
 10
621.6862540653
 20
32.3427064865
 30
0.0
 11
621.1862540653
 21
32.3427064865
 31
0.0
  0
SPLINE
  5
130
330
1F
100
AcDbEntity
  8
0
  6
Continuous
 62
     7
370
    25
100
AcDbSpline
210
0.0
220
0.0
230
1.0
 70
     8
 71
     3
 72
    14
 73
    10
 74
     0
 42
0.00000001
 43
0.00000001
 40
0.0
 40
0.0
 40
0.0
 40
0.0
 40
0.25
 40
0.25
 40
0.5
 40
0.5
 40
0.75
 40
0.75
 40
1.0
 40
1.0
 40
1.0
 40
1.0
 10
620.4862540652008
 20
33.05898961160942
 30
0.0
 10
620.5778954495604
 20
32.99929179551219
 30
0.0
 10
620.6694775842753
 20
32.93960909075991
 30
0.0
 10
620.8387873515111
 20
32.82022856991039
 30
0.0
 10
620.9164367692483
 20
32.76053830948563
 30
0.0
 10
621.0460208549699
 20
32.64115778863611
 30
0.0
 10
621.0979045371502
 20
32.58146752821134
 30
0.0
 10
621.168034938985
 20
32.46208700736182
 30
0.0
 10
621.1862540653212
 20
32.40240430260955
 30
0.0
 10
621.1862540653212
 20
32.34270648651231
 30
0.0
  0
SPLINE
  5
131
330
1F
100
AcDbEntity
  8
0
  6
Continuous
 62
     7
370
    25
100
AcDbSpline
210
0.0
220
0.0
230
1.0
 70
     8
 71
     3
 72
    20
 73
    16
 74
     0
 42
0.00000001
 43
0.00000001
 40
0.0
 40
0.0
 40
0.0
 40
0.0
 40
0.068736080935737
 40
0.1345271890781362
 40
0.1985842533349778
 40
0.2622171082472431
 40
0.3267611781229954
 40
0.3934969003544071
 40
0.4635843335912251
 40
0.538026601127788
 40
0.6176619869067765
 40
0.7031757180303334
 40
0.7951211989995509
 40
0.8939433334254098
 40
1.0
 40
1.0
 40
1.0
 40
1.0
 10
620.4862540653222
 20
84.73916302006562
 30
0.0
 10
620.4578969510873
 20
84.7401473297186
 30
0.0
 10
620.4023976730304
 20
84.74207377662968
 30
0.0
 10
620.3219788539343
 20
84.7536759311166
 30
0.0
 10
620.2466891512302
 20
84.77141319056581
 30
0.0
 10
620.1766402190347
 20
84.79529145509322
 30
0.0
 10
620.1119166961806
 20
84.82434228912972
 30
0.0
 10
620.0525592840552
 20
84.85750892870401
 30
0.0
 10
619.9985572913273
 20
84.89341653175698
 30
0.0
 10
619.9498673891079
 20
84.93043238290592
 30
0.0
 10
619.9064470971275
 20
84.966601742761
 30
0.0
 10
619.8682262474496
 20
84.99972960005807
 30
0.0
 10
619.8352894002498
 20
85.02695888860958
 30
0.0
 10
619.8071352628814
 20
85.04649728510726
 30
0.0
 10
619.7933764120404
 20
85.0491017566793
 30
0.0
 10
619.7862540653214
 20
85.05044997607423
 30
0.0
  0
LINE
  5
132
330
1F
100
AcDbEntity
  8
0
  6
Continuous
 62
     7
370
    25
100
AcDbLine
 10
33.4862540653
 20
83.8504499761
 30
0.0
 11
620.4862540653
 21
83.8504499761
 31
0.0
  0
LINE
  5
133
330
1F
100
AcDbEntity
  8
0
  6
Continuous
 62
     7
370
    25
100
AcDbLine
 10
33.4862540653
 20
84.7391630201
 30
0.0
 11
33.4862540653
 21
83.8504499761
 31
0.0
  0
SPLINE
  5
134
330
1F
100
AcDbEntity
  8
0
  6
Continuous
 62
     7
370
    25
100
AcDbSpline
210
0.0
220
0.0
230
1.0
 70
     8
 71
     3
 72
    21
 73
    17
 74
     0
 42
0.00000001
 43
0.00000001
 40
0.0
 40
0.0
 40
0.0
 40
0.0
 40
0.0752058968635643
 40
0.1473908834188946
 40
0.2170792409864605
 40
0.2848532632915479
 40
0.3513456026763695
 40
0.4172258903031469
 40
0.4831824433971251
 40
0.5499012574922943
 40
0.6180453467730466
 40
0.688237380829794
 40
0.7610475349730537
 40
0.8369870598937463
 40
0.9165068929373796
 40
1.0
 40
1.0
 40
1.0
 40
1.0
 10
34.18625406532239
 20
85.05044997607423
 30
0.0
 10
34.18520987664897
 20
85.04977943839425
 30
0.0
 10
34.18316344282601
 20
85.04846529754707
 30
0.0
 10
34.17122750967888
 20
85.03825667082582
 30
0.0
 10
34.1527171982906
 20
85.02316929278754
 30
0.0
 10
34.12705188061288
 20
85.00356834342286
 30
0.0
 10
34.09436659216136
 20
84.98051767800875
 30
0.0
 10
34.05462377569513
 20
84.95484361993155
 30
0.0
 10
34.00784335095619
 20
84.92736476848016
 30
0.0
 10
33.95404145463854
 20
84.89882348954163
 30
0.0
 10
33.89324286765577
 20
84.86989506286969
 30
0.0
 10
33.82546794880892
 20
84.84118778815069
 30
0.0
 10
33.75074541144263
 20
84.8132188498633
 30
0.0
 10
33.66904938591125
 20
84.78652181928203
 30
0.0
 10
33.58054204029337
 20
84.76123705223466
 30
0.0
 10
33.51818997959055
 20
84.74663962987523
 30
0.0
 10
33.48625406532246
 20
84.7391630200607
 30
0.0
  0
LINE
  5
135
330
1F
100
AcDbEntity
  8
0
  6
Continuous
 62
     7
370
    25
100
AcDbLine
 10
34.1862540653
 20
85.0504499761
 30
0.0
 11
619.7862540653
 21
85.0504499761
 31
0.0
  0
LINE
  5
136
330
1F
100
AcDbEntity
  8
0
  6
Continuous
 62
     7
370
    25
100
AcDbLine
 10
620.4862540653
 20
83.8504499761
 30
0.0
 11
620.4862540653
 21
84.7391630201
 31
0.0
  0
LINE
  5
137
330
1F
100
AcDbEntity
  8
0
  6
Continuous
 62
     7
370
    25
100
AcDbLine
 10
33.4862540653
 20
32.0427064865
 30
0.0
 11
33.4862540653
 21
83.8504499761
 31
0.0
  0
LINE
  5
138
330
1F
100
AcDbEntity
  8
0
  6
Continuous
 62
     7
370
    25
100
AcDbLine
 10
620.4862540653
 20
32.0427064865
 30
0.0
 11
33.4862540653
 21
32.0427064865
 31
0.0
  0
LINE
  5
139
330
1F
100
AcDbEntity
  8
0
  6
Continuous
 62
     7
370
    25
100
AcDbLine
 10
620.4862540653
 20
83.8504499761
 30
0.0
 11
620.4862540653
 21
32.0427064865
 31
0.0
  0
LINE
  5
13A
330
1F
100
AcDbEntity
  8
0
  6
Continuous
 62
     7
370
    25
100
AcDbLine
 10
33.4862540653
 20
32.0427064865
 30
0.0
 11
33.4862540653
 21
31.2363634296
 31
0.0
  0
LINE
  5
13B
330
1F
100
AcDbEntity
  8
0
  6
Continuous
 62
     7
370
    25
100
AcDbLine
 10
620.4862540653
 20
31.2363634296
 30
0.0
 11
620.4862540653
 21
32.0427064865
 31
0.0
  0
LINE
  5
13C
330
1F
100
AcDbEntity
  8
0
  6
Continuous
 62
     7
370
    25
100
AcDbLine
 10
619.9862540653
 20
31.2363634296
 30
0.0
 11
620.4862540653
 21
31.2363634296
 31
0.0
  0
SPLINE
  5
13D
330
1F
100
AcDbEntity
  8
0
  6
Continuous
 62
     7
370
    25
100
AcDbSpline
210
0.0
220
0.0
230
1.0
 70
     8
 71
     3
 72
    10
 73
     6
 74
     0
 42
0.00000001
 43
0.00000001
 40
0.0
 40
0.0
 40
0.0
 40
0.0
 40
0.5
 40
0.5
 40
1.0
 40
1.0
 40
1.0
 40
1.0
 10
619.9502424057557
 20
30.84270648651769
 30
0.0
 10
619.9562443490167
 20
30.84270648651769
 30
0.0
 10
619.9622462922777
 20
30.87797559931151
 30
0.0
 10
619.9742501787997
 20
31.01307565864523
 30
0.0
 10
619.9802521220607
 20
31.11283909713871
 30
0.0
 10
619.9862540653219
 20
31.23636342959986
 30
0.0
  0
LINE
  5
13E
330
1F
100
AcDbEntity
  8
0
  6
Continuous
 62
     7
370
    25
100
AcDbLine
 10
619.9502424058
 20
30.8427064865
 30
0.0
 11
34.0582773845
 21
30.8427064865
 31
0.0
  0
SPLINE
  5
13F
330
1F
100
AcDbEntity
  8
0
  6
Continuous
 62
     7
370
    25
100
AcDbSpline
210
0.0
220
0.0
230
1.0
 70
     8
 71
     3
 72
    10
 73
     6
 74
     0
 42
0.00000001
 43
0.00000001
 40
0.0
 40
0.0
 40
0.0
 40
0.0
 40
0.5
 40
0.5
 40
1.0
 40
1.0
 40
1.0
 40
1.0
 10
33.98625406532213
 20
31.23636342960574
 30
0.0
 10
33.99825795184408
 20
31.11283909714459
 30
0.0
 10
34.01026183836614
 20
31.0130756586511
 30
0.0
 10
34.03426961141032
 20
30.87797559931739
 30
0.0
 10
34.04627349793232
 20
30.84270648652356
 30
0.0
 10
34.05827738445439
 20
30.84270648652357
 30
0.0
  0
LINE
  5
140
330
1F
100
AcDbEntity
  8
0
  6
Continuous
 62
     7
370
    25
100
AcDbLine
 10
33.4862540653
 20
31.2363634296
 30
0.0
 11
33.9862540653
 21
31.2363634296
 31
0.0
  0
SPLINE
  5
141
330
1F
100
AcDbEntity
  8
0
  6
Continuous
 62
     7
370
    25
100
AcDbSpline
210
0.0
220
0.0
230
1.0
 70
     8
 71
     3
 72
    20
 73
    16
 74
     0
 42
0.00000001
 43
0.00000001
 40
0.0
 40
0.0
 40
0.0
 40
0.0
 40
0.0687360809389769
 40
0.1345271890836798
 40
0.1985842533423106
 40
0.2622171082554635
 40
0.3267611781313068
 40
0.3934969003623735
 40
0.4635843335983546
 40
0.538026601133937
 40
0.6176619869116041
 40
0.7031757180338446
 40
0.7951211990018076
 40
0.893943333426459
 40
1.0
 40
1.0
 40
1.0
 40
1.0
 10
32.67991100841166
 20
84.7391630199777
 30
0.0
 10
32.68099273874709
 20
84.740147329632
 30
0.0
 10
32.68310985306877
 20
84.74207377654562
 30
0.0
 10
32.6960995918455
 20
84.75367593103815
 30
0.0
 10
32.71672881918802
 20
84.77141319049387
 30
0.0
 10
32.74606351614268
 20
84.7952914550289
 30
0.0
 10
32.78449188606069
 20
84.82434228907388
 30
0.0
 10
32.83267233069659
 20
84.8575089286571
 30
0.0
 10
32.89125586920522
 20
84.89341653171945
 30
0.0
 10
32.96091585267275
 20
84.93043238287748
 30
0.0
 10
33.04226357015855
 20
84.96660174274142
 30
0.0
 10
33.13575679482439
 20
84.9997296000463
 30
0.0
 10
33.24161697813249
 20
85.02695888860414
 30
0.0
 10
33.35959770677638
 20
85.04649728510633
 30
0.0
 10
33.44305297516842
 20
85.04910175667898
 30
0.0
 10
33.48625406542533
 20
85.05044997607423
 30
0.0
  0
LINE
  5
142
330
1F
100
AcDbEntity
  8
0
  6
Continuous
 62
     7
370
    25
100
AcDbLine
 10
33.4862540654
 20
85.0504499761
 30
0.0
 11
33.4862540654
 21
84.5504499761
 31
0.0
  0
SPLINE
  5
143
330
1F
100
AcDbEntity
  8
0
  6
Continuous
 62
     7
370
    25
100
AcDbSpline
210
0.0
220
0.0
230
1.0
 70
     8
 71
     3
 72
    14
 73
    10
 74
     0
 42
0.00000001
 43
0.00000001
 40
0.0
 40
0.0
 40
0.0
 40
0.0
 40
0.25
 40
0.25
 40
0.5
 40
0.5
 40
0.75
 40
0.75
 40
1.0
 40
1.0
 40
1.0
 40
1.0
 10
33.01588728216781
 20
84.36886591835126
 30
0.0
 10
33.01664195926546
 20
84.36955064852616
 30
0.0
 10
33.02501875963853
 20
84.37746612866516
 30
0.0
 10
33.05902424259816
 20
84.40539025293569
 30
0.0
 10
33.08472678914865
 20
84.42544853080408
 30
0.0
 10
33.15809186132724
 20
84.47025402521976
 30
0.0
 10
33.20592493971364
 20
84.49504829835728
 30
0.0
 10
33.32739551150699
 20
84.5351801241323
 30
0.0
 10
33.40112934159634
 20
84.55044997607416
 30
0.0
 10
33.48625406542577
 20
84.55044997607423
 30
0.0
  0
LINE
  5
144
330
1F
100
AcDbEntity
  8
0
  6
Continuous
 62
     7
370
    25
100
AcDbLine
 10
33.0158872822
 20
84.3688659184
 30
0.0
 11
32.6799110084
 21
84.73916302
 31
0.0
  0
LINE
  5
145
330
1F
100
AcDbEntity
  8
0
  6
Continuous
 62
     7
370
    25
100
AcDbLine
 10
34.1862540653
 20
85.0504499761
 30
0.0
 11
33.4862540654
 21
85.0504499761
 31
0.0
  0
ARC
  5
146
330
1F
100
AcDbEntity
  8
0
  6
Continuous
 62
     7
370
    25
100
AcDbCircle
 10
33.4862540654
 20
83.8504499761
 30
0.0
 40
1.199999999999999
100
AcDbArc
 50
132.2179428054
 51
179.9999999999
  0
ARC
  5
147
330
1F
100
AcDbEntity
  8
0
  6
Continuous
 62
     7
370
    25
100
AcDbCircle
 10
33.4862540654
 20
83.8504499761
 30
0.0
 40
0.6999999999999968
100
AcDbArc
 50
132.2179428054
 51
179.9999999999
  0
LINE
  5
148
330
1F
100
AcDbEntity
  8
0
  6
Continuous
 62
     7
370
    25
100
AcDbLine
 10
32.2862540654
 20
83.8504499761
 30
0.0
 11
32.7862540654
 21
83.8504499761
 31
0.0
  0
SPLINE
  5
149
330
1F
100
AcDbEntity
  8
0
  6
Continuous
 62
     7
370
    25
100
AcDbSpline
210
0.0
220
0.0
230
1.0
 70
     8
 71
     3
 72
    21
 73
    17
 74
     0
 42
0.00000001
 43
0.00000001
 40
0.0
 40
0.0
 40
0.0
 40
0.0
 40
0.0752058968637924
 40
0.1473908834194353
 40
0.217079240987244
 40
0.2848532632925947
 40
0.3513456026775962
 40
0.4172258903045717
 40
0.4831824433985995
 40
0.5499012574938145
 40
0.6180453467745034
 40
0.6882373808311623
 40
0.7610475349741775
 40
0.8369870598945784
 40
0.9165068929378176
 40
0.9999999999999999
 40
0.9999999999999999
 40
0.9999999999999999
 40
0.9999999999999999
 10
620.4862540653215
 20
85.05044997607423
 30
0.0
 10
620.5167372809999
 20
85.04977943839444
 30
0.0
 10
620.5764792463995
 20
85.04846529754761
 30
0.0
 10
620.6633124036574
 20
85.03825667082683
 30
0.0
 10
620.7450016193743
 20
85.02316929278896
 30
0.0
 10
620.8212980663021
 20
85.0035683434247
 30
0.0
 10
620.892064964057
 20
84.98051767801093
 30
0.0
 10
620.9572558381471
 20
84.95484361993412
 30
0.0
 10
621.0169063590878
 20
84.92736476848299
 30
0.0
 10
621.0711223962353
 20
84.8988234895448
 30
0.0
 10
621.1200705295319
 20
84.86989506287311
 30
0.0
 10
621.1639537469459
 20
84.84118778815446
 30
0.0
 10
621.2030358285343
 20
84.8132188498673
 30
0.0
 10
621.2374717749933
 20
84.78652181928634
 30
0.0
 10
621.2679146241375
 20
84.76123705223922
 30
0.0
 10
621.2842370090483
 20
84.74663962988
 30
0.0
 10
621.2925971222394
 20
84.73916302006555
 30
0.0
  0
LINE
  5
14A
330
1F
100
AcDbEntity
  8
0
  6
Continuous
 62
     7
370
    25
100
AcDbLine
 10
620.9566208485
 20
84.3688659184
 30
0.0
 11
621.2925971222
 21
84.7391630201
 31
0.0
  0
SPLINE
  5
14B
330
1F
100
AcDbEntity
  8
0
  6
Continuous
 62
     7
370
    25
100
AcDbSpline
210
0.0
220
0.0
230
1.0
 70
     8
 71
     3
 72
    10
 73
     6
 74
     0
 42
0.00000001
 43
0.00000001
 40
0.0
 40
0.0
 40
0.0
 40
0.0
 40
0.5
 40
0.5
 40
1.0
 40
1.0
 40
1.0
 40
1.0
 10
620.4862540653215
 20
84.55044997607423
 30
0.0
 10
620.6142689202189
 20
84.55044997607422
 30
0.0
 10
620.7179390779871
 20
84.51656709869572
 30
0.0
 10
620.872231477202
 20
84.44071381848828
 30
0.0
 10
620.9235514576205
 20
84.39887028700201
 30
0.0
 10
620.9566208485236
 20
84.3688659184025
 30
0.0
  0
LINE
  5
14C
330
1F
100
AcDbEntity
  8
0
  6
Continuous
 62
     7
370
    25
100
AcDbLine
 10
620.4862540653
 20
84.5504499761
 30
0.0
 11
620.4862540653
 21
85.0504499761
 31
0.0
  0
LINE
  5
14D
330
1F
100
AcDbEntity
  8
0
  6
Continuous
 62
     7
370
    25
100
AcDbLine
 10
620.4862540653
 20
85.0504499761
 30
0.0
 11
619.7862540653
 21
85.0504499761
 31
0.0
  0
ARC
  5
14E
330
1F
100
AcDbEntity
  8
0
  6
Continuous
 62
     7
370
    25
100
AcDbCircle
 10
620.4862540653
 20
83.8504499761
 30
0.0
 40
1.200000000000052
100
AcDbArc
 50
0.0
 51
47.7820572009
  0
ARC
  5
14F
330
1F
100
AcDbEntity
  8
0
  6
Continuous
 62
     7
370
    25
100
AcDbCircle
 10
620.4862540653
 20
83.8504499761
 30
0.0
 40
0.7000000000000455
100
AcDbArc
 50
0.0
 51
47.7820572009
  0
LINE
  5
150
330
1F
100
AcDbEntity
  8
0
  6
Continuous
 62
     7
370
    25
100
AcDbLine
 10
621.1862540653
 20
31.0427064865
 30
0.0
 11
621.6862540653
 21
31.0427064865
 31
0.0
  0
LINE
  5
151
330
1F
100
AcDbEntity
  8
0
  6
Continuous
 62
     7
370
    25
100
AcDbLine
 10
621.1862540653
 20
31.0427064865
 30
0.0
 11
621.1862540653
 21
32.3427064865
 31
0.0
  0
LINE
  5
152
330
1F
100
AcDbEntity
  8
0
  6
Continuous
 62
     7
370
    25
100
AcDbLine
 10
621.6862540653
 20
31.0427064865
 30
0.0
 11
621.6862540653
 21
32.3427064865
 31
0.0
  0
ARC
  5
153
330
1F
100
AcDbEntity
  8
0
  6
Continuous
 62
     7
370
    25
100
AcDbCircle
 10
620.4862540653
 20
31.0427064865
 30
0.0
 40
1.19999999999994
100
AcDbArc
 50
317.7820572009
 51
0.0
  0
LINE
  5
154
330
1F
100
AcDbEntity
  8
0
  6
Continuous
 62
     7
370
    25
100
AcDbLine
 10
621.0046700076
 20
30.5723397033
 30
0.0
 11
621.3749671093
 21
30.2363634296
 31
0.0
  0
ARC
  5
155
330
1F
100
AcDbEntity
  8
0
  6
Continuous
 62
     7
370
    25
100
AcDbCircle
 10
620.4862540653
 20
31.0427064865
 30
0.0
 40
0.699999999999966
100
AcDbArc
 50
317.7820572009
 51
0.0
  0
LINE
  5
156
330
1F
100
AcDbEntity
  8
0
  6
Continuous
 62
     7
370
    25
100
AcDbLine
 10
620.4862540653
 20
30.3427064865
 30
0.0
 11
620.4862540653
 21
29.8427064865
 31
0.0
  0
SPLINE
  5
157
330
1F
100
AcDbEntity
  8
0
  6
Continuous
 62
     7
370
    25
100
AcDbSpline
210
0.0
220
0.0
230
1.0
 70
     8
 71
     3
 72
    10
 73
     6
 74
     0
 42
0.00000001
 43
0.00000001
 40
0.0
 40
0.0
 40
0.0
 40
0.0
 40
0.5
 40
0.5
 40
1.0
 40
1.0
 40
1.0
 40
1.0
 10
621.3749671093126
 20
30.23636342959303
 30
0.0
 10
621.2628915765928
 20
30.11283909713188
 30
0.0
 10
621.1247519463194
 20
30.01307565863839
 30
0.0
 10
620.8197524103432
 20
29.87797559930468
 30
0.0
 10
620.6530449096276
 20
29.84270648651086
 30
0.0
 10
620.4862540653212
 20
29.84270648651088
 30
0.0
  0
SPLINE
  5
158
330
1F
100
AcDbEntity
  8
0
  6
Continuous
 62
     7
370
    25
100
AcDbSpline
210
0.0
220
0.0
230
1.0
 70
     8
 71
     3
 72
    10
 73
     6
 74
     0
 42
0.00000001
 43
0.00000001
 40
0.0
 40
0.0
 40
0.0
 40
0.0
 40
0.5
 40
0.5
 40
1.0
 40
1.0
 40
1.0
 40
1.0
 10
621.0046700076495
 20
30.5723397033088
 30
0.0
 10
620.9392873469001
 20
30.50027803804065
 30
0.0
 10
620.8587111625702
 20
30.44208850358528
 30
0.0
 10
620.680794766584
 20
30.3632801356406
 30
0.0
 10
620.5835565623493
 20
30.34270648651087
 30
0.0
 10
620.4862540653212
 20
30.34270648651088
 30
0.0
  0
LINE
  5
159
330
1F
100
AcDbEntity
  8
0
  6
Continuous
 62
     7
370
    25
100
AcDbLine
 10
32.7862540654
 20
83.8504499761
 30
0.0
 11
32.7862540654
 21
59.3427064865
 31
0.0
  0
LINE
  5
15A
330
1F
100
AcDbEntity
  8
0
  6
Continuous
 62
     7
370
    25
100
AcDbLine
 10
32.2862540654
 20
59.3427064865
 30
0.0
 11
32.7862540654
 21
59.3427064865
 31
0.0
  0
LINE
  5
15B
330
1F
100
AcDbEntity
  8
0
  6
Continuous
 62
     7
370
    25
100
AcDbLine
 10
32.2862540654
 20
83.8504499761
 30
0.0
 11
32.2862540654
 21
59.3427064865
 31
0.0
  0
LINE
  5
15C
330
1F
100
AcDbEntity
  8
0
  6
Continuous
 62
     7
370
    25
100
AcDbLine
 10
611.2785105758
 20
29.8427064865
 30
0.0
 11
611.2785105758
 21
30.3427064865
 31
0.0
  0
LINE
  5
15D
330
1F
100
AcDbEntity
  8
0
  6
Continuous
 62
     7
370
    25
100
AcDbLine
 10
611.2785105758
 20
29.8427064865
 30
0.0
 11
620.4862540653
 21
29.8427064865
 31
0.0
  0
LINE
  5
15E
330
1F
100
AcDbEntity
  8
0
  6
Continuous
 62
     7
370
    25
100
AcDbLine
 10
611.2785105758
 20
30.3427064865
 30
0.0
 11
620.4862540653
 21
30.3427064865
 31
0.0
  0
LINE
  5
15F
330
1F
100
AcDbEntity
  8
0
  6
Continuous
 62
     7
370
    25
100
AcDbLine
 10
32.7862540656
 20
59.3427064865
 30
0.0
 11
32.7862540656
 21
31.7087318903
 31
0.0
  0
SPLINE
  5
160
330
1F
100
AcDbEntity
  8
0
  6
Continuous
 62
     7
370
    25
100
AcDbSpline
210
0.0
220
0.0
230
1.0
 70
     8
 71
     3
 72
     9
 73
     5
 74
     0
 42
0.00000001
 43
0.00000001
 40
0.0
 40
0.0
 40
0.0
 40
0.0
 40
0.4999999999999952
 40
1.0
 40
1.0
 40
1.0
 40
1.0
 10
33.00036680480722
 20
64.84270648652874
 30
0.0
 10
32.93867469030693
 20
64.865035585898
 30
0.0
 10
32.81529046130627
 20
64.90969378463653
 30
0.0
 10
32.79593286415816
 20
64.95435198337506
 30
0.0
 10
32.78625406558411
 20
64.97668108274434
 30
0.0
  0
LINE
  5
161
330
1F
100
AcDbEntity
  8
0
  6
Continuous
 62
     7
370
    25
100
AcDbLine
 10
33.4862540653
 20
64.8427064865
 30
0.0
 11
33.0003668048
 21
64.8427064865
 31
0.0
  0
LINE
  5
162
330
1F
100
AcDbEntity
  8
0
  6
Continuous
 62
     7
370
    25
100
AcDbLine
 10
33.0003668048
 20
31.8427064865
 30
0.0
 11
33.4862540653
 21
31.8427064865
 31
0.0
  0
SPLINE
  5
163
330
1F
100
AcDbEntity
  8
0
  6
Continuous
 62
     7
370
    25
100
AcDbSpline
210
0.0
220
0.0
230
1.0
 70
     8
 71
     3
 72
     9
 73
     5
 74
     0
 42
0.00000001
 43
0.00000001
 40
0.0
 40
0.0
 40
0.0
 40
0.0
 40
0.4999999999999967
 40
1.0
 40
1.0
 40
1.0
 40
1.0
 10
32.78625406558378
 20
31.70873189031311
 30
0.0
 10
32.79593286415777
 20
31.73106098968238
 30
0.0
 10
32.81529046130588
 20
31.7757191884209
 30
0.0
 10
32.93867469030648
 20
31.82037738715943
 30
0.0
 10
33.00036680480684
 20
31.84270648652871
 30
0.0
  0
LINE
  5
164
330
1F
100
AcDbEntity
  8
0
  6
Continuous
 62
     7
370
    25
100
AcDbLine
 10
32.7862540656
 20
64.9766810827
 30
0.0
 11
33.2862540656
 21
64.9766810827
 31
0.0
  0
SPLINE
  5
165
330
1F
100
AcDbEntity
  8
0
  6
Continuous
 62
     7
370
    25
100
AcDbSpline
210
0.0
220
0.0
230
1.0
 70
     8
 71
     3
 72
     9
 73
     5
 74
     0
 42
0.00000001
 43
0.00000001
 40
0.0
 40
0.0
 40
0.0
 40
0.0
 40
0.4999999999999922
 40
1.0
 40
1.0
 40
1.0
 40
1.0
 10
33.39331043519567
 20
64.84270648652874
 30
0.0
 10
33.36246437794549
 20
64.86503558589799
 30
0.0
 10
33.30077226344519
 20
64.90969378463653
 30
0.0
 10
33.29109346487119
 20
64.95435198337506
 30
0.0
 10
33.28625406558411
 20
64.97668108274432
 30
0.0
  0
SPLINE
  5
166
330
1F
100
AcDbEntity
  8
0
  6
Continuous
 62
     7
370
    25
100
AcDbSpline
210
0.0
220
0.0
230
1.0
 70
     8
 71
     3
 72
     9
 73
     5
 74
     0
 42
0.00000001
 43
0.00000001
 40
0.0
 40
0.0
 40
0.0
 40
0.0
 40
0.5000000000000041
 40
0.9999999999999999
 40
0.9999999999999999
 40
0.9999999999999999
 40
0.9999999999999999
 10
33.28625406558378
 20
31.7087318903131
 30
0.0
 10
33.29109346487085
 20
31.73106098968237
 30
0.0
 10
33.30077226344491
 20
31.77571918842089
 30
0.0
 10
33.36246437794516
 20
31.82037738715944
 30
0.0
 10
33.39331043519533
 20
31.8427064865287
 30
0.0
  0
LINE
  5
167
330
1F
100
AcDbEntity
  8
0
  6
Continuous
 62
     7
370
    25
100
AcDbLine
 10
33.2862540656
 20
31.7087318903
 30
0.0
 11
32.7862540656
 21
31.7087318903
 31
0.0
  0
LINE
  5
168
330
1F
100
AcDbEntity
  8
0
  6
Continuous
 62
     7
370
    25
100
AcDbLine
 10
33.2862540656
 20
65.3427064865
 30
0.0
 11
32.7862540656
 21
65.3427064865
 31
0.0
  0
LINE
  5
169
330
1F
100
AcDbEntity
  8
0
  6
Continuous
 62
     7
370
    25
100
AcDbLine
 10
33.2862540656
 20
65.3427064865
 30
0.0
 11
33.2862540656
 21
64.9766810827
 31
0.0
  0
LINE
  5
16A
330
1F
100
AcDbEntity
  8
0
  6
Continuous
 62
     7
370
    25
100
AcDbLine
 10
32.7862540656
 20
31.3427064865
 30
0.0
 11
33.2862540656
 21
31.3427064865
 31
0.0
  0
LINE
  5
16B
330
1F
100
AcDbEntity
  8
0
  6
Continuous
 62
     7
370
    25
100
AcDbLine
 10
33.2862540656
 20
31.7087318903
 30
0.0
 11
33.2862540656
 21
31.3427064865
 31
0.0
  0
LINE
  5
16C
330
1F
100
AcDbEntity
  8
0
  6
Continuous
 62
     7
370
    25
100
AcDbLine
 10
32.7862540656
 20
31.7087318903
 30
0.0
 11
32.7862540656
 21
31.3427064865
 31
0.0
  0
SPLINE
  5
16D
330
1F
100
AcDbEntity
  8
0
  6
Continuous
 62
     7
370
    25
100
AcDbSpline
210
0.0
220
0.0
230
1.0
 70
     8
 71
     3
 72
     9
 73
     5
 74
     0
 42
0.00000001
 43
0.00000001
 40
0.0
 40
0.0
 40
0.0
 40
0.0
 40
0.5000000000000164
 40
1.0
 40
1.0
 40
1.0
 40
1.0
 10
32.78625406558411
 20
65.34270648652874
 30
0.0
 10
32.79593286415816
 20
65.45477301800435
 30
0.0
 10
32.81529046130633
 20
65.67890608095551
 30
0.0
 10
32.93867469030693
 20
65.86701955338414
 30
0.0
 10
33.00036680480717
 20
65.96107628959847
 30
0.0
  0
LINE
  5
16E
330
1F
100
AcDbEntity
  8
0
  6
Continuous
 62
     7
370
    25
100
AcDbLine
 10
33.3933104352
 20
65.6518913881
 30
0.0
 11
33.0003668048
 21
65.9610762896
 31
0.0
  0
SPLINE
  5
16F
330
1F
100
AcDbEntity
  8
0
  6
Continuous
 62
     7
370
    25
100
AcDbSpline
210
0.0
220
0.0
230
1.0
 70
     8
 71
     3
 72
     9
 73
     5
 74
     0
 42
0.00000001
 43
0.00000001
 40
0.0
 40
0.0
 40
0.0
 40
0.0
 40
0.4999999999999955
 40
1.0
 40
1.0
 40
1.0
 40
1.0
 10
33.28625406558411
 20
65.34270648652874
 30
0.0
 10
33.29109346487108
 20
65.39873975226652
 30
0.0
 10
33.30077226344519
 20
65.51080628374211
 30
0.0
 10
33.36246437794554
 20
65.60486301995644
 30
0.0
 10
33.39331043519567
 20
65.6518913880636
 30
0.0
  0
SPLINE
  5
170
330
1F
100
AcDbEntity
  8
0
  6
Continuous
 62
     7
370
    25
100
AcDbSpline
210
0.0
220
0.0
230
1.0
 70
     8
 71
     3
 72
     9
 73
     5
 74
     0
 42
0.00000001
 43
0.00000001
 40
0.0
 40
0.0
 40
0.0
 40
0.0
 40
0.5000000000000112
 40
1.0
 40
1.0
 40
1.0
 40
1.0
 10
33.00036680480684
 20
30.72433668345896
 30
0.0
 10
32.93867469030653
 20
30.81839341967328
 30
0.0
 10
32.81529046130588
 20
31.0065068921019
 30
0.0
 10
32.79593286415783
 20
31.2306399550531
 30
0.0
 10
32.78625406558378
 20
31.34270648652871
 30
0.0
  0
SPLINE
  5
171
330
1F
100
AcDbEntity
  8
0
  6
Continuous
 62
     7
370
    25
100
AcDbSpline
210
0.0
220
0.0
230
1.0
 70
     8
 71
     3
 72
     9
 73
     5
 74
     0
 42
0.00000001
 43
0.00000001
 40
0.0
 40
0.0
 40
0.0
 40
0.0
 40
0.4999999999999695
 40
0.9999999999999999
 40
0.9999999999999999
 40
0.9999999999999999
 40
0.9999999999999999
 10
33.39331043519527
 20
31.03352158499383
 30
0.0
 10
33.36246437794516
 20
31.080549953101
 30
0.0
 10
33.30077226344502
 20
31.17460668931534
 30
0.0
 10
33.29109346487081
 20
31.28667322079091
 30
0.0
 10
33.28625406558378
 20
31.34270648652871
 30
0.0
  0
LINE
  5
172
330
1F
100
AcDbEntity
  8
0
  6
Continuous
 62
     7
370
    25
100
AcDbLine
 10
33.3933104352
 20
31.033521585
 30
0.0
 11
33.0003668048
 21
30.7243366835
 31
0.0
  0
ARC
  5
173
330
1F
100
AcDbEntity
  8
0
  6
Continuous
 62
     7
370
    25
100
AcDbCircle
 10
33.7862540656
 20
65.3427064865
 30
0.0
 40
0.9999999999999878
100
AcDbArc
 50
107.4576031394
 51
141.8028136579
  0
ARC
  5
174
330
1F
100
AcDbEntity
  8
0
  6
Continuous
 62
     7
370
    25
100
AcDbCircle
 10
33.7862540656
 20
65.3427064865
 30
0.0
 40
0.4999999999999801
100
AcDbArc
 50
126.8698976833
 51
141.8028136579
  0
LINE
  5
175
330
1F
100
AcDbEntity
  8
0
  6
Continuous
 62
     7
370
    25
100
AcDbLine
 10
33.7862540656
 20
30.3427064865
 30
0.0
 11
33.7862540656
 21
30.8427064865
 31
0.0
  0
ARC
  5
176
330
1F
100
AcDbEntity
  8
0
  6
Continuous
 62
     7
370
    25
100
AcDbCircle
 10
33.7862540656
 20
31.3427064865
 30
0.0
 40
0.5000000000000201
100
AcDbArc
 50
218.1971863421
 51
270.0
  0
ARC
  5
177
330
1F
100
AcDbEntity
  8
0
  6
Continuous
 62
     7
370
    25
100
AcDbCircle
 10
33.7862540656
 20
31.3427064865
 30
0.0
 40
1.0
100
AcDbArc
 50
218.1971863421
 51
270.0
  0
LINE
  5
178
330
1F
100
AcDbEntity
  8
0
  6
Continuous
 62
     7
370
    25
100
AcDbLine
 10
34.7244208153
 20
30.3427064865
 30
0.0
 11
34.7244208153
 21
30.8427064865
 31
0.0
  0
LINE
  5
179
330
1F
100
AcDbEntity
  8
0
  6
Continuous
 62
     7
370
    25
100
AcDbLine
 10
33.7862540656
 20
30.3427064865
 30
0.0
 11
34.7244208153
 21
30.3427064865
 31
0.0
  0
LINE
  5
17A
330
1F
100
AcDbEntity
  8
0
  6
Continuous
 62
     7
370
    25
100
AcDbLine
 10
33.7862540656
 20
30.8427064865
 30
0.0
 11
34.0582773846
 21
30.8427064865
 31
0.0
  0
LINE
  5
17B
330
1F
100
AcDbEntity
  8
0
  6
Continuous
 62
     7
370
    25
100
AcDbLine
 10
35.3933855469
 20
30.3427064865
 30
0.0
 11
35.3933855469
 21
30.8427064865
 31
0.0
  0
LINE
  5
17C
330
1F
100
AcDbEntity
  8
0
  6
Continuous
 62
     7
370
    25
100
AcDbLine
 10
34.7244208153
 20
30.3427064865
 30
0.0
 11
35.3933855469
 21
30.3427064865
 31
0.0
  0
LINE
  5
17D
330
1F
100
AcDbEntity
  8
0
  6
Continuous
 62
     7
370
    25
100
AcDbLine
 10
45.1081568205
 20
30.3427064865
 30
0.0
 11
45.1081568205
 21
30.8427064865
 31
0.0
  0
LINE
  5
17E
330
1F
100
AcDbEntity
  8
0
  6
Continuous
 62
     7
370
    25
100
AcDbLine
 10
35.3933855469
 20
30.3427064865
 30
0.0
 11
45.1081568205
 21
30.3427064865
 31
0.0
  0
SPLINE
  5
17F
330
1F
100
AcDbEntity
  8
0
  6
Continuous
 62
     7
370
    25
100
AcDbSpline
210
0.0
220
0.0
230
1.0
 70
     8
 71
     3
 72
     9
 73
     5
 74
     0
 42
0.00000001
 43
0.00000001
 40
0.0
 40
0.0
 40
0.0
 40
0.0
 40
0.5931105904959973
 40
1.0
 40
1.0
 40
1.0
 40
1.0
 10
155.7898552177533
 20
86.97309498693146
 30
0.0
 10
155.7787913674569
 20
86.63342206470803
 30
0.0
 10
155.7601374258925
 20
86.0607246155875
 30
0.0
 10
155.5904006839642
 20
85.50996650845416
 30
0.0
 10
155.5213366012699
 20
85.28586886746314
 30
0.0
  0
SPLINE
  5
180
330
1F
100
AcDbEntity
  8
0
  6
Continuous
 62
     7
370
    25
100
AcDbSpline
210
0.0
220
0.0
230
1.0
 70
     8
 71
     3
 72
     9
 73
     5
 74
     0
 42
0.00000001
 43
0.00000001
 40
0.0
 40
0.0
 40
0.0
 40
0.0
 40
0.5599999999999962
 40
1.0
 40
1.0
 40
1.0
 40
1.0
 10
155.5213366012699
 20
85.28586886746314
 30
0.0
 10
155.4018691088339
 20
85.29085674370698
 30
0.0
 10
155.1885343009124
 20
85.29976366557102
 30
0.0
 10
154.9139176126365
 20
85.30058333737416
 30
0.0
 10
154.7930862697952
 20
85.30094399296755
 30
0.0
  0
LINE
  5
181
330
1F
100
AcDbEntity
  8
0
  6
Continuous
 62
     7
370
    25
100
AcDbLine
 10
154.7930862698
 20
85.300943993
 30
0.0
 11
154.7892088138
 21
87.3064652729
 31
0.0
  0
SPLINE
  5
182
330
1F
100
AcDbEntity
  8
0
  6
Continuous
 62
     7
370
    25
100
AcDbSpline
210
0.0
220
0.0
230
1.0
 70
     8
 71
     3
 72
    11
 73
     7
 74
     0
 42
0.00000001
 43
0.00000001
 40
0.0
 40
0.0
 40
0.0
 40
0.0
 40
0.2796579740372182
 40
0.5592666022935345
 40
0.7796650582495823
 40
0.9999999999999999
 40
0.9999999999999999
 40
0.9999999999999999
 40
0.9999999999999999
 10
154.7892088137728
 20
87.30646527294456
 30
0.0
 10
154.9364012193068
 20
87.30423561543682
 30
0.0
 10
155.2307600582056
 20
87.29977669384546
 30
0.0
 10
155.5595821492647
 20
87.26289112723202
 30
0.0
 10
155.754895220381
 20
87.21430978697865
 30
0.0
 10
155.7779710388413
 20
87.17347109802601
 30
0.0
 10
155.7895072853402
 20
87.15305469618681
 30
0.0
  0
LINE
  5
183
330
1F
100
AcDbEntity
  8
0
  6
Continuous
 62
     7
370
    25
100
AcDbLine
 10
155.7895072853
 20
87.1530546962
 30
0.0
 11
155.7898552178
 21
86.9730949869
 31
0.0
  0
SPLINE
  5
184
330
1F
100
AcDbEntity
  8
0
  6
Continuous
 62
     7
370
    25
100
AcDbSpline
210
0.0
220
0.0
230
1.0
 70
     8
 71
     3
 72
     9
 73
     5
 74
     0
 42
0.00000001
 43
0.00000001
 40
0.0
 40
0.0
 40
0.0
 40
0.0
 40
0.5600000000000122
 40
1.0
 40
1.0
 40
1.0
 40
1.0
 10
154.3930870173929
 20
85.30017063816666
 30
0.0
 10
154.2386701197397
 20
85.29889179613973
 30
0.0
 10
153.9629256596447
 20
85.29660814966304
 30
0.0
 10
153.75596368926
 20
85.28665780349151
 30
0.0
 10
153.6649004222907
 20
85.28227965117604
 30
0.0
  0
SPLINE
  5
185
330
1F
100
AcDbEntity
  8
0
  6
Continuous
 62
     7
370
    25
100
AcDbSpline
210
0.0
220
0.0
230
1.0
 70
     8
 71
     3
 72
     9
 73
     5
 74
     0
 42
0.00000001
 43
0.00000001
 40
0.0
 40
0.0
 40
0.0
 40
0.0
 40
0.5304166037466856
 40
1.0
 40
1.0
 40
1.0
 40
1.0
 10
153.6649004222907
 20
85.28227965117604
 30
0.0
 10
153.5781450708028
 20
85.57542678523167
 30
0.0
 10
153.4145842944714
 20
86.12810015930202
 30
0.0
 10
153.3977600766729
 20
86.6999320818501
 30
0.0
 10
153.3898597033398
 20
86.96845485812626
 30
0.0
  0
LINE
  5
186
330
1F
100
AcDbEntity
  8
0
  6
Continuous
 62
     7
370
    25
100
AcDbLine
 10
153.3898597033
 20
86.9684548581
 30
0.0
 11
153.3895117709
 21
87.1484145674
 31
0.0
  0
SPLINE
  5
187
330
1F
100
AcDbEntity
  8
0
  6
Continuous
 62
     7
370
    25
100
AcDbSpline
210
0.0
220
0.0
230
1.0
 70
     8
 71
     3
 72
    11
 73
     7
 74
     0
 42
0.00000001
 43
0.00000001
 40
0.0
 40
0.0
 40
0.0
 40
0.0
 40
0.2796579740371054
 40
0.5592666022933369
 40
0.7796650582493754
 40
1.0
 40
1.0
 40
1.0
 40
1.0
 10
154.3892095613706
 20
87.3056919181437
 30
0.0
 10
154.2420268778083
 20
87.30289311860125
 30
0.0
 10
153.9476874811374
 20
87.29729601336588
 30
0.0
 10
153.6190104762265
 20
87.25913924417043
 30
0.0
 10
153.4238867179772
 20
87.20980303701504
 30
0.0
 10
153.4009689857168
 20
87.16887542456311
 30
0.0
 10
153.3895117709267
 20
87.14841456738162
 30
0.0
  0
LINE
  5
188
330
1F
100
AcDbEntity
  8
0
  6
Continuous
 62
     7
370
    25
100
AcDbLine
 10
154.3892095614
 20
87.3056919181
 30
0.0
 11
154.3930870174
 21
85.3001706382
 31
0.0
  0
LINE
  5
189
330
1F
100
AcDbEntity
  8
0
  6
Continuous
 62
     7
370
    25
100
AcDbLine
 10
153.6649004223
 20
85.2822796512
 30
0.0
 11
155.5213366013
 21
85.2858688675
 31
0.0
  0
LINE
  5
18A
330
1F
100
AcDbEntity
  8
0
  6
Continuous
 62
     7
370
    25
100
AcDbLine
 10
154.3930870174
 20
85.3001706382
 30
0.0
 11
154.7930862698
 21
85.300943993
 31
0.0
  0
LINE
  5
18B
330
1F
100
AcDbEntity
  8
0
  6
Continuous
 62
     7
370
    25
100
AcDbLine
 10
154.3892095614
 20
87.3056919181
 30
0.0
 11
154.7892088138
 21
87.3064652729
 31
0.0
  0
SPLINE
  5
18C
330
1F
100
AcDbEntity
  8
0
  6
Continuous
 62
     7
370
    25
100
AcDbSpline
210
0.0
220
0.0
230
1.0
 70
     8
 71
     3
 72
    11
 73
     7
 74
     0
 42
0.00000001
 43
0.00000001
 40
0.0
 40
0.0
 40
0.0
 40
0.0
 40
0.2702613318129033
 40
0.5624293896421039
 40
0.7897364218595585
 40
1.0
 40
1.0
 40
1.0
 40
1.0
 10
153.388833653997
 20
87.49915431143278
 30
0.0
 10
153.4062064751543
 20
87.63183009993129
 30
0.0
 10
153.442360316084
 20
87.90793605354645
 30
0.0
 10
153.7122513733598
 20
88.22242671006495
 30
0.0
 10
154.0483013801367
 20
88.40581706646618
 30
0.0
 10
154.277085561547
 20
88.42696341839975
 30
0.0
 10
154.3870220597178
 20
88.43712476725848
 30
0.0
  0
SPLINE
  5
18D
330
1F
100
AcDbEntity
  8
0
  6
Continuous
 62
     7
370
    25
100
AcDbSpline
210
0.0
220
0.0
230
1.0
 70
    24
 71
     3
 72
    10
 73
     6
 74
     0
 42
0.00000001
 43
0.00000001
 40
0.0
 40
0.0
 40
0.0
 40
0.0
 40
0.2768779234291006
 40
0.5624038656203757
 40
1.0
 40
1.0
 40
1.0
 40
1.0
 10
154.3870220597178
 20
88.43712476725848
 30
0.0
 10
154.3871409918669
 20
88.37560996103147
 30
0.0
 10
154.3873825708978
 20
88.25065899207561
 30
0.0
 10
154.3881010941864
 20
87.87902002636997
 30
0.0
 10
154.388791664115
 20
87.52183926684906
 30
0.0
 10
154.3892095613706
 20
87.3056919181437
 30
0.0
  0
SPLINE
  5
18E
330
1F
100
AcDbEntity
  8
0
  6
Continuous
 62
     7
370
    25
100
AcDbSpline
210
0.0
220
0.0
230
1.0
 70
    24
 71
     3
 72
     9
 73
     5
 74
     0
 42
0.00000001
 43
0.00000001
 40
0.0
 40
0.0
 40
0.0
 40
0.0
 40
0.5599999999999755
 40
1.0
 40
1.0
 40
1.0
 40
1.0
 10
153.3895117709267
 20
87.14841456738162
 30
0.0
 10
153.389344456785
 20
87.23495380079265
 30
0.0
 10
153.3890456815319
 20
87.38948814616953
 30
0.0
 10
153.3888984401883
 20
87.46564520538011
 30
0.0
 10
153.388833653997
 20
87.49915431143278
 30
0.0
  0
LINE
  5
18F
330
1F
100
AcDbEntity
  8
0
  6
Continuous
 62
     7
370
    25
100
AcDbLine
 10
154.7870213121
 20
88.4378981221
 30
0.0
 11
154.3870220597
 21
88.4371247673
 31
0.0
  0
SPLINE
  5
190
330
1F
100
AcDbEntity
  8
0
  6
Continuous
 62
     7
370
    25
100
AcDbSpline
210
0.0
220
0.0
230
1.0
 70
    24
 71
     3
 72
    10
 73
     6
 74
     0
 42
0.00000001
 43
0.00000001
 40
0.0
 40
0.0
 40
0.0
 40
0.0
 40
0.2768779234291822
 40
0.5624038656204475
 40
1.0
 40
1.0
 40
1.0
 40
1.0
 10
154.7892088137728
 20
87.30646527294456
 30
0.0
 10
154.788943228872
 20
87.44383270337904
 30
0.0
 10
154.7884037637783
 20
87.722858105368
 30
0.0
 10
154.7875717076822
 20
88.15321919703524
 30
0.0
 10
154.7872288137928
 20
88.33057285055537
 30
0.0
 10
154.7870213121201
 20
88.43789812205937
 30
0.0
  0
SPLINE
  5
191
330
1F
100
AcDbEntity
  8
0
  6
Continuous
 62
     7
370
    25
100
AcDbSpline
210
0.0
220
0.0
230
1.0
 70
     8
 71
     3
 72
    11
 73
     7
 74
     0
 42
0.00000001
 43
0.00000001
 40
0.0
 40
0.0
 40
0.0
 40
0.0
 40
0.270261331812902
 40
0.562429389642095
 40
0.7897364218595403
 40
1.0
 40
1.0
 40
1.0
 40
1.0
 10
154.7870213121201
 20
88.43789812205937
 30
0.0
 10
154.9287585619099
 20
88.42167041336404
 30
0.0
 10
155.2237219381134
 20
88.38789961738829
 30
0.0
 10
155.5596331089565
 20
88.13535141582155
 30
0.0
 10
155.7554688083392
 20
87.82084230471499
 30
0.0
 10
155.7780016004908
 20
87.60669672543736
 30
0.0
 10
155.7888291684105
 20
87.50379444023807
 30
0.0
  0
SPLINE
  5
192
330
1F
100
AcDbEntity
  8
0
  6
Continuous
 62
     7
370
    25
100
AcDbSpline
210
0.0
220
0.0
230
1.0
 70
    24
 71
     3
 72
     9
 73
     5
 74
     0
 42
0.00000001
 43
0.00000001
 40
0.0
 40
0.0
 40
0.0
 40
0.0
 40
0.5599999999999868
 40
1.0
 40
1.0
 40
1.0
 40
1.0
 10
155.7888291684105
 20
87.50379444023807
 30
0.0
 10
155.7889172308226
 20
87.45824626631507
 30
0.0
 10
155.7890744851298
 20
87.37691024145259
 30
0.0
 10
155.7893750408314
 20
87.22145500168469
 30
0.0
 10
155.7895072853402
 20
87.15305469618681
 30
0.0
  0
SPLINE
  5
193
330
1F
100
AcDbEntity
  8
0
  6
Continuous
 62
     7
370
    25
100
AcDbSpline
210
0.0
220
0.0
230
1.0
 70
     8
 71
     3
 72
    11
 73
     7
 74
     0
 42
0.00000001
 43
0.00000001
 40
0.0
 40
0.0
 40
0.0
 40
0.0
 40
0.2702613318128818
 40
0.562429389642073
 40
0.78973642185952
 40
1.0
 40
1.0
 40
1.0
 40
1.0
 10
154.3868983980005
 20
88.50108582944058
 30
0.0
 10
154.2452271366689
 20
88.48318258827177
 30
0.0
 10
153.9504010862456
 20
88.44592491276323
 30
0.0
 10
153.6155024219796
 20
88.17477833226864
 30
0.0
 10
153.4209259203303
 20
87.83799756791535
 30
0.0
 10
153.3992496444922
 20
87.60913059363848
 30
0.0
 10
153.388833653997
 20
87.49915431143278
 30
0.0
  0
SPLINE
  5
194
330
1F
100
AcDbEntity
  8
0
  6
Continuous
 62
     7
370
    25
100
AcDbSpline
210
0.0
220
0.0
230
1.0
 70
    24
 71
     3
 72
     9
 73
     5
 74
     0
 42
0.00000001
 43
0.00000001
 40
0.0
 40
0.0
 40
0.0
 40
0.0
 40
0.5599999999999916
 40
1.0
 40
1.0
 40
1.0
 40
1.0
 10
154.3868983980005
 20
88.50108582944058
 30
0.0
 10
154.3869050307714
 20
88.4976551874656
 30
0.0
 10
154.3869168750054
 20
88.49152904108168
 30
0.0
 10
154.3869899199445
 20
88.45374829537111
 30
0.0
 10
154.3870220597178
 20
88.43712476725848
 30
0.0
  0
SPLINE
  5
195
330
1F
100
AcDbEntity
  8
0
  6
Continuous
 62
     7
370
    25
100
AcDbSpline
210
0.0
220
0.0
230
1.0
 70
    24
 71
     3
 72
     9
 73
     5
 74
     0
 42
0.00000001
 43
0.00000001
 40
0.0
 40
0.0
 40
0.0
 40
0.0
 40
0.5599999999999664
 40
1.0
 40
1.0
 40
1.0
 40
1.0
 10
154.7870213121201
 20
88.43789812205937
 30
0.0
 10
154.7869817130342
 20
88.4583798010424
 30
0.0
 10
154.7869110003807
 20
88.49495422779786
 30
0.0
 10
154.7869017295627
 20
88.49974933643925
 30
0.0
 10
154.7868976504027
 20
88.50185918424147
 30
0.0
  0
SPLINE
  5
196
330
1F
100
AcDbEntity
  8
0
  6
Continuous
 62
     7
370
    25
100
AcDbSpline
210
0.0
220
0.0
230
1.0
 70
     8
 71
     3
 72
    11
 73
     7
 74
     0
 42
0.00000001
 43
0.00000001
 40
0.0
 40
0.0
 40
0.0
 40
0.0
 40
0.0661662827718135
 40
0.440048598993015
 40
0.7309294034528662
 40
1.0
 40
1.0
 40
1.0
 40
1.0
 10
155.7162941021765
 20
87.83697984129275
 30
0.0
 10
155.7113326276151
 20
87.86352858455513
 30
0.0
 10
155.6783356110348
 20
88.04009490788822
 30
0.0
 10
155.4563363501127
 20
88.27295514330176
 30
0.0
 10
155.127001658788
 20
88.47022253283544
 30
0.0
 10
154.8972831271383
 20
88.49159106989505
 30
0.0
 10
154.7868976504027
 20
88.50185918424147
 30
0.0
  0
LINE
  5
197
330
1F
100
AcDbEntity
  8
0
  6
Continuous
 62
     7
370
    25
100
AcDbLine
 10
154.7868976504
 20
88.5018591842
 30
0.0
 11
154.386898398
 21
88.5010858294
 31
0.0
  0
LINE
  5
198
330
1F
100
AcDbEntity
  8
0
  6
Continuous
 62
     7
370
    25
100
AcDbLine
 10
153.3898597807
 20
86.9684148582
 30
0.0
 11
153.393567956
 21
85.0504499761
 31
0.0
  0
LINE
  5
199
330
1F
100
AcDbEntity
  8
0
  6
Continuous
 62
     7
370
    25
100
AcDbLine
 10
155.7935724416
 20
85.0504499761
 30
0.0
 11
155.7898498879
 21
86.9758517164
 31
0.0
  0
LINE
  5
19A
330
1F
100
AcDbEntity
  8
0
  6
Continuous
 62
     7
370
    25
100
AcDbLine
 10
111.9862540653
 20
86.5504499755
 30
0.0
 11
119.4862540653
 21
86.5504499755
 31
0.0
  0
LINE
  5
19B
330
1F
100
AcDbEntity
  8
0
  6
Continuous
 62
     7
370
    25
100
AcDbLine
 10
119.4862540653
 20
85.0504499755
 30
0.0
 11
119.4862540653
 21
86.5504499755
 31
0.0
  0
LINE
  5
19C
330
1F
100
AcDbEntity
  8
0
  6
Continuous
 62
     7
370
    25
100
AcDbLine
 10
119.4862540653
 20
86.5504499755
 30
0.0
 11
126.9862540653
 21
86.5504499755
 31
0.0
  0
ARC
  5
19D
330
1F
100
AcDbEntity
  8
0
  6
Continuous
 62
     7
370
    25
100
AcDbCircle
 10
764.4079330628
 20
48.3427064867
 30
0.0
 40
4.176571428571338
100
AcDbArc
 50
192.795595001
 51
228.333259686
  0
ARC
  5
19E
330
1F
100
AcDbEntity
  8
0
  6
Continuous
 62
     7
370
    25
100
AcDbCircle
 10
764.4079330628
 20
48.3427064867
 30
0.0
 40
4.176571428571328
100
AcDbArc
 50
131.666740314
 51
167.204404999
  0
LINE
  5
19F
330
1F
100
AcDbEntity
  8
0
  6
Continuous
 62
     7
370
    25
100
AcDbLine
 10
762.1313616342
 20
46.7427064867
 30
0.0
 11
762.5313616346
 21
46.7427064867
 31
0.0
  0
LINE
  5
1A0
330
1F
100
AcDbEntity
  8
0
  6
Continuous
 62
     7
370
    25
100
AcDbLine
 10
762.5313616346
 20
49.9427064867
 30
0.0
 11
762.1313616342
 21
49.9427064867
 31
0.0
  0
ARC
  5
1A1
330
1F
100
AcDbEntity
  8
0
  6
Continuous
 62
     7
370
    25
100
AcDbCircle
 10
1348.2547902058
 20
48.3427064865
 30
0.0
 40
4.176571428571328
100
AcDbArc
 50
12.795595001
 51
48.333259686
  0
ARC
  5
1A2
330
1F
100
AcDbEntity
  8
0
  6
Continuous
 62
     7
370
    25
100
AcDbCircle
 10
1348.2547902058
 20
48.3427064865
 30
0.0
 40
4.176571428571338
100
AcDbArc
 50
311.666740314
 51
347.204404999
  0
LINE
  5
1A3
330
1F
100
AcDbEntity
  8
0
  6
Continuous
 62
     7
370
    25
100
AcDbLine
 10
1335.9094365911
 20
85.3009440909
 30
0.0
 11
1335.8042339056
 21
87.3064654688
 31
0.0
  0
LINE
  5
1A4
330
1F
100
AcDbEntity
  8
0
  6
Continuous
 62
     7
370
    25
100
AcDbLine
 10
1332.7386457418
 20
87.3064660773
 30
0.0
 11
1332.2415548071
 21
85.0504499761
 31
0.0
  0
LINE
  5
1A5
330
1F
100
AcDbEntity
  8
0
  6
Continuous
 62
     7
370
    25
100
AcDbLine
 10
1315.4211684616
 20
85.0504499761
 30
0.0
 11
1314.9240775269
 21
87.3064660773
 31
0.0
  0
LINE
  5
1A6
330
1F
100
AcDbEntity
  8
0
  6
Continuous
 62
     7
370
    25
100
AcDbLine
 10
1311.8584893631
 20
87.3064654688
 30
0.0
 11
1311.7663748897
 21
85.5504499761
 31
0.0
  0
LINE
  5
1A7
330
1F
100
AcDbEntity
  8
0
  6
Continuous
 62
     7
370
    25
100
AcDbLine
 10
760.3350810034
 20
49.2677064867
 30
0.0
 11
760.3350810034
 21
47.4177064867
 31
0.0
  0
LINE
  5
1A8
330
1F
100
AcDbEntity
  8
0
  6
Continuous
 62
     7
370
    25
100
AcDbLine
 10
1352.3276422653
 20
47.4177064865
 30
0.0
 11
1352.3276422653
 21
49.2677064865
 31
0.0
  0
LINE
  5
1A9
330
1F
100
AcDbEntity
  8
0
  6
Continuous
 62
     7
370
    25
100
AcDbLine
 10
763.8973870384
 20
31.3427064865
 30
0.0
 11
763.1313616342
 21
31.3427064865
 31
0.0
  0
LINE
  5
1AA
330
1F
100
AcDbEntity
  8
0
  6
Continuous
 62
     7
370
    25
100
AcDbLine
 10
763.1313616342
 20
31.3427064865
 30
0.0
 11
763.1313616342
 21
31.7924686648
 31
0.0
  0
LINE
  5
1AB
330
1F
100
AcDbEntity
  8
0
  6
Continuous
 62
     7
370
    25
100
AcDbLine
 10
1298.3313616344
 20
85.0504499761
 30
0.0
 11
1298.3313616344
 21
85.5504499761
 31
0.0
  0
LINE
  5
1AC
330
1F
100
AcDbEntity
  8
0
  6
Continuous
 62
     7
370
    25
100
AcDbLine
 10
1296.5774898896
 20
85.5504499761
 30
0.0
 11
1296.5774898896
 21
85.0504499761
 31
0.0
  0
LINE
  5
1AD
330
1F
100
AcDbEntity
  8
0
  6
Continuous
 62
     7
370
    25
100
AcDbLine
 10
1298.3313616344
 20
85.5504499761
 30
0.0
 11
1296.5774898896
 21
85.5504499761
 31
0.0
  0
LINE
  5
1AE
330
1F
100
AcDbEntity
  8
0
  6
Continuous
 62
     7
370
    25
100
AcDbLine
 10
1295.3774898896
 20
88.0043217208
 30
0.0
 11
1295.8774898896
 21
88.0043217208
 31
0.0
  0
LINE
  5
1AF
330
1F
100
AcDbEntity
  8
0
  6
Continuous
 62
     7
370
    25
100
AcDbLine
 10
1295.8774898896
 20
86.2504499761
 30
0.0
 11
1295.8774898896
 21
88.0043217208
 31
0.0
  0
LINE
  5
1B0
330
1F
100
AcDbEntity
  8
0
  6
Continuous
 62
     7
370
    25
100
AcDbLine
 10
1295.8774898896
 20
86.2504499761
 30
0.0
 11
1295.3774898896
 21
86.2504499761
 31
0.0
  0
LINE
  5
1B1
330
1F
100
AcDbEntity
  8
0
  6
Continuous
 62
     7
370
    25
100
AcDbLine
 10
1295.3774898896
 20
86.2504499761
 30
0.0
 11
1295.3774898896
 21
88.0043217208
 31
0.0
  0
LINE
  5
1B2
330
1F
100
AcDbEntity
  8
0
  6
Continuous
 62
     7
370
    25
100
AcDbLine
 10
1311.8313616344
 20
85.0504499761
 30
0.0
 11
1311.8313616344
 21
85.5504499761
 31
0.0
  0
LINE
  5
1B3
330
1F
100
AcDbEntity
  8
0
  6
Continuous
 62
     7
370
    25
100
AcDbLine
 10
1309.3313616344
 20
85.0504499761
 30
0.0
 11
1309.3313616344
 21
85.5504499761
 31
0.0
  0
LINE
  5
1B4
330
1F
100
AcDbEntity
  8
0
  6
Continuous
 62
     7
370
    25
100
AcDbLine
 10
1309.3313616344
 20
85.5504499761
 30
0.0
 11
1311.8313616344
 21
85.5504499761
 31
0.0
  0
LINE
  5
1B5
330
1F
100
AcDbEntity
  8
0
  6
Continuous
 62
     7
370
    25
100
AcDbLine
 10
1309.3313616344
 20
85.5504499761
 30
0.0
 11
1298.3313616344
 21
85.5504499761
 31
0.0
  0
LINE
  5
1B6
330
1F
100
AcDbEntity
  8
0
  6
Continuous
 62
     7
370
    25
100
AcDbLine
 10
1295.3774898896
 20
121.5043217208
 30
0.0
 11
1295.8774898896
 21
121.5043217208
 31
0.0
  0
LINE
  5
1B7
330
1F
100
AcDbEntity
  8
0
  6
Continuous
 62
     7
370
    25
100
AcDbLine
 10
1295.8774898896
 20
88.0043217208
 30
0.0
 11
1295.8774898896
 21
121.5043217208
 31
0.0
  0
LINE
  5
1B8
330
1F
100
AcDbEntity
  8
0
  6
Continuous
 62
     7
370
    25
100
AcDbLine
 10
1295.3774898896
 20
88.0043217208
 30
0.0
 11
1295.3774898896
 21
121.5043217208
 31
0.0
  0
LINE
  5
1B9
330
1F
100
AcDbEntity
  8
0
  6
Continuous
 62
     7
370
    25
100
AcDbLine
 10
1295.3774898896
 20
125.5043217208
 30
0.0
 11
1295.8774898896
 21
125.5043217208
 31
0.0
  0
LINE
  5
1BA
330
1F
100
AcDbEntity
  8
0
  6
Continuous
 62
     7
370
    25
100
AcDbLine
 10
1295.8774898896
 20
125.5043217208
 30
0.0
 11
1295.8774898896
 21
121.5043217208
 31
0.0
  0
LINE
  5
1BB
330
1F
100
AcDbEntity
  8
0
  6
Continuous
 62
     7
370
    25
100
AcDbLine
 10
1295.3774898896
 20
125.5043217208
 30
0.0
 11
1295.3774898896
 21
121.5043217208
 31
0.0
  0
SPLINE
  5
1BC
330
1F
100
AcDbEntity
  8
0
  6
Continuous
 62
     7
370
    25
100
AcDbSpline
210
0.0
220
0.0
230
1.0
 70
     8
 71
     3
 72
     9
 73
     5
 74
     0
 42
0.00000001
 43
0.00000001
 40
0.0
 40
0.0
 40
0.0
 40
0.0
 40
0.5000000000000022
 40
1.0
 40
1.0
 40
1.0
 40
1.0
 10
1295.728961752207
 20
85.40192183864872
 30
0.0
 10
1295.628187423294
 20
85.52586516982294
 30
0.0
 10
1295.426638765467
 20
85.77375183217137
 30
0.0
 10
1295.393872848243
 20
86.09155059477217
 30
0.0
 10
1295.377489889631
 20
86.25044997607257
 30
0.0
  0
SPLINE
  5
1BD
330
1F
100
AcDbEntity
  8
0
  6
Continuous
 62
     7
370
    25
100
AcDbSpline
210
0.0
220
0.0
230
1.0
 70
     8
 71
     3
 72
     9
 73
     5
 74
     0
 42
0.00000001
 43
0.00000001
 40
0.0
 40
0.0
 40
0.0
 40
0.0
 40
0.4999999999999999
 40
1.0
 40
1.0
 40
1.0
 40
1.0
 10
1296.0825151428
 20
85.75547522924198
 30
0.0
 10
1296.023730117601
 20
85.82777550576027
 30
0.0
 10
1295.906160067202
 20
85.97237605879687
 30
0.0
 10
1295.887046615488
 20
86.157758670314
 30
0.0
 10
1295.877489889631
 20
86.25044997607256
 30
0.0
  0
LINE
  5
1BE
330
1F
100
AcDbEntity
  8
0
  6
Continuous
 62
     7
370
    25
100
AcDbLine
 10
1296.0825151428
 20
85.7554752292
 30
0.0
 11
1295.7289617522
 21
85.4019218386
 31
0.0
  0
SPLINE
  5
1BF
330
1F
100
AcDbEntity
  8
0
  6
Continuous
 62
     7
370
    25
100
AcDbSpline
210
0.0
220
0.0
230
1.0
 70
     8
 71
     3
 72
     9
 73
     5
 74
     0
 42
0.00000001
 43
0.00000001
 40
0.0
 40
0.0
 40
0.0
 40
0.0
 40
0.499999999999999
 40
1.0
 40
1.0
 40
1.0
 40
1.0
 10
1296.577489889631
 20
85.55044997607256
 30
0.0
 10
1296.484798583872
 20
85.5600067019295
 30
0.0
 10
1296.299415972355
 20
85.57912015364336
 30
0.0
 10
1296.154815419319
 20
85.69669020404244
 30
0.0
 10
1296.0825151428
 20
85.75547522924198
 30
0.0
  0
SPLINE
  5
1C0
330
1F
100
AcDbEntity
  8
0
  6
Continuous
 62
     7
370
    25
100
AcDbSpline
210
0.0
220
0.0
230
1.0
 70
     8
 71
     3
 72
     9
 73
     5
 74
     0
 42
0.00000001
 43
0.00000001
 40
0.0
 40
0.0
 40
0.0
 40
0.0
 40
0.4999999999999937
 40
1.0
 40
1.0
 40
1.0
 40
1.0
 10
1296.577489889631
 20
85.05044997607256
 30
0.0
 10
1296.41859050833
 20
85.06683293468446
 30
0.0
 10
1296.10079174573
 20
85.09959885190823
 30
0.0
 10
1295.852905083381
 20
85.30114750973522
 30
0.0
 10
1295.728961752207
 20
85.40192183864872
 30
0.0
  0
LINE
  5
1C1
330
1F
100
AcDbEntity
  8
0
  6
Continuous
 62
     7
370
    25
100
AcDbLine
 10
814.3313616344
 20
85.0504499761
 30
0.0
 11
814.3313616344
 21
85.5504499761
 31
0.0
  0
LINE
  5
1C2
330
1F
100
AcDbEntity
  8
0
  6
Continuous
 62
     7
370
    25
100
AcDbLine
 10
814.3313616344
 20
85.5504499761
 30
0.0
 11
816.0852333792
 21
85.5504499761
 31
0.0
  0
LINE
  5
1C3
330
1F
100
AcDbEntity
  8
0
  6
Continuous
 62
     7
370
    25
100
AcDbLine
 10
816.0852333792
 20
85.5504499761
 30
0.0
 11
816.0852333792
 21
85.0504499761
 31
0.0
  0
LINE
  5
1C4
330
1F
100
AcDbEntity
  8
0
  6
Continuous
 62
     7
370
    25
100
AcDbLine
 10
817.2852333792
 20
88.0043217208
 30
0.0
 11
816.7852333792
 21
88.0043217208
 31
0.0
  0
LINE
  5
1C5
330
1F
100
AcDbEntity
  8
0
  6
Continuous
 62
     7
370
    25
100
AcDbLine
 10
816.7852333792
 20
86.2504499761
 30
0.0
 11
817.2852333792
 21
86.2504499761
 31
0.0
  0
LINE
  5
1C6
330
1F
100
AcDbEntity
  8
0
  6
Continuous
 62
     7
370
    25
100
AcDbLine
 10
816.7852333792
 20
86.2504499761
 30
0.0
 11
816.7852333792
 21
88.0043217208
 31
0.0
  0
LINE
  5
1C7
330
1F
100
AcDbEntity
  8
0
  6
Continuous
 62
     7
370
    25
100
AcDbLine
 10
817.2852333792
 20
86.2504499761
 30
0.0
 11
817.2852333792
 21
88.0043217208
 31
0.0
  0
LINE
  5
1C8
330
1F
100
AcDbEntity
  8
0
  6
Continuous
 62
     7
370
    25
100
AcDbLine
 10
817.2852333792
 20
121.5043217208
 30
0.0
 11
816.7852333792
 21
121.5043217208
 31
0.0
  0
LINE
  5
1C9
330
1F
100
AcDbEntity
  8
0
  6
Continuous
 62
     7
370
    25
100
AcDbLine
 10
816.7852333792
 20
88.0043217208
 30
0.0
 11
816.7852333792
 21
121.5043217208
 31
0.0
  0
LINE
  5
1CA
330
1F
100
AcDbEntity
  8
0
  6
Continuous
 62
     7
370
    25
100
AcDbLine
 10
817.2852333792
 20
88.0043217208
 30
0.0
 11
817.2852333792
 21
121.5043217208
 31
0.0
  0
LINE
  5
1CB
330
1F
100
AcDbEntity
  8
0
  6
Continuous
 62
     7
370
    25
100
AcDbLine
 10
817.2852333792
 20
125.5043217208
 30
0.0
 11
816.7852333792
 21
125.5043217208
 31
0.0
  0
LINE
  5
1CC
330
1F
100
AcDbEntity
  8
0
  6
Continuous
 62
     7
370
    25
100
AcDbLine
 10
816.7852333792
 20
121.5043217208
 30
0.0
 11
816.7852333792
 21
125.5043217208
 31
0.0
  0
LINE
  5
1CD
330
1F
100
AcDbEntity
  8
0
  6
Continuous
 62
     7
370
    25
100
AcDbLine
 10
817.2852333792
 20
121.5043217208
 30
0.0
 11
817.2852333792
 21
125.5043217208
 31
0.0
  0
LINE
  5
1CE
330
1F
100
AcDbEntity
  8
0
  6
Continuous
 62
     7
370
    25
100
AcDbLine
 10
803.3313616344
 20
85.0504499761
 30
0.0
 11
803.3313616344
 21
85.5504499761
 31
0.0
  0
LINE
  5
1CF
330
1F
100
AcDbEntity
  8
0
  6
Continuous
 62
     7
370
    25
100
AcDbLine
 10
803.3313616344
 20
85.5504499761
 30
0.0
 11
814.3313616344
 21
85.5504499761
 31
0.0
  0
LINE
  5
1D0
330
1F
100
AcDbEntity
  8
0
  6
Continuous
 62
     7
370
    25
100
AcDbLine
 10
800.8313616344
 20
85.0504499761
 30
0.0
 11
800.8313616344
 21
85.5504499761
 31
0.0
  0
LINE
  5
1D1
330
1F
100
AcDbEntity
  8
0
  6
Continuous
 62
     7
370
    25
100
AcDbLine
 10
800.8313616344
 20
85.5504499761
 30
0.0
 11
803.3313616344
 21
85.5504499761
 31
0.0
  0
SPLINE
  5
1D2
330
1F
100
AcDbEntity
  8
0
  6
Continuous
 62
     7
370
    25
100
AcDbSpline
210
0.0
220
0.0
230
1.0
 70
     8
 71
     3
 72
     9
 73
     5
 74
     0
 42
0.00000001
 43
0.00000001
 40
0.0
 40
0.0
 40
0.0
 40
0.0
 40
0.4999999999999973
 40
1.0
 40
1.0
 40
1.0
 40
1.0
 10
816.9337615165995
 20
85.40192183864872
 30
0.0
 10
816.8098181854251
 20
85.3011475097352
 30
0.0
 10
816.5619315230767
 20
85.09959885190821
 30
0.0
 10
816.244132760476
 20
85.06683293468444
 30
0.0
 10
816.0852333791755
 20
85.05044997607256
 30
0.0
  0
SPLINE
  5
1D3
330
1F
100
AcDbEntity
  8
0
  6
Continuous
 62
     7
370
    25
100
AcDbSpline
210
0.0
220
0.0
230
1.0
 70
     8
 71
     3
 72
     9
 73
     5
 74
     0
 42
0.00000001
 43
0.00000001
 40
0.0
 40
0.0
 40
0.0
 40
0.0
 40
0.4999999999999923
 40
1.0
 40
1.0
 40
1.0
 40
1.0
 10
816.580208126006
 20
85.75547522924198
 30
0.0
 10
816.5079078494878
 20
85.69669020404244
 30
0.0
 10
816.3633072964512
 20
85.57912015364336
 30
0.0
 10
816.177924684934
 20
85.5600067019295
 30
0.0
 10
816.0852333791755
 20
85.55044997607256
 30
0.0
  0
LINE
  5
1D4
330
1F
100
AcDbEntity
  8
0
  6
Continuous
 62
     7
370
    25
100
AcDbLine
 10
816.580208126
 20
85.7554752292
 30
0.0
 11
816.9337615166
 21
85.4019218386
 31
0.0
  0
SPLINE
  5
1D5
330
1F
100
AcDbEntity
  8
0
  6
Continuous
 62
     7
370
    25
100
AcDbSpline
210
0.0
220
0.0
230
1.0
 70
     8
 71
     3
 72
     9
 73
     5
 74
     0
 42
0.00000001
 43
0.00000001
 40
0.0
 40
0.0
 40
0.0
 40
0.0
 40
0.5000000000000028
 40
1.0
 40
1.0
 40
1.0
 40
1.0
 10
817.2852333791756
 20
86.25044997607256
 30
0.0
 10
817.2688504205637
 20
86.09155059477216
 30
0.0
 10
817.23608450334
 20
85.77375183217137
 30
0.0
 10
817.0345358455129
 20
85.52586516982292
 30
0.0
 10
816.9337615165995
 20
85.40192183864872
 30
0.0
  0
SPLINE
  5
1D6
330
1F
100
AcDbEntity
  8
0
  6
Continuous
 62
     7
370
    25
100
AcDbSpline
210
0.0
220
0.0
230
1.0
 70
     8
 71
     3
 72
     9
 73
     5
 74
     0
 42
0.00000001
 43
0.00000001
 40
0.0
 40
0.0
 40
0.0
 40
0.0
 40
0.4999999999999983
 40
1.0
 40
1.0
 40
1.0
 40
1.0
 10
816.7852333791756
 20
86.25044997607256
 30
0.0
 10
816.7756766533186
 20
86.157758670314
 30
0.0
 10
816.7565632016048
 20
85.97237605879685
 30
0.0
 10
816.6389931512057
 20
85.82777550576027
 30
0.0
 10
816.580208126006
 20
85.75547522924198
 30
0.0
  0
LINE
  5
1D7
330
1F
100
AcDbEntity
  8
0
  6
Continuous
 62
     7
370
    25
100
AcDbLine
 10
1349.1313616344
 20
85.0504499761
 30
0.0
 11
763.5313616344
 21
85.0504499761
 31
0.0
  0
SPLINE
  5
1D8
330
1F
100
AcDbEntity
  8
0
  6
Continuous
 62
     7
370
    25
100
AcDbSpline
210
0.0
220
0.0
230
1.0
 70
     8
 71
     3
 72
    20
 73
    16
 74
     0
 42
0.00000001
 43
0.00000001
 40
0.0
 40
0.0
 40
0.0
 40
0.0
 40
0.0687360809389769
 40
0.1345271890836798
 40
0.1985842533423106
 40
0.2622171082554635
 40
0.3267611781313068
 40
0.3934969003623735
 40
0.4635843335983546
 40
0.538026601133937
 40
0.6176619869116041
 40
0.7031757180338446
 40
0.7951211990018076
 40
0.893943333426459
 40
1.0
 40
1.0
 40
1.0
 40
1.0
 10
1349.831361634408
 20
84.7391630199777
 30
0.0
 10
1349.803004520169
 20
84.740147329632
 30
0.0
 10
1349.747505242104
 20
84.74207377654562
 30
0.0
 10
1349.667086422997
 20
84.75367593103815
 30
0.0
 10
1349.591796720285
 20
84.77141319049387
 30
0.0
 10
1349.521747788083
 20
84.7952914550289
 30
0.0
 10
1349.457024265225
 20
84.82434228907388
 30
0.0
 10
1349.397666853098
 20
84.8575089286571
 30
0.0
 10
1349.34366486037
 20
84.89341653171945
 30
0.0
 10
1349.294974958152
 20
84.93043238287748
 30
0.0
 10
1349.251554666177
 20
84.96660174274142
 30
0.0
 10
1349.213333816505
 20
84.9997296000463
 30
0.0
 10
1349.180396969314
 20
85.02695888860414
 30
0.0
 10
1349.152242831955
 20
85.04649728510633
 30
0.0
 10
1349.138483981122
 20
85.04910175667898
 30
0.0
 10
1349.131361634408
 20
85.05044997607423
 30
0.0
  0
LINE
  5
1D9
330
1F
100
AcDbEntity
  8
0
  6
Continuous
 62
     7
370
    25
100
AcDbLine
 10
1349.8313616344
 20
83.8504499761
 30
0.0
 11
1349.8313616344
 21
84.73916302
 31
0.0
  0
LINE
  5
1DA
330
1F
100
AcDbEntity
  8
0
  6
Continuous
 62
     7
370
    25
100
AcDbLine
 10
1349.8313616344
 20
83.8504499761
 30
0.0
 11
762.8313616344
 21
83.8504499761
 31
0.0
  0
LINE
  5
1DB
330
1F
100
AcDbEntity
  8
0
  6
Continuous
 62
     7
370
    25
100
AcDbLine
 10
762.8313616344
 20
84.7391630201
 30
0.0
 11
762.8313616344
 21
83.8504499761
 31
0.0
  0
SPLINE
  5
1DC
330
1F
100
AcDbEntity
  8
0
  6
Continuous
 62
     7
370
    25
100
AcDbSpline
210
0.0
220
0.0
230
1.0
 70
     8
 71
     3
 72
    21
 73
    17
 74
     0
 42
0.00000001
 43
0.00000001
 40
0.0
 40
0.0
 40
0.0
 40
0.0
 40
0.075205896863717
 40
0.1473908834192764
 40
0.2170792409869642
 40
0.2848532632922389
 40
0.3513456026772003
 40
0.4172258903040698
 40
0.4831824433980104
 40
0.5499012574932552
 40
0.6180453467739486
 40
0.6882373808306386
 40
0.761047534973721
 40
0.8369870598942104
 40
0.9165068929376771
 40
1.0
 40
1.0
 40
1.0
 40
1.0
 10
763.5313616344076
 20
85.05044997607423
 30
0.0
 10
763.5303174457342
 20
85.04977943839448
 30
0.0
 10
763.5282710119109
 20
85.04846529754771
 30
0.0
 10
763.5163350787637
 20
85.03825667082707
 30
0.0
 10
763.4978247673749
 20
85.02316929278928
 30
0.0
 10
763.4721594496973
 20
85.0035683434251
 30
0.0
 10
763.4394741612455
 20
84.98051767801141
 30
0.0
 10
763.3997313447791
 20
84.9548436199346
 30
0.0
 10
763.3529509200405
 20
84.92736476848349
 30
0.0
 10
763.2991490237224
 20
84.89882348954535
 30
0.0
 10
763.2383504367401
 20
84.86989506287365
 30
0.0
 10
763.170575517893
 20
84.84118778815497
 30
0.0
 10
763.0958529805272
 20
84.8132188498678
 30
0.0
 10
763.0141569549959
 20
84.78652181928676
 30
0.0
 10
762.9256496093784
 20
84.76123705223966
 30
0.0
 10
762.8632975486757
 20
84.74663962988035
 30
0.0
 10
762.8313616344077
 20
84.7391630200659
 30
0.0
  0
LINE
  5
1DD
330
1F
100
AcDbEntity
  8
0
  6
Continuous
 62
     7
370
    25
100
AcDbLine
 10
1349.8313616344
 20
59.3427064865
 30
0.0
 11
762.8313616344
 21
59.3427064865
 31
0.0
  0
LINE
  5
1DE
330
1F
100
AcDbEntity
  8
0
  6
Continuous
 62
     7
370
    25
100
AcDbLine
 10
762.8313616344
 20
59.3427064865
 30
0.0
 11
762.8313616344
 21
83.8504499761
 31
0.0
  0
LINE
  5
1DF
330
1F
100
AcDbEntity
  8
0
  6
Continuous
 62
     7
370
    25
100
AcDbLine
 10
1349.8313616344
 20
83.8504499761
 30
0.0
 11
1349.8313616344
 21
59.3427064865
 31
0.0
  0
LINE
  5
1E0
330
1F
100
AcDbEntity
  8
0
  6
Continuous
 62
     7
370
    25
100
AcDbLine
 10
1351.0313616344
 20
83.8504499761
 30
0.0
 11
1350.5313616344
 21
83.8504499761
 31
0.0
  0
ARC
  5
1E1
330
1F
100
AcDbEntity
  8
0
  6
Continuous
 62
     7
370
    25
100
AcDbCircle
 10
1349.8313616344
 20
83.8504499761
 30
0.0
 40
0.700000000000169
100
AcDbArc
 50
0.0
 51
47.7820572005
  0
LINE
  5
1E2
330
1F
100
AcDbEntity
  8
0
  6
Continuous
 62
     7
370
    25
100
AcDbLine
 10
1350.3017284176
 20
84.3688659184
 30
0.0
 11
1350.6377046913
 21
84.7391630201
 31
0.0
  0
ARC
  5
1E3
330
1F
100
AcDbEntity
  8
0
  6
Continuous
 62
     7
370
    25
100
AcDbCircle
 10
1349.8313616344
 20
83.8504499761
 30
0.0
 40
1.200000000000273
100
AcDbArc
 50
360.0
 51
47.7820572005
  0
LINE
  5
1E4
330
1F
100
AcDbEntity
  8
0
  6
Continuous
 62
     7
370
    25
100
AcDbLine
 10
1349.8313616344
 20
85.0504499761
 30
0.0
 11
1349.8313616344
 21
84.5504499761
 31
0.0
  0
SPLINE
  5
1E5
330
1F
100
AcDbEntity
  8
0
  6
Continuous
 62
     7
370
    25
100
AcDbSpline
210
0.0
220
0.0
230
1.0
 70
     8
 71
     3
 72
    10
 73
     6
 74
     0
 42
0.00000001
 43
0.00000001
 40
0.0
 40
0.0
 40
0.0
 40
0.0
 40
0.5
 40
0.5
 40
1.0
 40
1.0
 40
1.0
 40
1.0
 10
1349.831361634406
 20
84.55044997607423
 30
0.0
 10
1349.959376489303
 20
84.55044997607345
 30
0.0
 10
1350.063046647071
 20
84.51656709869448
 30
0.0
 10
1350.217339046286
 20
84.44071381848622
 30
0.0
 10
1350.268659026704
 20
84.3988702869996
 30
0.0
 10
1350.301728417607
 20
84.36886591839966
 30
0.0
  0
SPLINE
  5
1E6
330
1F
100
AcDbEntity
  8
0
  6
Continuous
 62
     7
370
    25
100
AcDbSpline
210
0.0
220
0.0
230
1.0
 70
     8
 71
     3
 72
    21
 73
    17
 74
     0
 42
0.00000001
 43
0.00000001
 40
0.0
 40
0.0
 40
0.0
 40
0.0
 40
0.0752058968635643
 40
0.1473908834188946
 40
0.2170792409864605
 40
0.2848532632915479
 40
0.3513456026763695
 40
0.4172258903031469
 40
0.4831824433971251
 40
0.5499012574922943
 40
0.6180453467730466
 40
0.688237380829794
 40
0.7610475349730537
 40
0.8369870598937463
 40
0.9165068929373796
 40
1.0
 40
1.0
 40
1.0
 40
1.0
 10
1349.831361634409
 20
85.05044997607423
 30
0.0
 10
1349.861844850087
 20
85.04977943839425
 30
0.0
 10
1349.921586815487
 20
85.04846529754707
 30
0.0
 10
1350.008419972745
 20
85.03825667082582
 30
0.0
 10
1350.090109188461
 20
85.02316929278754
 30
0.0
 10
1350.166405635389
 20
85.00356834342286
 30
0.0
 10
1350.237172533143
 20
84.98051767800875
 30
0.0
 10
1350.302363407233
 20
84.95484361993155
 30
0.0
 10
1350.362013928174
 20
84.92736476848016
 30
0.0
 10
1350.416229965321
 20
84.89882348954163
 30
0.0
 10
1350.465178098618
 20
84.86989506286969
 30
0.0
 10
1350.509061316032
 20
84.84118778815069
 30
0.0
 10
1350.54814339762
 20
84.8132188498633
 30
0.0
 10
1350.582579344079
 20
84.78652181928203
 30
0.0
 10
1350.613022193223
 20
84.76123705223466
 30
0.0
 10
1350.629344578134
 20
84.74663962987523
 30
0.0
 10
1350.637704691325
 20
84.7391630200607
 30
0.0
  0
LINE
  5
1E7
330
1F
100
AcDbEntity
  8
0
  6
Continuous
 62
     7
370
    25
100
AcDbLine
 10
762.8313616344
 20
85.0504499761
 30
0.0
 11
762.8313616344
 21
84.5504499761
 31
0.0
  0
LINE
  5
1E8
330
1F
100
AcDbEntity
  8
0
  6
Continuous
 62
     7
370
    25
100
AcDbLine
 10
763.5313616344
 20
85.0504499761
 30
0.0
 11
762.8313616342
 21
85.0504499761
 31
0.0
  0
SPLINE
  5
1E9
330
1F
100
AcDbEntity
  8
0
  6
Continuous
 62
     7
370
    25
100
AcDbSpline
210
0.0
220
0.0
230
1.0
 70
     8
 71
     3
 72
    14
 73
    10
 74
     0
 42
0.00000001
 43
0.00000001
 40
0.0
 40
0.0
 40
0.0
 40
0.0
 40
0.25
 40
0.25
 40
0.5
 40
0.5
 40
0.75
 40
0.75
 40
1.0
 40
1.0
 40
1.0
 40
1.0
 10
762.3609948511294
 20
84.36886591848553
 30
0.0
 10
762.361749528221
 20
84.3695506486546
 30
0.0
 10
762.3701263285886
 20
84.37746612878414
 30
0.0
 10
762.4041318115356
 20
84.40539025303065
 30
0.0
 10
762.429834358079
 20
84.4254485308844
 30
0.0
 10
762.5031994302373
 20
84.47025402526968
 30
0.0
 10
762.5510325086104
 20
84.49504829839138
 30
0.0
 10
762.6725030803683
 20
84.53518012414143
 30
0.0
 10
762.7462369104359
 20
84.55044997607423
 30
0.0
 10
762.8313616342399
 20
84.55044997607423
 30
0.0
  0
LINE
  5
1EA
330
1F
100
AcDbEntity
  8
0
  6
Continuous
 62
     7
370
    25
100
AcDbLine
 10
762.3609948511
 20
84.3688659185
 30
0.0
 11
762.0250185775
 21
84.7391630202
 31
0.0
  0
SPLINE
  5
1EB
330
1F
100
AcDbEntity
  8
0
  6
Continuous
 62
     7
370
    25
100
AcDbSpline
210
0.0
220
0.0
230
1.0
 70
     8
 71
     3
 72
    20
 73
    16
 74
     0
 42
0.00000001
 43
0.00000001
 40
0.0
 40
0.0
 40
0.0
 40
0.0
 40
0.0687360809306409
 40
0.1345271890690981
 40
0.1985842533234941
 40
0.2622171082345
 40
0.3267611781099933
 40
0.3934969003422053
 40
0.4635843335803412
 40
0.5380266011187473
 40
0.6176619868995735
 40
0.7031757180252224
 40
0.7951211989963859
 40
0.893943333423957
 40
1.0
 40
1.0
 40
1.0
 40
1.0
 10
762.0250185774788
 20
84.73916302020787
 30
0.0
 10
762.0261003078112
 20
84.74014732985883
 30
0.0
 10
762.0282174221269
 20
84.74207377676593
 30
0.0
 10
762.0412071608946
 20
84.75367593124413
 30
0.0
 10
762.0618363882279
 20
84.77141319068278
 30
0.0
 10
762.0911710851725
 20
84.79529145519794
 30
0.0
 10
762.1295994550787
 20
84.82434228922092
 30
0.0
 10
762.1777798997011
 20
84.85750892878046
 30
0.0
 10
762.2363634381933
 20
84.8934165318184
 30
0.0
 10
762.3060234216415
 20
84.93043238295213
 30
0.0
 10
762.3873711391038
 20
84.96660174279302
 30
0.0
 10
762.4808643637424
 20
84.99972960007713
 30
0.0
 10
762.5867245470192
 20
85.02695888861831
 30
0.0
 10
762.7047052756279
 20
85.04649728510871
 30
0.0
 10
762.7881605439957
 20
85.0491017566798
 30
0.0
 10
762.8313616342399
 20
85.05044997607423
 30
0.0
  0
ARC
  5
1EC
330
1F
100
AcDbEntity
  8
0
  6
Continuous
 62
     7
370
    25
100
AcDbCircle
 10
762.8313616342
 20
83.8504499761
 30
0.0
 40
0.7000000000000258
100
AcDbArc
 50
132.217942789
 51
180.0
  0
LINE
  5
1ED
330
1F
100
AcDbEntity
  8
0
  6
Continuous
 62
     7
370
    25
100
AcDbLine
 10
761.6313616342
 20
83.8504499761
 30
0.0
 11
762.1313616342
 21
83.8504499761
 31
0.0
  0
ARC
  5
1EE
330
1F
100
AcDbEntity
  8
0
  6
Continuous
 62
     7
370
    25
100
AcDbCircle
 10
762.8313616342
 20
83.8504499761
 30
0.0
 40
1.200000000000023
100
AcDbArc
 50
132.217942789
 51
180.0
  0
LINE
  5
1EF
330
1F
100
AcDbEntity
  8
0
  6
Continuous
 62
     7
370
    25
100
AcDbLine
 10
1349.8313616344
 20
85.0504499761
 30
0.0
 11
1349.1313616344
 21
85.0504499761
 31
0.0
  0
LINE
  5
1F0
330
1F
100
AcDbEntity
  8
0
  6
Continuous
 62
     7
370
    25
100
AcDbLine
 10
1350.5313616344
 20
32.0427064865
 30
0.0
 11
1351.0313616344
 21
32.0427064865
 31
0.0
  0
ARC
  5
1F1
330
1F
100
AcDbEntity
  8
0
  6
Continuous
 62
     7
370
    25
100
AcDbCircle
 10
1349.8313616344
 20
32.0427064865
 30
0.0
 40
1.200000000000273
100
AcDbArc
 50
317.7820572009
 51
0.0
  0
ARC
  5
1F2
330
1F
100
AcDbEntity
  8
0
  6
Continuous
 62
     7
370
    25
100
AcDbCircle
 10
1349.8313616344
 20
32.0427064865
 30
0.0
 40
0.7000000000002728
100
AcDbArc
 50
317.7820572009
 51
0.0
  0
LINE
  5
1F3
330
1F
100
AcDbEntity
  8
0
  6
Continuous
 62
     7
370
    25
100
AcDbLine
 10
1350.3497775767
 20
31.5723397033
 30
0.0
 11
1350.7200746784
 21
31.2363634296
 31
0.0
  0
LINE
  5
1F4
330
1F
100
AcDbEntity
  8
0
  6
Continuous
 62
     7
370
    25
100
AcDbLine
 10
1351.0313616344
 20
32.0427064865
 30
0.0
 11
1351.0313616344
 21
83.8504499761
 31
0.0
  0
LINE
  5
1F5
330
1F
100
AcDbEntity
  8
0
  6
Continuous
 62
     7
370
    25
100
AcDbLine
 10
1350.5313616344
 20
32.0427064865
 30
0.0
 11
1350.5313616344
 21
83.8504499761
 31
0.0
  0
LINE
  5
1F6
330
1F
100
AcDbEntity
  8
0
  6
Continuous
 62
     7
370
    25
100
AcDbLine
 10
761.6313616342
 20
32.0427064867
 30
0.0
 11
762.1313616342
 21
32.0427064867
 31
0.0
  0
ARC
  5
1F7
330
1F
100
AcDbEntity
  8
0
  6
Continuous
 62
     7
370
    25
100
AcDbCircle
 10
762.8313616342
 20
32.0427064867
 30
0.0
 40
0.7000000000000041
100
AcDbArc
 50
180.0
 51
222.2179427991
  0
LINE
  5
1F8
330
1F
100
AcDbEntity
  8
0
  6
Continuous
 62
     7
370
    25
100
AcDbLine
 10
762.3129456919
 20
31.5723397035
 30
0.0
 11
761.9426485902
 21
31.2363634298
 31
0.0
  0
ARC
  5
1F9
330
1F
100
AcDbEntity
  8
0
  6
Continuous
 62
     7
370
    25
100
AcDbCircle
 10
762.8313616342
 20
32.0427064867
 30
0.0
 40
1.20000000000005
100
AcDbArc
 50
180.0
 51
222.2179427991
  0
LINE
  5
1FA
330
1F
100
AcDbEntity
  8
0
  6
Continuous
 62
     7
370
    25
100
AcDbLine
 10
762.1313616342
 20
83.8504499761
 30
0.0
 11
762.1313616342
 21
32.0427064867
 31
0.0
  0
LINE
  5
1FB
330
1F
100
AcDbEntity
  8
0
  6
Continuous
 62
     7
370
    25
100
AcDbLine
 10
761.6313616342
 20
83.8504499761
 30
0.0
 11
761.6313616342
 21
32.0427064867
 31
0.0
  0
LINE
  5
1FC
330
1F
100
AcDbEntity
  8
0
  6
Continuous
 62
     7
370
    25
100
AcDbLine
 10
1349.8313616344
 20
31.3427064865
 30
0.0
 11
1349.8313616344
 21
30.8427064865
 31
0.0
  0
SPLINE
  5
1FD
330
1F
100
AcDbEntity
  8
0
  6
Continuous
 62
     7
370
    25
100
AcDbSpline
210
0.0
220
0.0
230
1.0
 70
     8
 71
     3
 72
    10
 73
     6
 74
     0
 42
0.00000001
 43
0.00000001
 40
0.0
 40
0.0
 40
0.0
 40
0.0
 40
0.5
 40
0.5
 40
1.0
 40
1.0
 40
1.0
 40
1.0
 10
1350.720074678393
 20
31.23636342960574
 30
0.0
 10
1350.607999145673
 20
31.11283909714459
 30
0.0
 10
1350.4698595154
 20
31.0130756586511
 30
0.0
 10
1350.164859979424
 20
30.87797559931739
 30
0.0
 10
1349.998152478708
 20
30.84270648652356
 30
0.0
 10
1349.831361634401
 20
30.84270648652357
 30
0.0
  0
SPLINE
  5
1FE
330
1F
100
AcDbEntity
  8
0
  6
Continuous
 62
     7
370
    25
100
AcDbSpline
210
0.0
220
0.0
230
1.0
 70
     8
 71
     3
 72
    10
 73
     6
 74
     0
 42
0.00000001
 43
0.00000001
 40
0.0
 40
0.0
 40
0.0
 40
0.0
 40
0.5
 40
0.5
 40
1.0
 40
1.0
 40
1.0
 40
1.0
 10
1350.34977757673
 20
31.57233970332151
 30
0.0
 10
1350.284385440056
 20
31.50026759413936
 30
0.0
 10
1350.20381873165
 20
31.44208850359797
 30
0.0
 10
1350.025902335664
 20
31.36328013565329
 30
0.0
 10
1349.928678233504
 20
31.34270648652357
 30
0.0
 10
1349.831361634401
 20
31.34270648652357
 30
0.0
  0
LINE
  5
1FF
330
1F
100
AcDbEntity
  8
0
  6
Continuous
 62
     7
370
    25
100
AcDbLine
 10
762.8313616342
 20
30.8427064867
 30
0.0
 11
762.8313616342
 21
31.3427064867
 31
0.0
  0
SPLINE
  5
200
330
1F
100
AcDbEntity
  8
0
  6
Continuous
 62
     7
370
    25
100
AcDbSpline
210
0.0
220
0.0
230
1.0
 70
     8
 71
     3
 72
    10
 73
     6
 74
     0
 42
0.00000001
 43
0.00000001
 40
0.0
 40
0.0
 40
0.0
 40
0.0
 40
0.5
 40
0.5
 40
1.0
 40
1.0
 40
1.0
 40
1.0
 10
762.83136163424
 20
31.34270648669697
 30
0.0
 10
762.7340450351381
 20
31.34270648669698
 30
0.0
 10
762.6368209329772
 20
31.36328013582671
 30
0.0
 10
762.4589045369912
 20
31.44208850377138
 30
0.0
 10
762.3783378285856
 20
31.50026759431276
 30
0.0
 10
762.3129456919118
 20
31.57233970349491
 30
0.0
  0
SPLINE
  5
201
330
1F
100
AcDbEntity
  8
0
  6
Continuous
 62
     7
370
    25
100
AcDbSpline
210
0.0
220
0.0
230
1.0
 70
     8
 71
     3
 72
    10
 73
     6
 74
     0
 42
0.00000001
 43
0.00000001
 40
0.0
 40
0.0
 40
0.0
 40
0.0
 40
0.5
 40
0.5
 40
1.0
 40
1.0
 40
1.0
 40
1.0
 10
762.83136163424
 20
30.84270648669697
 30
0.0
 10
762.6645707899337
 20
30.84270648669698
 30
0.0
 10
762.4978632892181
 20
30.87797559949081
 30
0.0
 10
762.192863753242
 20
31.01307565882453
 30
0.0
 10
762.0547241229687
 20
31.11283909731798
 30
0.0
 10
761.9426485902487
 20
31.23636342977914
 30
0.0
  0
LINE
  5
202
330
1F
100
AcDbEntity
  8
0
  6
Continuous
 62
     7
370
    25
100
AcDbLine
 10
1349.0585936098
 20
30.8427064865
 30
0.0
 11
1349.8313616344
 21
30.8427064865
 31
0.0
  0
LINE
  5
203
330
1F
100
AcDbEntity
  8
0
  6
Continuous
 62
     7
370
    25
100
AcDbLine
 10
1349.1653362308
 20
31.3427064865
 30
0.0
 11
1349.8313616344
 21
31.3427064865
 31
0.0
  0
LINE
  5
204
330
1F
100
AcDbEntity
  8
0
  6
Continuous
 62
     7
370
    25
100
AcDbLine
 10
762.8313616342
 20
31.3427064867
 30
0.0
 11
763.1308566342
 21
31.3427064867
 31
0.0
  0
LINE
  5
205
330
1F
100
AcDbEntity
  8
0
  6
Continuous
 62
     7
370
    25
100
AcDbLine
 10
762.8313616342
 20
30.8427064867
 30
0.0
 11
764.0041296593
 21
30.8427064867
 31
0.0
  0
LINE
  5
206
330
1F
100
AcDbEntity
  8
0
  6
Continuous
 62
     7
370
    25
100
AcDbLine
 10
772.8313616342
 20
29.8427064865
 30
0.0
 11
772.8313616342
 21
30.3427064865
 31
0.0
  0
LINE
  5
207
330
1F
100
AcDbEntity
  8
0
  6
Continuous
 62
     7
370
    25
100
AcDbLine
 10
763.6236181447
 20
29.8427064865
 30
0.0
 11
763.6236181447
 21
30.3427064865
 31
0.0
  0
LINE
  5
208
330
1F
100
AcDbEntity
  8
0
  6
Continuous
 62
     7
370
    25
100
AcDbLine
 10
763.6236181447
 20
30.3427064865
 30
0.0
 11
764.0313616346
 21
30.3427064865
 31
0.0
  0
LINE
  5
209
330
1F
100
AcDbEntity
  8
0
  6
Continuous
 62
     7
370
    25
100
AcDbLine
 10
763.6236181447
 20
29.8427064865
 30
0.0
 11
772.8313616342
 21
29.8427064865
 31
0.0
  0
LINE
  5
20A
330
1F
100
AcDbEntity
  8
0
  6
Continuous
 62
     7
370
    25
100
AcDbLine
 10
1339.8313616342
 20
29.8427064865
 30
0.0
 11
1339.8313616342
 21
30.3427064865
 31
0.0
  0
LINE
  5
20B
330
1F
100
AcDbEntity
  8
0
  6
Continuous
 62
     7
370
    25
100
AcDbLine
 10
1349.0391051238
 20
30.3427064865
 30
0.0
 11
1349.0391051238
 21
29.8427064865
 31
0.0
  0
LINE
  5
20C
330
1F
100
AcDbEntity
  8
0
  6
Continuous
 62
     7
370
    25
100
AcDbLine
 10
1349.0313616346
 20
30.3427064865
 30
0.0
 11
1349.0391051238
 21
30.3427064865
 31
0.0
  0
LINE
  5
20D
330
1F
100
AcDbEntity
  8
0
  6
Continuous
 62
     7
370
    25
100
AcDbLine
 10
1339.8313616342
 20
29.8427064865
 30
0.0
 11
1349.0391051238
 21
29.8427064865
 31
0.0
  0
LINE
  5
20E
330
1F
100
AcDbEntity
  8
0
  6
Continuous
 62
     7
370
    25
100
AcDbLine
 10
772.8313616342
 20
29.8427064865
 30
0.0
 11
1339.8313616342
 21
29.8427064865
 31
0.0
  0
SPLINE
  5
20F
330
1F
100
AcDbEntity
  8
0
  6
Continuous
 62
     7
370
    25
100
AcDbSpline
210
0.0
220
0.0
230
1.0
 70
     8
 71
     3
 72
    10
 73
     6
 74
     0
 42
0.00000001
 43
0.00000001
 40
0.0
 40
0.0
 40
0.0
 40
0.0
 40
0.5
 40
0.5
 40
1.0
 40
1.0
 40
1.0
 40
1.0
 10
1349.831361634238
 20
30.5723397033088
 30
0.0
 10
1349.699308245414
 20
30.50027803804065
 30
0.0
 10
1349.567276130753
 20
30.44208850358528
 30
0.0
 10
1349.303190627268
 20
30.3632801356406
 30
0.0
 10
1349.171158512607
 20
30.34270648651087
 30
0.0
 10
1349.039105123783
 20
30.34270648651088
 30
0.0
  0
SPLINE
  5
210
330
1F
100
AcDbEntity
  8
0
  6
Continuous
 62
     7
370
    25
100
AcDbSpline
210
0.0
220
0.0
230
1.0
 70
     8
 71
     3
 72
    10
 73
     6
 74
     0
 42
0.00000001
 43
0.00000001
 40
0.0
 40
0.0
 40
0.0
 40
0.0
 40
0.5
 40
0.5
 40
1.0
 40
1.0
 40
1.0
 40
1.0
 10
763.6236181446986
 20
30.34270648651005
 30
0.0
 10
763.4915647558748
 20
30.34270648651005
 30
0.0
 10
763.3595326412136
 20
30.36328013563978
 30
0.0
 10
763.0954471377286
 20
30.44208850358444
 30
0.0
 10
762.9634150230673
 20
30.50027803803981
 30
0.0
 10
762.8313616342435
 20
30.57233970330796
 30
0.0
  0
LINE
  5
211
330
1F
100
AcDbEntity
  8
0
  6
Continuous
 62
     7
370
    25
100
AcDbLine
 10
762.8313616342
 20
30.5723397033
 30
0.0
 11
762.8313616342
 21
30.8427064867
 31
0.0
  0
LINE
  5
212
330
1F
100
AcDbEntity
  8
0
  6
Continuous
 62
     7
370
    25
100
AcDbLine
 10
1349.8313616342
 20
30.8427064865
 30
0.0
 11
1349.8313616342
 21
30.5723397033
 31
0.0
  0
SPLINE
  5
213
330
1F
100
AcDbEntity
  8
0
  6
Continuous
 62
     7
370
    25
100
AcDbSpline
210
0.0
220
0.0
230
1.0
 70
     8
 71
     3
 72
    10
 73
     6
 74
     0
 42
0.00000001
 43
0.00000001
 40
0.0
 40
0.0
 40
0.0
 40
0.0
 40
0.5
 40
0.5
 40
1.0
 40
1.0
 40
1.0
 40
1.0
 10
763.6236181446986
 20
29.84270648651004
 30
0.0
 10
763.4915753929561
 20
29.84270648651004
 30
0.0
 10
763.3595326412135
 20
29.87797559930387
 30
0.0
 10
763.0954471377285
 20
30.0130756586376
 30
0.0
 10
762.9634043859861
 20
30.11283909713104
 30
0.0
 10
762.8313616342435
 20
30.2363634295922
 30
0.0
  0
SPLINE
  5
214
330
1F
100
AcDbEntity
  8
0
  6
Continuous
 62
     7
370
    25
100
AcDbSpline
210
0.0
220
0.0
230
1.0
 70
     8
 71
     3
 72
    10
 73
     6
 74
     0
 42
0.00000001
 43
0.00000001
 40
0.0
 40
0.0
 40
0.0
 40
0.0
 40
0.5
 40
0.5
 40
1.0
 40
1.0
 40
1.0
 40
1.0
 10
1349.831361634238
 20
30.23636342959303
 30
0.0
 10
1349.699318882496
 20
30.11283909713188
 30
0.0
 10
1349.567276130753
 20
30.01307565863839
 30
0.0
 10
1349.303190627268
 20
29.87797559930468
 30
0.0
 10
1349.171147875526
 20
29.84270648651086
 30
0.0
 10
1349.039105123783
 20
29.84270648651088
 30
0.0
  0
SPLINE
  5
215
330
1F
100
AcDbEntity
  8
0
  6
Continuous
 62
     7
370
    25
100
AcDbSpline
210
0.0
220
0.0
230
1.0
 70
     8
 71
     3
 72
    10
 73
     6
 74
     0
 42
0.00000001
 43
0.00000001
 40
0.0
 40
0.0
 40
0.0
 40
0.0
 40
0.3003458530298278
 40
0.650172926514898
 40
1.0
 40
1.0
 40
1.0
 40
1.0
 10
762.5313616345961
 20
32.54710589860814
 30
0.0
 10
762.4627741419714
 20
32.5983532820777
 30
0.0
 10
762.3142995406
 20
32.7092909259656
 30
0.0
 10
762.1636905695893
 20
32.87991883027178
 30
0.0
 10
762.1421379460234
 20
32.99929935110848
 30
0.0
 10
762.1313616342402
 20
33.05898961152683
 30
0.0
  0
LINE
  5
216
330
1F
100
AcDbEntity
  8
0
  6
Continuous
 62
     7
370
    25
100
AcDbLine
 10
762.1313616342
 20
83.8504499761
 30
0.0
 11
762.8313616342
 21
83.8504499761
 31
0.0
  0
SPLINE
  5
217
330
1F
100
AcDbEntity
  8
0
  6
Continuous
 62
     7
370
    25
100
AcDbSpline
210
0.0
220
0.0
230
1.0
 70
     8
 71
     3
 72
     9
 73
     5
 74
     0
 42
0.00000001
 43
0.00000001
 40
0.0
 40
0.0
 40
0.0
 40
0.0
 40
0.3592192743360945
 40
1.0
 40
1.0
 40
1.0
 40
1.0
 10
762.5313616345961
 20
32.45969011180889
 30
0.0
 10
762.4768370264519
 20
32.48038583045985
 30
0.0
 10
762.3250506050662
 20
32.53799888223502
 30
0.0
 10
762.2070037705353
 20
32.59561193401017
 30
0.0
 10
762.1313616342422
 20
32.63252926713437
 30
0.0
  0
LINE
  5
218
330
1F
100
AcDbEntity
  8
0
  6
Continuous
 62
     7
370
    25
100
AcDbLine
 10
762.8313616342
 20
30.5723397033
 30
0.0
 11
762.8313616342
 21
30.2363634296
 31
0.0
  0
LINE
  5
219
330
1F
100
AcDbEntity
  8
0
  6
Continuous
 62
     7
370
    25
100
AcDbLine
 10
1349.8313616342
 20
30.5723397033
 30
0.0
 11
1349.8313616342
 21
30.2363634296
 31
0.0
  0
LINE
  5
21A
330
1F
100
AcDbEntity
  8
0
  6
Continuous
 62
     7
370
    25
100
AcDbLine
 10
1349.8313616344
 20
83.8504499761
 30
0.0
 11
1350.5313616344
 21
83.8504499761
 31
0.0
  0
LINE
  5
21B
330
1F
100
AcDbEntity
  8
0
  6
Continuous
 62
     7
370
    25
100
AcDbLine
 10
1349.8313616342
 20
31.3427064865
 30
0.0
 11
1349.8313616342
 21
31.7701515576
 31
0.0
  0
LINE
  5
21C
330
1F
100
AcDbEntity
  8
0
  6
Continuous
 62
     7
370
    25
100
AcDbLine
 10
762.8313616342
 20
31.8427064865
 30
0.0
 11
762.8313616342
 21
31.3427064867
 31
0.0
  0
LINE
  5
21D
330
1F
100
AcDbEntity
  8
0
  6
Continuous
 62
     7
370
    25
100
AcDbLine
 10
1350.0313616343
 20
69.3427064865
 30
0.0
 11
1350.5313616343
 21
69.3427064865
 31
0.0
  0
LINE
  5
21E
330
1F
100
AcDbEntity
  8
0
  6
Continuous
 62
     7
370
    25
100
AcDbLine
 10
1350.0313616343
 20
69.3427064865
 30
0.0
 11
1350.0313616343
 21
64.8699384618
 31
0.0
  0
ARC
  5
21F
330
1F
100
AcDbEntity
  8
0
  6
Continuous
 62
     7
370
    25
100
AcDbCircle
 10
763.1313616345
 20
35.3427064865
 30
0.0
 40
1.000000000000051
100
AcDbArc
 50
180.0
 51
233.13010236
  0
LINE
  5
220
330
1F
100
AcDbEntity
  8
0
  6
Continuous
 62
     7
370
    25
100
AcDbLine
 10
762.6313616345
 20
69.3427064865
 30
0.0
 11
762.1313616345
 21
69.3427064865
 31
0.0
  0
LINE
  5
221
330
1F
100
AcDbEntity
  8
0
  6
Continuous
 62
     7
370
    25
100
AcDbLine
 10
762.6313616345
 20
64.8427064865
 30
0.0
 11
762.6313616345
 21
69.3427064865
 31
0.0
  0
LINE
  5
222
330
1F
100
AcDbEntity
  8
0
  6
Continuous
 62
     7
370
    25
100
AcDbLine
 10
1349.1653362308
 20
31.3427064865
 30
0.0
 11
763.8973870384
 21
31.3427064865
 31
0.0
  0
SPLINE
  5
223
330
1F
100
AcDbEntity
  8
0
  6
Continuous
 62
     7
370
    25
100
AcDbSpline
210
0.0
220
0.0
230
1.0
 70
     8
 71
     3
 72
     9
 73
     5
 74
     0
 42
0.00000001
 43
0.00000001
 40
0.0
 40
0.0
 40
0.0
 40
0.0
 40
0.5000000000000112
 40
1.0
 40
1.0
 40
1.0
 40
1.0
 10
1349.031361634594
 20
30.72433668345896
 30
0.0
 10
1349.053690733963
 20
30.81839341967328
 30
0.0
 10
1349.098348932702
 20
31.0065068921019
 30
0.0
 10
1349.143007131441
 20
31.2306399550531
 30
0.0
 10
1349.16533623081
 20
31.34270648652871
 30
0.0
  0
LINE
  5
224
330
1F
100
AcDbEntity
  8
0
  6
Continuous
 62
     7
370
    25
100
AcDbLine
 10
1349.0313616346
 20
30.3427064865
 30
0.0
 11
1349.0313616346
 21
30.7243366835
 31
0.0
  0
LINE
  5
225
330
1F
100
AcDbEntity
  8
0
  6
Continuous
 62
     7
370
    25
100
AcDbLine
 10
1349.0313616346
 20
30.3427064865
 30
0.0
 11
764.0313616346
 21
30.3427064865
 31
0.0
  0
LINE
  5
226
330
1F
100
AcDbEntity
  8
0
  6
Continuous
 62
     7
370
    25
100
AcDbLine
 10
764.0313616346
 20
30.7243366835
 30
0.0
 11
764.0313616346
 21
30.3427064865
 31
0.0
  0
SPLINE
  5
227
330
1F
100
AcDbEntity
  8
0
  6
Continuous
 62
     7
370
    25
100
AcDbSpline
210
0.0
220
0.0
230
1.0
 70
     8
 71
     3
 72
     9
 73
     5
 74
     0
 42
0.00000001
 43
0.00000001
 40
0.0
 40
0.0
 40
0.0
 40
0.0
 40
0.5000000000000067
 40
1.0
 40
1.0
 40
1.0
 40
1.0
 10
763.8973870383785
 20
31.34270648652871
 30
0.0
 10
763.9197161377477
 20
31.23063995505311
 30
0.0
 10
763.9643743364862
 20
31.00650689210192
 30
0.0
 10
764.0090325352247
 20
30.81839341967327
 30
0.0
 10
764.031361634594
 20
30.72433668345896
 30
0.0
  0
SPLINE
  5
228
330
1F
100
AcDbEntity
  8
0
  6
Continuous
 62
     7
370
    25
100
AcDbSpline
210
0.0
220
0.0
230
1.0
 70
     8
 71
     3
 72
     9
 73
     5
 74
     0
 42
0.00000001
 43
0.00000001
 40
0.0
 40
0.0
 40
0.0
 40
0.0
 40
0.923263231159647
 40
1.0
 40
1.0
 40
1.0
 40
1.0
 10
1350.149731437664
 20
64.84270648652874
 30
0.0
 10
1350.058215662828
 20
64.86503558589799
 30
0.0
 10
1349.959093579605
 20
64.88922056220342
 30
0.0
 10
1349.840464821953
 20
64.91340553850885
 30
0.0
 10
1349.8313616344
 20
64.91526141544502
 30
0.0
  0
LINE
  5
229
330
1F
100
AcDbEntity
  8
0
  6
Continuous
 62
     7
370
    25
100
AcDbLine
 10
1350.5313616346
 20
64.8427064865
 30
0.0
 11
1350.1497314377
 21
64.8427064865
 31
0.0
  0
LINE
  5
22A
330
1F
100
AcDbEntity
  8
0
  6
Continuous
 62
     7
370
    25
100
AcDbLine
 10
1350.1497314377
 20
31.8427064865
 30
0.0
 11
1350.5021820277
 21
31.8427064865
 31
0.0
  0
SPLINE
  5
22B
330
1F
100
AcDbEntity
  8
0
  6
Continuous
 62
     7
370
    25
100
AcDbSpline
210
0.0
220
0.0
230
1.0
 70
     8
 71
     3
 72
     9
 73
     5
 74
     0
 42
0.00000001
 43
0.00000001
 40
0.0
 40
0.0
 40
0.0
 40
0.0
 40
0.4999999999999967
 40
1.0
 40
1.0
 40
1.0
 40
1.0
 10
1349.531361634594
 20
31.70873189031311
 30
0.0
 10
1349.64342816607
 20
31.73106098968238
 30
0.0
 10
1349.867561229021
 20
31.7757191884209
 30
0.0
 10
1350.05567470145
 20
31.82037738715943
 30
0.0
 10
1350.149731437664
 20
31.84270648652871
 30
0.0
  0
ARC
  5
22C
330
1F
100
AcDbEntity
  8
0
  6
Continuous
 62
     7
370
    25
100
AcDbCircle
 10
763.0313616346
 20
30.8427064865
 30
0.0
 40
0.9999999999999836
100
AcDbArc
 50
30.0
 51
60.0
  0
ARC
  5
22D
330
1F
100
AcDbEntity
  8
0
  6
Continuous
 62
     7
370
    25
100
AcDbCircle
 10
1350.0313616346
 20
30.8427064865
 30
0.0
 40
1.000000000000093
100
AcDbArc
 50
120.0
 51
150.0
  0
LINE
  5
22E
330
1F
100
AcDbEntity
  8
0
  6
Continuous
 62
     7
370
    25
100
AcDbLine
 10
762.5313616346
 20
31.8427064865
 30
0.0
 11
762.9129918315
 21
31.8427064865
 31
0.0
  0
LINE
  5
22F
330
1F
100
AcDbEntity
  8
0
  6
Continuous
 62
     7
370
    25
100
AcDbLine
 10
762.5313616346
 20
31.8427064865
 30
0.0
 11
762.5313616346
 21
64.8427064865
 31
0.0
  0
LINE
  5
230
330
1F
100
AcDbEntity
  8
0
  6
Continuous
 62
     7
370
    25
100
AcDbLine
 10
762.8313616342
 20
64.8427064865
 30
0.0
 11
762.5313616346
 21
64.8427064865
 31
0.0
  0
SPLINE
  5
231
330
1F
100
AcDbEntity
  8
0
  6
Continuous
 62
     7
370
    25
100
AcDbSpline
210
0.0
220
0.0
230
1.0
 70
     8
 71
     3
 72
     9
 73
     5
 74
     0
 42
0.00000001
 43
0.00000001
 40
0.0
 40
0.0
 40
0.0
 40
0.0
 40
0.5000000000000023
 40
1.0
 40
1.0
 40
1.0
 40
1.0
 10
762.9129918315243
 20
31.84270648652871
 30
0.0
 10
763.0070485677387
 20
31.82037738715945
 30
0.0
 10
763.1951620401674
 20
31.77571918842093
 30
0.0
 10
763.4192951031184
 20
31.73106098968239
 30
0.0
 10
763.531361634594
 20
31.70873189031315
 30
0.0
  0
SPLINE
  5
232
330
1F
100
AcDbEntity
  8
0
  6
Continuous
 62
     7
370
    25
100
AcDbSpline
210
0.0
220
0.0
230
1.0
 70
    24
 71
     3
 72
    11
 73
     7
 74
     0
 42
0.00000001
 43
0.00000001
 40
0.0
 40
0.0
 40
0.0
 40
0.0
 40
0.2702613318128818
 40
0.562429389642073
 40
0.78973642185952
 40
1.0
 40
1.0
 40
1.0
 40
1.0
 10
1334.471866604761
 20
88.50108582944058
 30
0.0
 10
1334.471866604761
 20
88.48318258827177
 30
0.0
 10
1334.471866604761
 20
88.44592491276323
 30
0.0
 10
1334.47186660476
 20
88.17477833226864
 30
0.0
 10
1334.471866604761
 20
87.83799756791535
 30
0.0
 10
1334.47186660476
 20
87.60913059363848
 30
0.0
 10
1334.47186660476
 20
87.49915431143278
 30
0.0
  0
SPLINE
  5
233
330
1F
100
AcDbEntity
  8
0
  6
Continuous
 62
     7
370
    25
100
AcDbSpline
210
0.0
220
0.0
230
1.0
 70
     8
 71
     3
 72
     9
 73
     5
 74
     0
 42
0.00000001
 43
0.00000001
 40
0.0
 40
0.0
 40
0.0
 40
0.0
 40
0.5599999999999916
 40
1.0
 40
1.0
 40
1.0
 40
1.0
 10
1334.471866604761
 20
88.50108582944058
 30
0.0
 10
1334.539195832887
 20
88.4976551874656
 30
0.0
 10
1334.659426597399
 20
88.49152904108168
 30
0.0
 10
1334.773549353482
 20
88.45374829537111
 30
0.0
 10
1334.823763366159
 20
88.43712476725848
 30
0.0
  0
SPLINE
  5
234
330
1F
100
AcDbEntity
  8
0
  6
Continuous
 62
     7
370
    25
100
AcDbSpline
210
0.0
220
0.0
230
1.0
 70
     8
 71
     3
 72
    11
 73
     7
 74
     0
 42
0.00000001
 43
0.00000001
 40
0.0
 40
0.0
 40
0.0
 40
0.0
 40
0.2702613318129033
 40
0.5624293896421039
 40
0.7897364218595585
 40
1.0
 40
1.0
 40
1.0
 40
1.0
 10
1334.47186660476
 20
87.49915431143278
 30
0.0
 10
1334.521732350147
 20
87.63183009993129
 30
0.0
 10
1334.625505836919
 20
87.90793605354645
 30
0.0
 10
1334.743539847298
 20
88.22242671006495
 30
0.0
 10
1334.812239689778
 20
88.40581706646618
 30
0.0
 10
1334.820023197035
 20
88.42696341839975
 30
0.0
 10
1334.823763366159
 20
88.43712476725848
 30
0.0
  0
SPLINE
  5
235
330
1F
100
AcDbEntity
  8
0
  6
Continuous
 62
     7
370
    25
100
AcDbSpline
210
0.0
220
0.0
230
1.0
 70
     8
 71
     3
 72
     9
 73
     5
 74
     0
 42
0.00000001
 43
0.00000001
 40
0.0
 40
0.0
 40
0.0
 40
0.0
 40
0.5600000000000593
 40
1.0
 40
1.0
 40
1.0
 40
1.0
 10
1313.190856663979
 20
88.50108582944058
 30
0.0
 10
1313.123527435852
 20
88.4976551874656
 30
0.0
 10
1313.00329667134
 20
88.49152904108168
 30
0.0
 10
1312.889173915257
 20
88.45374829537111
 30
0.0
 10
1312.83895990258
 20
88.43712476725848
 30
0.0
  0
SPLINE
  5
236
330
1F
100
AcDbEntity
  8
0
  6
Continuous
 62
     7
370
    25
100
AcDbSpline
210
0.0
220
0.0
230
1.0
 70
    24
 71
     3
 72
    11
 73
     7
 74
     0
 42
0.00000001
 43
0.00000001
 40
0.0
 40
0.0
 40
0.0
 40
0.0
 40
0.2702613318128984
 40
0.5624293896420889
 40
0.789736421859518
 40
1.0
 40
1.0
 40
1.0
 40
1.0
 10
1313.190856663979
 20
88.50108582944058
 30
0.0
 10
1313.190856663979
 20
88.48318258827177
 30
0.0
 10
1313.190856663979
 20
88.44592491276323
 30
0.0
 10
1313.190856663979
 20
88.17477833226867
 30
0.0
 10
1313.190856663979
 20
87.83799756791534
 30
0.0
 10
1313.190856663979
 20
87.60913059363848
 30
0.0
 10
1313.190856663979
 20
87.49915431143278
 30
0.0
  0
SPLINE
  5
237
330
1F
100
AcDbEntity
  8
0
  6
Continuous
 62
     7
370
    25
100
AcDbSpline
210
0.0
220
0.0
230
1.0
 70
     8
 71
     3
 72
    11
 73
     7
 74
     0
 42
0.00000001
 43
0.00000001
 40
0.0
 40
0.0
 40
0.0
 40
0.0
 40
0.2702613318128915
 40
0.5624293896421033
 40
0.7897364218595582
 40
1.0
 40
1.0
 40
1.0
 40
1.0
 10
1313.190856663979
 20
87.49915431143278
 30
0.0
 10
1313.140990918592
 20
87.63183009993129
 30
0.0
 10
1313.03721743182
 20
87.90793605354646
 30
0.0
 10
1312.919183421441
 20
88.22242671006494
 30
0.0
 10
1312.850483578961
 20
88.40581706646618
 30
0.0
 10
1312.842700071704
 20
88.42696341839975
 30
0.0
 10
1312.83895990258
 20
88.43712476725848
 30
0.0
  0
SPLINE
  5
238
330
1F
100
AcDbEntity
  8
0
  6
Continuous
 62
     7
370
    25
100
AcDbSpline
210
0.0
220
0.0
230
1.0
 70
     8
 71
     3
 72
    11
 73
     7
 74
     0
 42
0.00000001
 43
0.00000001
 40
0.0
 40
0.0
 40
0.0
 40
0.0
 40
0.2702613318128805
 40
0.5624293896420819
 40
0.7897364218595192
 40
1.0
 40
1.0
 40
1.0
 40
1.0
 10
1333.719116197759
 20
88.43712476725848
 30
0.0
 10
1333.725319892156
 20
88.42034911499239
 30
0.0
 10
1333.738230137323
 20
88.38543801690236
 30
0.0
 10
1333.833417713347
 20
88.13159281322305
 30
0.0
 10
1333.951797171492
 20
87.81632880240113
 30
0.0
 10
1334.032319820496
 20
87.6020976950175
 30
0.0
 10
1334.071012959158
 20
87.49915431143278
 30
0.0
  0
SPLINE
  5
239
330
1F
100
AcDbEntity
  8
0
  6
Continuous
 62
     7
370
    25
100
AcDbSpline
210
0.0
220
0.0
230
1.0
 70
     8
 71
     3
 72
     9
 73
     5
 74
     0
 42
0.00000001
 43
0.00000001
 40
0.0
 40
0.0
 40
0.0
 40
0.0
 40
0.5600000000000102
 40
1.0
 40
1.0
 40
1.0
 40
1.0
 10
1333.719116197759
 20
88.43712476725848
 30
0.0
 10
1333.783346202947
 20
88.45760644624153
 30
0.0
 10
1333.898042640782
 20
88.49418087299698
 30
0.0
 10
1334.018160917432
 20
88.49897598163838
 30
0.0
 10
1334.071012959158
 20
88.50108582944058
 30
0.0
  0
SPLINE
  5
23A
330
1F
100
AcDbEntity
  8
0
  6
Continuous
 62
     7
370
    25
100
AcDbSpline
210
0.0
220
0.0
230
1.0
 70
    24
 71
     3
 72
    11
 73
     7
 74
     0
 42
0.00000001
 43
0.00000001
 40
0.0
 40
0.0
 40
0.0
 40
0.0
 40
0.2702613318128861
 40
0.5624293896420726
 40
0.7897364218595276
 40
1.0
 40
1.0
 40
1.0
 40
1.0
 10
1334.071012959158
 20
87.49915431143278
 30
0.0
 10
1334.071012959158
 20
87.64089374129234
 30
0.0
 10
1334.071012959158
 20
87.9358616543467
 30
0.0
 10
1334.071012959158
 20
88.27180627550939
 30
0.0
 10
1334.071012959158
 20
88.46768357518135
 30
0.0
 10
1334.071012959158
 20
88.49024466418072
 30
0.0
 10
1334.071012959158
 20
88.50108582944058
 30
0.0
  0
SPLINE
  5
23B
330
1F
100
AcDbEntity
  8
0
  6
Continuous
 62
     7
370
    25
100
AcDbSpline
210
0.0
220
0.0
230
1.0
 70
     8
 71
     3
 72
     9
 73
     5
 74
     0
 42
0.00000001
 43
0.00000001
 40
0.0
 40
0.0
 40
0.0
 40
0.0
 40
0.5600000000000102
 40
1.0
 40
1.0
 40
1.0
 40
1.0
 10
1313.94360707098
 20
88.43712476725848
 30
0.0
 10
1313.879377065792
 20
88.45760644624153
 30
0.0
 10
1313.764680627956
 20
88.49418087299698
 30
0.0
 10
1313.644562351307
 20
88.49897598163838
 30
0.0
 10
1313.591710309581
 20
88.50108582944058
 30
0.0
  0
SPLINE
  5
23C
330
1F
100
AcDbEntity
  8
0
  6
Continuous
 62
     7
370
    25
100
AcDbSpline
210
0.0
220
0.0
230
1.0
 70
     8
 71
     3
 72
    11
 73
     7
 74
     0
 42
0.00000001
 43
0.00000001
 40
0.0
 40
0.0
 40
0.0
 40
0.0
 40
0.2702613318128775
 40
0.5624293896420898
 40
0.7897364218595245
 40
1.0
 40
1.0
 40
1.0
 40
1.0
 10
1313.94360707098
 20
88.43712476725848
 30
0.0
 10
1313.937403376583
 20
88.42034911499239
 30
0.0
 10
1313.924493131416
 20
88.38543801690234
 30
0.0
 10
1313.829305555392
 20
88.13159281322305
 30
0.0
 10
1313.710926097247
 20
87.81632880240113
 30
0.0
 10
1313.630403448243
 20
87.6020976950175
 30
0.0
 10
1313.591710309581
 20
87.49915431143278
 30
0.0
  0
SPLINE
  5
23D
330
1F
100
AcDbEntity
  8
0
  6
Continuous
 62
     7
370
    25
100
AcDbSpline
210
0.0
220
0.0
230
1.0
 70
    24
 71
     3
 72
    11
 73
     7
 74
     0
 42
0.00000001
 43
0.00000001
 40
0.0
 40
0.0
 40
0.0
 40
0.0
 40
0.2702613318128879
 40
0.5624293896420871
 40
0.7897364218595436
 40
1.0
 40
1.0
 40
1.0
 40
1.0
 10
1313.591710309581
 20
87.49915431143278
 30
0.0
 10
1313.591710309581
 20
87.64089374129236
 30
0.0
 10
1313.591710309581
 20
87.9358616543467
 30
0.0
 10
1313.591710309581
 20
88.27180627550939
 30
0.0
 10
1313.591710309581
 20
88.46768357518135
 30
0.0
 10
1313.591710309581
 20
88.49024466418072
 30
0.0
 10
1313.591710309581
 20
88.50108582944058
 30
0.0
  0
LINE
  5
23E
330
1F
100
AcDbEntity
  8
0
  6
Continuous
 62
     7
370
    25
100
AcDbLine
 10
1334.0710129592
 20
88.5010858294
 30
0.0
 11
1334.4718666048
 21
88.5010858294
 31
0.0
  0
LINE
  5
23F
330
1F
100
AcDbEntity
  8
0
  6
Continuous
 62
     7
370
    25
100
AcDbLine
 10
1334.4718666048
 20
87.4991543114
 30
0.0
 11
1334.0710129592
 21
87.4991543114
 31
0.0
  0
LINE
  5
240
330
1F
100
AcDbEntity
  8
0
  6
Continuous
 62
     7
370
    25
100
AcDbLine
 10
1313.190856664
 20
87.4991543114
 30
0.0
 11
1313.5917103096
 21
87.4991543114
 31
0.0
  0
LINE
  5
241
330
1F
100
AcDbEntity
  8
0
  6
Continuous
 62
     7
370
    25
100
AcDbLine
 10
1313.5917103096
 20
88.5010858294
 30
0.0
 11
1313.190856664
 21
88.5010858294
 31
0.0
  0
SPLINE
  5
242
330
1F
100
AcDbEntity
  8
0
  6
Continuous
 62
     7
370
    25
100
AcDbSpline
210
0.0
220
0.0
230
1.0
 70
     8
 71
     3
 72
    10
 73
     6
 74
     0
 42
0.00000001
 43
0.00000001
 40
0.0
 40
0.0
 40
0.0
 40
0.0
 40
0.2768779234291006
 40
0.5624038656203757
 40
1.0
 40
1.0
 40
1.0
 40
1.0
 10
1334.823763366159
 20
88.43712476725848
 30
0.0
 10
1334.953702437376
 20
88.37560996103147
 30
0.0
 10
1335.217639103193
 20
88.25065899207561
 30
0.0
 10
1335.599017282532
 20
87.87902002636997
 30
0.0
 10
1335.726866292676
 20
87.52183926684906
 30
0.0
 10
1335.804233910725
 20
87.3056919181437
 30
0.0
  0
SPLINE
  5
243
330
1F
100
AcDbEntity
  8
0
  6
Continuous
 62
     7
370
    25
100
AcDbSpline
210
0.0
220
0.0
230
1.0
 70
     8
 71
     3
 72
    11
 73
     7
 74
     0
 42
0.00000001
 43
0.00000001
 40
0.0
 40
0.0
 40
0.0
 40
0.0
 40
0.2796579740371054
 40
0.5592666022933369
 40
0.7796650582493754
 40
1.0
 40
1.0
 40
1.0
 40
1.0
 10
1335.804233910725
 20
87.3056919181437
 30
0.0
 10
1335.785350194131
 20
87.30289311860125
 30
0.0
 10
1335.747586092982
 20
87.29729601336588
 30
0.0
 10
1335.480219101348
 20
87.25913924417043
 30
0.0
 10
1335.152495232025
 20
87.20980303701504
 30
0.0
 10
1334.924826022326
 20
87.16887542456311
 30
0.0
 10
1334.811007822211
 20
87.14841456738162
 30
0.0
  0
SPLINE
  5
244
330
1F
100
AcDbEntity
  8
0
  6
Continuous
 62
     7
370
    25
100
AcDbSpline
210
0.0
220
0.0
230
1.0
 70
     8
 71
     3
 72
     9
 73
     5
 74
     0
 42
0.00000001
 43
0.00000001
 40
0.0
 40
0.0
 40
0.0
 40
0.0
 40
0.5599999999999755
 40
1.0
 40
1.0
 40
1.0
 40
1.0
 10
1334.811007822211
 20
87.14841456738162
 30
0.0
 10
1334.768344651455
 20
87.23495380079265
 30
0.0
 10
1334.692160417961
 20
87.38948814616953
 30
0.0
 10
1334.539178603238
 20
87.46564520538011
 30
0.0
 10
1334.47186660476
 20
87.49915431143278
 30
0.0
  0
SPLINE
  5
245
330
1F
100
AcDbEntity
  8
0
  6
Continuous
 62
     7
370
    25
100
AcDbSpline
210
0.0
220
0.0
230
1.0
 70
     8
 71
     3
 72
    10
 73
     6
 74
     0
 42
0.00000001
 43
0.00000001
 40
0.0
 40
0.0
 40
0.0
 40
0.0
 40
0.2768779234291281
 40
0.5624038656204358
 40
1.0
 40
1.0
 40
1.0
 40
1.0
 10
1334.071012959158
 20
87.49915431143278
 30
0.0
 10
1334.023860753554
 20
87.47683185858081
 30
0.0
 10
1333.928083588023
 20
87.4314897322798
 30
0.0
 10
1333.789689322492
 20
87.29662962625434
 30
0.0
 10
1333.743295556891
 20
87.16701610468024
 30
0.0
 10
1333.715220446002
 20
87.08858069544323
 30
0.0
  0
SPLINE
  5
246
330
1F
100
AcDbEntity
  8
0
  6
Continuous
 62
     7
370
    25
100
AcDbSpline
210
0.0
220
0.0
230
1.0
 70
     8
 71
     3
 72
    11
 73
     7
 74
     0
 42
0.00000001
 43
0.00000001
 40
0.0
 40
0.0
 40
0.0
 40
0.0
 40
0.2702613318129111
 40
0.5624293896420957
 40
0.7897364218595407
 40
1.0
 40
1.0
 40
1.0
 40
1.0
 10
1332.738645653193
 20
87.3056919181437
 30
0.0
 10
1332.755861985466
 20
87.30162451123758
 30
0.0
 10
1332.791690164018
 20
87.29316000331748
 30
0.0
 10
1333.055852263618
 20
87.23430620218164
 30
0.0
 10
1333.384375874781
 20
87.1615420798988
 30
0.0
 10
1333.607840248123
 20
87.11226132550888
 30
0.0
 10
1333.715220446002
 20
87.08858069544323
 30
0.0
  0
SPLINE
  5
247
330
1F
100
AcDbEntity
  8
0
  6
Continuous
 62
     7
370
    25
100
AcDbSpline
210
0.0
220
0.0
230
1.0
 70
     8
 71
     3
 72
    10
 73
     6
 74
     0
 42
0.00000001
 43
0.00000001
 40
0.0
 40
0.0
 40
0.0
 40
0.0
 40
0.2768779234291532
 40
0.5624038656204327
 40
1.0
 40
1.0
 40
1.0
 40
1.0
 10
1332.738645653193
 20
87.3056919181437
 30
0.0
 10
1332.781052802112
 20
87.44305934857816
 30
0.0
 10
1332.867191646939
 20
87.72208475056712
 30
0.0
 10
1333.180806045913
 20
88.15244584223424
 30
0.0
 10
1333.516170780583
 20
88.32979949575444
 30
0.0
 10
1333.71911619776
 20
88.43712476725848
 30
0.0
  0
SPLINE
  5
248
330
1F
100
AcDbEntity
  8
0
  6
Continuous
 62
     7
370
    25
100
AcDbSpline
210
0.0
220
0.0
230
1.0
 70
     8
 71
     3
 72
    10
 73
     6
 74
     0
 42
0.00000001
 43
0.00000001
 40
0.0
 40
0.0
 40
0.0
 40
0.0
 40
0.2768779234291508
 40
0.5624038656204066
 40
1.0
 40
1.0
 40
1.0
 40
1.0
 10
1314.924077615546
 20
87.3056919181437
 30
0.0
 10
1314.881670466627
 20
87.44305934857815
 30
0.0
 10
1314.7955316218
 20
87.7220847505671
 30
0.0
 10
1314.481917222826
 20
88.15244584223427
 30
0.0
 10
1314.146552488156
 20
88.32979949575446
 30
0.0
 10
1313.94360707098
 20
88.43712476725848
 30
0.0
  0
SPLINE
  5
249
330
1F
100
AcDbEntity
  8
0
  6
Continuous
 62
     7
370
    25
100
AcDbSpline
210
0.0
220
0.0
230
1.0
 70
     8
 71
     3
 72
    11
 73
     7
 74
     0
 42
0.00000001
 43
0.00000001
 40
0.0
 40
0.0
 40
0.0
 40
0.0
 40
0.2702613318128976
 40
0.5624293896420863
 40
0.7897364218595435
 40
1.0
 40
1.0
 40
1.0
 40
1.0
 10
1314.924077615546
 20
87.3056919181437
 30
0.0
 10
1314.906861283273
 20
87.30162451123758
 30
0.0
 10
1314.871033104721
 20
87.29316000331748
 30
0.0
 10
1314.606871005121
 20
87.23430620218164
 30
0.0
 10
1314.278347393958
 20
87.1615420798988
 30
0.0
 10
1314.054883020616
 20
87.11226132550888
 30
0.0
 10
1313.947502822738
 20
87.08858069544323
 30
0.0
  0
SPLINE
  5
24A
330
1F
100
AcDbEntity
  8
0
  6
Continuous
 62
     7
370
    25
100
AcDbSpline
210
0.0
220
0.0
230
1.0
 70
     8
 71
     3
 72
    10
 73
     6
 74
     0
 42
0.00000001
 43
0.00000001
 40
0.0
 40
0.0
 40
0.0
 40
0.0
 40
0.276877923429136
 40
0.5624038656203815
 40
1.0
 40
1.0
 40
1.0
 40
1.0
 10
1313.591710309581
 20
87.49915431143278
 30
0.0
 10
1313.638862515185
 20
87.47683185858081
 30
0.0
 10
1313.734639680716
 20
87.43148973227981
 30
0.0
 10
1313.873033946247
 20
87.29662962625432
 30
0.0
 10
1313.919427711848
 20
87.16701610468024
 30
0.0
 10
1313.947502822738
 20
87.08858069544323
 30
0.0
  0
SPLINE
  5
24B
330
1F
100
AcDbEntity
  8
0
  6
Continuous
 62
     7
370
    25
100
AcDbSpline
210
0.0
220
0.0
230
1.0
 70
     8
 71
     3
 72
    11
 73
     7
 74
     0
 42
0.00000001
 43
0.00000001
 40
0.0
 40
0.0
 40
0.0
 40
0.0
 40
0.2796579740370985
 40
0.5592666022933287
 40
0.7796650582494049
 40
1.0
 40
1.0
 40
1.0
 40
1.0
 10
1311.858489358014
 20
87.3056919181437
 30
0.0
 10
1311.877373074608
 20
87.30289311860122
 30
0.0
 10
1311.915137175757
 20
87.29729601336578
 30
0.0
 10
1312.182504167391
 20
87.25913924417043
 30
0.0
 10
1312.510228036714
 20
87.20980303701502
 30
0.0
 10
1312.737897246413
 20
87.1688754245631
 30
0.0
 10
1312.851715446528
 20
87.14841456738162
 30
0.0
  0
SPLINE
  5
24C
330
1F
100
AcDbEntity
  8
0
  6
Continuous
 62
     7
370
    25
100
AcDbSpline
210
0.0
220
0.0
230
1.0
 70
     8
 71
     3
 72
    10
 73
     6
 74
     0
 42
0.00000001
 43
0.00000001
 40
0.0
 40
0.0
 40
0.0
 40
0.0
 40
0.2768779234291048
 40
0.5624038656203841
 40
0.9999999999999999
 40
0.9999999999999999
 40
0.9999999999999999
 40
0.9999999999999999
 10
1312.83895990258
 20
88.43712476725848
 30
0.0
 10
1312.709020831363
 20
88.37560996103147
 30
0.0
 10
1312.445084165546
 20
88.25065899207561
 30
0.0
 10
1312.063705986207
 20
87.87902002636997
 30
0.0
 10
1311.935856976063
 20
87.52183926684906
 30
0.0
 10
1311.858489358014
 20
87.3056919181437
 30
0.0
  0
SPLINE
  5
24D
330
1F
100
AcDbEntity
  8
0
  6
Continuous
 62
     7
370
    25
100
AcDbSpline
210
0.0
220
0.0
230
1.0
 70
     8
 71
     3
 72
     9
 73
     5
 74
     0
 42
0.00000001
 43
0.00000001
 40
0.0
 40
0.0
 40
0.0
 40
0.0
 40
0.5600000000000157
 40
1.0
 40
1.0
 40
1.0
 40
1.0
 10
1312.851715446528
 20
87.14841456738162
 30
0.0
 10
1312.894378617285
 20
87.23495380079268
 30
0.0
 10
1312.970562850778
 20
87.38948814616958
 30
0.0
 10
1313.123544665501
 20
87.46564520538014
 30
0.0
 10
1313.190856663979
 20
87.49915431143278
 30
0.0
  0
LINE
  5
24E
330
1F
100
AcDbEntity
  8
0
  6
Continuous
 62
     7
370
    25
100
AcDbLine
 10
1334.8204478835
 20
86.9684548581
 30
0.0
 11
1334.8110078222
 21
87.1484145674
 31
0.0
  0
LINE
  5
24F
330
1F
100
AcDbEntity
  8
0
  6
Continuous
 62
     7
370
    25
100
AcDbLine
 10
1334.8204478835
 20
86.9684548581
 30
0.0
 11
1334.8191816151
 21
86.9712115876
 31
0.0
  0
SPLINE
  5
250
330
1F
100
AcDbEntity
  8
0
  6
Continuous
 62
     7
370
    25
100
AcDbSpline
210
0.0
220
0.0
230
1.0
 70
     8
 71
     3
 72
    15
 73
    11
 74
     0
 42
0.00000001
 43
0.00000001
 40
0.0
 40
0.0
 40
0.0
 40
0.0
 40
0.1200542337629399
 40
0.2500000000000048
 40
0.3799457662370684
 40
0.4999999999999947
 40
0.6200542337629208
 40
0.7500000000000132
 40
0.87994576623708
 40
1.0
 40
1.0
 40
1.0
 40
1.0
 10
1334.819181615097
 20
86.97121158758695
 30
0.0
 10
1334.812196715638
 20
87.03437469148773
 30
0.0
 10
1334.797651415484
 20
87.16590504639696
 30
0.0
 10
1334.680974135253
 20
87.33680886786932
 30
0.0
 10
1334.511263940769
 20
87.44899393627392
 30
0.0
 10
1334.316348501155
 20
87.48607311214349
 30
0.0
 10
1334.121433061541
 20
87.44899393627392
 30
0.0
 10
1333.951722867057
 20
87.33680886786935
 30
0.0
 10
1333.835045586826
 20
87.16590504639699
 30
0.0
 10
1333.820500286673
 20
87.03437469148773
 30
0.0
 10
1333.813515387214
 20
86.97121158758695
 30
0.0
  0
LINE
  5
251
330
1F
100
AcDbEntity
  8
0
  6
Continuous
 62
     7
370
    25
100
AcDbLine
 10
1333.8135153872
 20
86.9712115876
 30
0.0
 11
1333.8135153872
 21
85.0504499761
 31
0.0
  0
LINE
  5
252
330
1F
100
AcDbEntity
  8
0
  6
Continuous
 62
     7
370
    25
100
AcDbLine
 10
1313.8492078815
 20
86.9712115876
 30
0.0
 11
1313.8492078815
 21
85.0504499761
 31
0.0
  0
SPLINE
  5
253
330
1F
100
AcDbEntity
  8
0
  6
Continuous
 62
     7
370
    25
100
AcDbSpline
210
0.0
220
0.0
230
1.0
 70
     8
 71
     3
 72
    15
 73
    11
 74
     0
 42
0.00000001
 43
0.00000001
 40
0.0
 40
0.0
 40
0.0
 40
0.0
 40
0.1200542337629329
 40
0.2500000000000169
 40
0.3799457662370801
 40
0.500000000000006
 40
0.6200542337629318
 40
0.7499999999999943
 40
0.8799457662370803
 40
0.9999999999999999
 40
0.9999999999999999
 40
0.9999999999999999
 40
0.9999999999999999
 10
1312.843541653642
 20
86.97121158758695
 30
0.0
 10
1312.850526553102
 20
87.03437469148773
 30
0.0
 10
1312.865071853255
 20
87.16590504639699
 30
0.0
 10
1312.981749133486
 20
87.33680886786931
 30
0.0
 10
1313.15145932797
 20
87.44899393627394
 30
0.0
 10
1313.346374767584
 20
87.48607311214349
 30
0.0
 10
1313.541290207198
 20
87.44899393627394
 30
0.0
 10
1313.711000401682
 20
87.33680886786931
 30
0.0
 10
1313.827677681913
 20
87.165905046397
 30
0.0
 10
1313.842222982066
 20
87.03437469148774
 30
0.0
 10
1313.849207881526
 20
86.97121158758695
 30
0.0
  0
LINE
  5
254
330
1F
100
AcDbEntity
  8
0
  6
Continuous
 62
     7
370
    25
100
AcDbLine
 10
1312.8422753853
 20
86.9684548581
 30
0.0
 11
1312.8435416536
 21
86.9712115876
 31
0.0
  0
LINE
  5
255
330
1F
100
AcDbEntity
  8
0
  6
Continuous
 62
     7
370
    25
100
AcDbLine
 10
1312.8422753853
 20
86.9684548581
 30
0.0
 11
1312.8517154465
 21
87.1484145674
 31
0.0
  0
SPLINE
  5
256
330
1F
100
AcDbEntity
  8
0
  6
Continuous
 62
     7
370
    25
100
AcDbSpline
210
0.0
220
0.0
230
1.0
 70
     8
 71
     3
 72
     9
 73
     5
 74
     0
 42
0.00000001
 43
0.00000001
 40
0.0
 40
0.0
 40
0.0
 40
0.0
 40
0.5600000000000122
 40
1.0
 40
1.0
 40
1.0
 40
1.0
 10
1335.90943659112
 20
85.30017063816666
 30
0.0
 10
1335.890748852731
 20
85.29889179613973
 30
0.0
 10
1335.857377891323
 20
85.29660814966304
 30
0.0
 10
1335.675318413562
 20
85.28665780349151
 30
0.0
 10
1335.595212243348
 20
85.28227965117604
 30
0.0
  0
SPLINE
  5
257
330
1F
100
AcDbEntity
  8
0
  6
Continuous
 62
     7
370
    25
100
AcDbSpline
210
0.0
220
0.0
230
1.0
 70
     8
 71
     3
 72
     9
 73
     5
 74
     0
 42
0.00000001
 43
0.00000001
 40
0.0
 40
0.0
 40
0.0
 40
0.0
 40
0.5304166037466856
 40
1.0
 40
1.0
 40
1.0
 40
1.0
 10
1335.595212243348
 20
85.28227965117604
 30
0.0
 10
1335.460482317687
 20
85.57542678523167
 30
0.0
 10
1335.206474572248
 20
86.12810015930202
 30
0.0
 10
1334.943796938747
 20
86.6999320818501
 30
0.0
 10
1334.820447883488
 20
86.96845485812626
 30
0.0
  0
LINE
  5
258
330
1F
100
AcDbEntity
  8
0
  6
Continuous
 62
     7
370
    25
100
AcDbLine
 10
1335.8042339107
 20
87.3056919181
 30
0.0
 11
1335.9094365911
 21
85.3001706382
 31
0.0
  0
SPLINE
  5
259
330
1F
100
AcDbEntity
  8
0
  6
Continuous
 62
     7
370
    25
100
AcDbSpline
210
0.0
220
0.0
230
1.0
 70
     8
 71
     3
 72
     9
 73
     5
 74
     0
 42
0.00000001
 43
0.00000001
 40
0.0
 40
0.0
 40
0.0
 40
0.0
 40
0.5304166037466922
 40
1.0
 40
1.0
 40
1.0
 40
1.0
 10
1312.067511025391
 20
85.28227965117604
 30
0.0
 10
1312.202240951052
 20
85.57542678523167
 30
0.0
 10
1312.456248696491
 20
86.12810015930201
 30
0.0
 10
1312.718926329992
 20
86.6999320818501
 30
0.0
 10
1312.842275385251
 20
86.96845485812626
 30
0.0
  0
SPLINE
  5
25A
330
1F
100
AcDbEntity
  8
0
  6
Continuous
 62
     7
370
    25
100
AcDbSpline
210
0.0
220
0.0
230
1.0
 70
     8
 71
     3
 72
     9
 73
     5
 74
     0
 42
0.00000001
 43
0.00000001
 40
0.0
 40
0.0
 40
0.0
 40
0.0
 40
0.2337716970953669
 40
0.9999999999999999
 40
0.9999999999999999
 40
0.9999999999999999
 40
0.9999999999999999
 10
1311.831361634403
 20
85.29542586012758
 30
0.0
 10
1311.838011920571
 20
85.29500738347592
 30
0.0
 10
1311.866459702102
 20
85.29321727519141
 30
0.0
 10
1311.980290582832
 20
85.28702463067462
 30
0.0
 10
1312.067511025391
 20
85.28227965117604
 30
0.0
  0
LINE
  5
25B
330
1F
100
AcDbEntity
  8
0
  6
Continuous
 62
     7
370
    25
100
AcDbLine
 10
1334.8237633662
 20
88.4378981221
 30
0.0
 11
1334.8237633662
 21
88.4371247673
 31
0.0
  0
LINE
  5
25C
330
1F
100
AcDbEntity
  8
0
  6
Continuous
 62
     7
370
    25
100
AcDbLine
 10
1334.4718666048
 20
88.5018591842
 30
0.0
 11
1334.4718666048
 21
88.5010858294
 31
0.0
  0
SPLINE
  5
25D
330
1F
100
AcDbEntity
  8
0
  6
Continuous
 62
     7
370
    25
100
AcDbSpline
210
0.0
220
0.0
230
1.0
 70
     8
 71
     3
 72
     9
 73
     5
 74
     0
 42
0.00000001
 43
0.00000001
 40
0.0
 40
0.0
 40
0.0
 40
0.0
 40
0.3202950743129311
 40
1.0
 40
1.0
 40
1.0
 40
1.0
 10
1334.701345976785
 20
88.47031707449146
 30
0.0
 10
1334.677475026416
 20
88.47737392497982
 30
0.0
 10
1334.602947029317
 20
88.49940626657448
 30
0.0
 10
1334.524909260568
 20
88.50086659310534
 30
0.0
 10
1334.471866604761
 20
88.50185918424147
 30
0.0
  0
LINE
  5
25E
330
1F
100
AcDbEntity
  8
0
  6
Continuous
 62
     7
370
    25
100
AcDbLine
 10
1334.0710129592
 20
88.5018591842
 30
0.0
 11
1334.0710129592
 21
88.5010858294
 31
0.0
  0
LINE
  5
25F
330
1F
100
AcDbEntity
  8
0
  6
Continuous
 62
     7
370
    25
100
AcDbLine
 10
1333.7191161978
 20
88.4371247673
 30
0.0
 11
1333.7191161978
 21
88.4378981221
 31
0.0
  0
SPLINE
  5
260
330
1F
100
AcDbEntity
  8
0
  6
Continuous
 62
     7
370
    25
100
AcDbSpline
210
0.0
220
0.0
230
1.0
 70
     8
 71
     3
 72
     9
 73
     5
 74
     0
 42
0.00000001
 43
0.00000001
 40
0.0
 40
0.0
 40
0.0
 40
0.0
 40
0.5599999999998871
 40
1.0
 40
1.0
 40
1.0
 40
1.0
 10
1334.071012959158
 20
88.50185918424147
 30
0.0
 10
1334.003683731031
 20
88.49842854226647
 30
0.0
 10
1333.883452966519
 20
88.49230239588258
 30
0.0
 10
1333.769330210436
 20
88.45452165017201
 30
0.0
 10
1333.719116197759
 20
88.43789812205937
 30
0.0
  0
LINE
  5
261
330
1F
100
AcDbEntity
  8
0
  6
Continuous
 62
     7
370
    25
100
AcDbLine
 10
1334.4718666048
 20
88.5018591842
 30
0.0
 11
1334.0710129592
 21
88.5018591842
 31
0.0
  0
LINE
  5
262
330
1F
100
AcDbEntity
  8
0
  6
Continuous
 62
     7
370
    25
100
AcDbLine
 10
1313.190856664
 20
88.5018591842
 30
0.0
 11
1313.190856664
 21
88.5010858294
 31
0.0
  0
LINE
  5
263
330
1F
100
AcDbEntity
  8
0
  6
Continuous
 62
     7
370
    25
100
AcDbLine
 10
1312.8389599026
 20
88.4378981221
 30
0.0
 11
1312.8389599026
 21
88.4371247673
 31
0.0
  0
SPLINE
  5
264
330
1F
100
AcDbEntity
  8
0
  6
Continuous
 62
     7
370
    25
100
AcDbSpline
210
0.0
220
0.0
230
1.0
 70
     8
 71
     3
 72
     9
 73
     5
 74
     0
 42
0.00000001
 43
0.00000001
 40
0.0
 40
0.0
 40
0.0
 40
0.0
 40
0.5600000000000321
 40
1.0
 40
1.0
 40
1.0
 40
1.0
 10
1312.83895990258
 20
88.43789812205937
 30
0.0
 10
1312.903189907768
 20
88.4583798010424
 30
0.0
 10
1313.017886345604
 20
88.49495422779785
 30
0.0
 10
1313.138004622253
 20
88.49974933643925
 30
0.0
 10
1313.190856663979
 20
88.50185918424147
 30
0.0
  0
LINE
  5
265
330
1F
100
AcDbEntity
  8
0
  6
Continuous
 62
     7
370
    25
100
AcDbLine
 10
1313.5917103096
 20
88.5018591842
 30
0.0
 11
1313.5917103096
 21
88.5010858294
 31
0.0
  0
LINE
  5
266
330
1F
100
AcDbEntity
  8
0
  6
Continuous
 62
     7
370
    25
100
AcDbLine
 10
1313.190856664
 20
88.5018591842
 30
0.0
 11
1313.5917103096
 21
88.5018591842
 31
0.0
  0
LINE
  5
267
330
1F
100
AcDbEntity
  8
0
  6
Continuous
 62
     7
370
    25
100
AcDbLine
 10
1313.943607071
 20
88.4371247673
 30
0.0
 11
1313.943607071
 21
88.4378981221
 31
0.0
  0
LINE
  5
268
330
1F
100
AcDbEntity
  8
0
  6
Continuous
 62
     7
370
    25
100
AcDbLine
 10
1313.8401043282
 20
88.467718354
 30
0.0
 11
1313.943607071
 21
88.4378981221
 31
0.0
  0
LINE
  5
269
330
1F
100
AcDbEntity
  8
0
  6
Continuous
 62
     7
370
    25
100
AcDbLine
 10
1335.8042339107
 20
87.3056919181
 30
0.0
 11
1335.8042339107
 21
87.3064652729
 31
0.0
  0
SPLINE
  5
26A
330
1F
100
AcDbEntity
  8
0
  6
Continuous
 62
     7
370
    25
100
AcDbSpline
210
0.0
220
0.0
230
1.0
 70
     8
 71
     3
 72
    10
 73
     6
 74
     0
 42
0.00000001
 43
0.00000001
 40
0.0
 40
0.0
 40
0.0
 40
0.0
 40
0.2768779234291822
 40
0.5624038656204475
 40
1.0
 40
1.0
 40
1.0
 40
1.0
 10
1335.804233910725
 20
87.30646527294456
 30
0.0
 10
1335.761826761806
 20
87.44383270337904
 30
0.0
 10
1335.675687916979
 20
87.722858105368
 30
0.0
 10
1335.362073518005
 20
88.15321919703524
 30
0.0
 10
1335.026708783335
 20
88.33057285055537
 30
0.0
 10
1334.823763366159
 20
88.43789812205937
 30
0.0
  0
LINE
  5
26B
330
1F
100
AcDbEntity
  8
0
  6
Continuous
 62
     7
370
    25
100
AcDbLine
 10
1332.7386456532
 20
87.3056919181
 30
0.0
 11
1332.7386456532
 21
87.3064652729
 31
0.0
  0
SPLINE
  5
26C
330
1F
100
AcDbEntity
  8
0
  6
Continuous
 62
     7
370
    25
100
AcDbSpline
210
0.0
220
0.0
230
1.0
 70
     8
 71
     3
 72
    10
 73
     6
 74
     0
 42
0.00000001
 43
0.00000001
 40
0.0
 40
0.0
 40
0.0
 40
0.0
 40
0.2768779234291392
 40
0.5624038656204158
 40
0.9999999999999999
 40
0.9999999999999999
 40
0.9999999999999999
 40
0.9999999999999999
 10
1333.719116197759
 20
88.43789812205937
 30
0.0
 10
1333.589177126541
 20
88.37638331583233
 30
0.0
 10
1333.325240460725
 20
88.2514323468764
 30
0.0
 10
1332.943862281386
 20
87.87979338117081
 30
0.0
 10
1332.816013271242
 20
87.52261262164993
 30
0.0
 10
1332.738645653193
 20
87.30646527294456
 30
0.0
  0
LINE
  5
26D
330
1F
100
AcDbEntity
  8
0
  6
Continuous
 62
     7
370
    25
100
AcDbLine
 10
1314.9240776155
 20
87.3056919181
 30
0.0
 11
1314.9240776155
 21
87.3064652729
 31
0.0
  0
SPLINE
  5
26E
330
1F
100
AcDbEntity
  8
0
  6
Continuous
 62
     7
370
    25
100
AcDbSpline
210
0.0
220
0.0
230
1.0
 70
     8
 71
     3
 72
    10
 73
     6
 74
     0
 42
0.00000001
 43
0.00000001
 40
0.0
 40
0.0
 40
0.0
 40
0.0
 40
0.2768779234291392
 40
0.5624038656204158
 40
0.9999999999999999
 40
0.9999999999999999
 40
0.9999999999999999
 40
0.9999999999999999
 10
1313.94360707098
 20
88.43789812205937
 30
0.0
 10
1314.073546142198
 20
88.37638331583233
 30
0.0
 10
1314.337482808014
 20
88.2514323468764
 30
0.0
 10
1314.718860987353
 20
87.87979338117081
 30
0.0
 10
1314.846709997497
 20
87.52261262164993
 30
0.0
 10
1314.924077615546
 20
87.30646527294456
 30
0.0
  0
LINE
  5
26F
330
1F
100
AcDbEntity
  8
0
  6
Continuous
 62
     7
370
    25
100
AcDbLine
 10
1311.858489358
 20
87.3056919181
 30
0.0
 11
1311.858489358
 21
87.3064652729
 31
0.0
  0
SPLINE
  5
270
330
1F
100
AcDbEntity
  8
0
  6
Continuous
 62
     7
370
    25
100
AcDbSpline
210
0.0
220
0.0
230
1.0
 70
     8
 71
     3
 72
    10
 73
     6
 74
     0
 42
0.00000001
 43
0.00000001
 40
0.0
 40
0.0
 40
0.0
 40
0.0
 40
0.2768779234291732
 40
0.5624038656204421
 40
1.0
 40
1.0
 40
1.0
 40
1.0
 10
1311.858489358014
 20
87.30646527294456
 30
0.0
 10
1311.900896506933
 20
87.44383270337904
 30
0.0
 10
1311.98703535176
 20
87.72285810536802
 30
0.0
 10
1312.300649750734
 20
88.15321919703524
 30
0.0
 10
1312.636014485404
 20
88.33057285055537
 30
0.0
 10
1312.83895990258
 20
88.43789812205937
 30
0.0
  0
LINE
  5
271
330
1F
100
AcDbEntity
  8
0
  6
Continuous
 62
     7
370
    25
100
AcDbLine
 10
1335.9094365911
 20
85.300943993
 30
0.0
 11
1335.8042339107
 21
87.3064652729
 31
0.0
  0
LINE
  5
272
330
1F
100
AcDbEntity
  8
0
  6
Continuous
 62
     7
370
    25
100
AcDbLine
 10
1335.9094365911
 20
85.3001706382
 30
0.0
 11
1335.9094365911
 21
85.300943993
 31
0.0
  0
LINE
  5
273
330
1F
100
AcDbEntity
  8
0
  6
Continuous
 62
     7
370
    25
100
AcDbLine
 10
1332.7386456532
 20
87.3064652729
 30
0.0
 11
1332.2415548957
 21
85.0504499761
 31
0.0
  0
LINE
  5
274
330
1F
100
AcDbEntity
  8
0
  6
Continuous
 62
     7
370
    25
100
AcDbLine
 10
1314.9240776155
 20
87.3064652729
 30
0.0
 11
1315.421168373
 21
85.0504499761
 31
0.0
  0
LINE
  5
275
330
1F
100
AcDbEntity
  8
0
  6
Continuous
 62
     7
370
    25
100
AcDbLine
 10
1311.7663748949
 20
85.5504499761
 30
0.0
 11
1311.858489358
 21
87.3064652729
 31
0.0
  0
LINE
  5
276
330
1F
100
AcDbEntity
  8
0
  6
Continuous
 62
     7
370
    25
100
AcDbLine
 10
1331.3313616343
 20
85.0504499755
 30
0.0
 11
1331.3313616343
 21
86.5504499755
 31
0.0
  0
LINE
  5
277
330
1F
100
AcDbEntity
  8
0
  6
Continuous
 62
     7
370
    25
100
AcDbLine
 10
1316.3313616343
 20
85.0504499755
 30
0.0
 11
1316.3313616343
 21
86.5504499755
 31
0.0
  0
LINE
  5
278
330
1F
100
AcDbEntity
  8
0
  6
Continuous
 62
     7
370
    25
100
AcDbLine
 10
1316.3313616343
 20
86.5504499755
 30
0.0
 11
1331.3313616343
 21
86.5504499755
 31
0.0
  0
LINE
  5
279
330
1F
100
AcDbEntity
  8
0
  6
Continuous
 62
     8
370
    25
100
AcDbLine
 10
762.5313616346
 20
35.3427064865
 30
0.0
 11
762.1313616345
 21
35.3427064865
 31
0.0
  0
LINE
  5
27A
330
1F
100
AcDbEntity
  8
0
  6
Continuous
 62
     8
370
    25
100
AcDbLine
 10
1349.5313616346
 20
59.3427064865
 30
0.0
 11
1349.5313616346
 21
31.7087318903
 31
0.0
  0
LINE
  5
27B
330
1F
100
AcDbEntity
  8
0
  6
Continuous
 62
     8
370
    25
100
AcDbLine
 10
763.5313616346
 20
31.7087318903
 30
0.0
 11
763.5313616346
 21
59.3427064865
 31
0.0
  0
LINE
  5
27C
330
1F
100
AcDbEntity
  8
0
  6
Continuous
 62
     8
370
    25
100
AcDbLine
 10
1333.715220446
 20
87.0885806954
 30
0.0
 11
1333.2661384099
 21
85.0504499761
 31
0.0
  0
LINE
  5
27D
330
1F
100
AcDbEntity
  8
0
  6
Continuous
 62
     8
370
    25
100
AcDbLine
 10
1313.9475028227
 20
87.0885806954
 30
0.0
 11
1314.3965848589
 21
85.0504499761
 31
0.0
  0
LINE
  5
27E
330
1F
100
AcDbEntity
  8
0
  6
Continuous
 62
     8
370
    25
100
AcDbLine
 10
1332.2417252968
 20
85.0504499761
 30
0.0
 11
1332.7386456532
 21
87.3056919181
 31
0.0
  0
LINE
  5
27F
330
1F
100
AcDbEntity
  8
0
  6
Continuous
 62
     8
370
    25
100
AcDbLine
 10
1315.4209979719
 20
85.0504499761
 30
0.0
 11
1314.9240776155
 21
87.3056919181
 31
0.0
  0
LINE
  5
280
330
1F
100
AcDbEntity
  8
0
  6
Continuous
 62
     8
370
    25
100
AcDbLine
 10
1311.858489358
 20
87.3056919181
 30
0.0
 11
1311.7664154624
 21
85.5504499761
 31
0.0
  0
ENDSEC
  0
SECTION
  2
OBJECTS
  0
DICTIONARY
  5
C
330
0
100
AcDbDictionary
281
     1
  3
ACAD_GROUP
350
D
  3
ACAD_LAYOUT
350
1A
  3
ACAD_MLINESTYLE
350
17
  3
ACAD_PLOTSETTINGS
350
19
  3
ACAD_PLOTSTYLENAME
350
E
  3
ACAD_SCALELIST
350
47
  3
DWGPROPS
350
281
  0
DICTIONARY
  5
D
102
{ACAD_REACTORS
330
C
102
}
330
C
100
AcDbDictionary
281
     1
  0
DICTIONARY
  5
1A
102
{ACAD_REACTORS
330
C
102
}
330
C
100
AcDbDictionary
281
     1
  3
Layout1
350
1E
  3
Layout2
350
26
  3
Model
350
22
  0
DICTIONARY
  5
17
102
{ACAD_REACTORS
330
C
102
}
330
C
100
AcDbDictionary
281
     1
  3
Standard
350
18
  0
DICTIONARY
  5
19
102
{ACAD_REACTORS
330
C
102
}
330
C
100
AcDbDictionary
281
     1
  0
ACDBDICTIONARYWDFLT
  5
E
102
{ACAD_REACTORS
330
C
102
}
330
C
100
AcDbDictionary
281
     1
  3
Normal
350
F
100
AcDbDictionaryWithDefault
340
F
  0
DICTIONARY
  5
47
102
{ACAD_REACTORS
330
C
102
}
330
C
100
AcDbDictionary
281
     1
  3
A0
350
48
  3
A1
350
49
  3
A2
350
4A
  3
A3
350
4B
  3
A4
350
4C
  3
A5
350
4D
  3
A6
350
4E
  3
A7
350
4F
  3
A8
350
50
  3
A9
350
51
  3
B0
350
52
  3
B1
350
53
  3
B2
350
54
  3
B3
350
55
  3
B4
350
56
  3
B5
350
57
  3
B6
350
58
  3
B7
350
59
  3
B8
350
5A
  3
B9
350
5B
  3
C0
350
5C
  3
C1
350
5D
  3
C2
350
5E
  3
C3
350
5F
  3
C4
350
60
  3
C5
350
61
  3
C6
350
62
  3
C7
350
63
  3
C8
350
64
  3
C9
350
65
  3
D0
350
66
  3
D1
350
67
  3
D2
350
68
  0
XRECORD
  5
281
102
{ACAD_REACTORS
330
C
102
}
330
C
100
AcDbXrecord
280
     1
  1
DWGPROPS COOKIE
  2

  3

  4

  6

  7

  8
Vostorgin
  9

300
=
301
=
302
=
303
=
304
=
305
=
306
=
307
=
308
=
309
=
 40
0.0
 41
2459275.450513403
 42
2459275.450513981
  1

 90
        0
  0
LAYOUT
  5
1E
102
{ACAD_REACTORS
330
1A
102
}
330
1A
100
AcDbPlotSettings
  1

  2
none_device
  4

  6

 40
0.0
 41
0.0
 42
0.0
 43
0.0
 44
0.0
 45
0.0
 46
0.0
 47
0.0
 48
0.0
 49
0.0
140
0.0
141
0.0
142
1.0
143
1.0
 70
   688
 72
     1
 73
     0
 74
     5
  7

 75
    16
147
1.0
148
0.0
149
0.0
100
AcDbLayout
  1
Layout1
 70
     1
 71
     1
 10
0.0
 20
0.0
 11
420.0
 21
297.0
 12
0.0
 22
0.0
 32
0.0
 14
1.0000000000E+20
 24
1.0000000000E+20
 34
1.0000000000E+20
 15
-1.0000000000E+20
 25
-1.0000000000E+20
 35
-1.0000000000E+20
146
0.0
 13
0.0
 23
0.0
 33
0.0
 16
1.0
 26
0.0
 36
0.0
 17
0.0
 27
1.0
 37
0.0
 76
     0
330
1B
  0
LAYOUT
  5
26
102
{ACAD_REACTORS
330
1A
102
}
330
1A
100
AcDbPlotSettings
  1

  2
none_device
  4

  6

 40
0.0
 41
0.0
 42
0.0
 43
0.0
 44
0.0
 45
0.0
 46
0.0
 47
0.0
 48
0.0
 49
0.0
140
0.0
141
0.0
142
1.0
143
1.0
 70
   688
 72
     1
 73
     0
 74
     5
  7

 75
    16
147
1.0
148
0.0
149
0.0
100
AcDbLayout
  1
Layout2
 70
     1
 71
     2
 10
0.0
 20
0.0
 11
0.0
 21
0.0
 12
0.0
 22
0.0
 32
0.0
 14
0.0
 24
0.0
 34
0.0
 15
0.0
 25
0.0
 35
0.0
146
0.0
 13
0.0
 23
0.0
 33
0.0
 16
1.0
 26
0.0
 36
0.0
 17
0.0
 27
1.0
 37
0.0
 76
     0
330
23
  0
LAYOUT
  5
22
102
{ACAD_REACTORS
330
1A
102
}
330
1A
100
AcDbPlotSettings
  1

  2
none_device
  4
Letter_(8.50_x_11.00_Inches)
  6

 40
6.35
 41
6.35
 42
6.35000508
 43
6.35000508
 44
215.9
 45
279.4
 46
0.0
 47
0.0
 48
0.0
 49
0.0
140
0.0
141
0.0
142
1.0
143
1.0
 70
  1712
 72
     1
 73
     0
 74
     0
  7

 75
     0
147
1.0
148
0.0
149
0.0
100
AcDbLayout
  1
Model
 70
     1
 71
     0
 10
0.0
 20
0.0
 11
1189.0
 21
841.0
 12
0.0
 22
0.0
 32
0.0
 14
0.0
 24
0.0
 34
0.0
 15
1189.0
 25
841.0
 35
0.0
146
0.0
 13
0.0
 23
0.0
 33
0.0
 16
1.0
 26
0.0
 36
0.0
 17
0.0
 27
1.0
 37
0.0
 76
     0
330
1F
331
29
  0
MLINESTYLE
  5
18
102
{ACAD_REACTORS
330
17
102
}
330
17
100
AcDbMlineStyle
  2
Standard
 70
     0
  3

 62
   256
 51
90.0
 52
90.0
 71
     2
 49
0.5
 62
   256
  6
BYLAYER
 49
-0.5
 62
   256
  6
BYLAYER
  0
ACDBPLACEHOLDER
  5
F
102
{ACAD_REACTORS
330
E
102
}
330
E
  0
SCALE
  5
48
102
{ACAD_REACTORS
330
47
102
}
330
47
100
AcDbScale
 70
     0
300
1:1
140
1.0
141
1.0
290
     1
  0
SCALE
  5
49
102
{ACAD_REACTORS
330
47
102
}
330
47
100
AcDbScale
 70
     0
300
1:2
140
1.0
141
2.0
290
     0
  0
SCALE
  5
4A
102
{ACAD_REACTORS
330
47
102
}
330
47
100
AcDbScale
 70
     0
300
1:4
140
1.0
141
4.0
290
     0
  0
SCALE
  5
4B
102
{ACAD_REACTORS
330
47
102
}
330
47
100
AcDbScale
 70
     0
300
1:5
140
1.0
141
5.0
290
     0
  0
SCALE
  5
4C
102
{ACAD_REACTORS
330
47
102
}
330
47
100
AcDbScale
 70
     0
300
1:8
140
1.0
141
8.0
290
     0
  0
SCALE
  5
4D
102
{ACAD_REACTORS
330
47
102
}
330
47
100
AcDbScale
 70
     0
300
1:10
140
1.0
141
10.0
290
     0
  0
SCALE
  5
4E
102
{ACAD_REACTORS
330
47
102
}
330
47
100
AcDbScale
 70
     0
300
1:16
140
1.0
141
16.0
290
     0
  0
SCALE
  5
4F
102
{ACAD_REACTORS
330
47
102
}
330
47
100
AcDbScale
 70
     0
300
1:20
140
1.0
141
20.0
290
     0
  0
SCALE
  5
50
102
{ACAD_REACTORS
330
47
102
}
330
47
100
AcDbScale
 70
     0
300
1:30
140
1.0
141
30.0
290
     0
  0
SCALE
  5
51
102
{ACAD_REACTORS
330
47
102
}
330
47
100
AcDbScale
 70
     0
300
1:40
140
1.0
141
40.0
290
     0
  0
SCALE
  5
52
102
{ACAD_REACTORS
330
47
102
}
330
47
100
AcDbScale
 70
     0
300
1:50
140
1.0
141
50.0
290
     0
  0
SCALE
  5
53
102
{ACAD_REACTORS
330
47
102
}
330
47
100
AcDbScale
 70
     0
300
1:100
140
1.0
141
100.0
290
     0
  0
SCALE
  5
54
102
{ACAD_REACTORS
330
47
102
}
330
47
100
AcDbScale
 70
     0
300
2:1
140
2.0
141
1.0
290
     0
  0
SCALE
  5
55
102
{ACAD_REACTORS
330
47
102
}
330
47
100
AcDbScale
 70
     0
300
4:1
140
4.0
141
1.0
290
     0
  0
SCALE
  5
56
102
{ACAD_REACTORS
330
47
102
}
330
47
100
AcDbScale
 70
     0
300
8:1
140
8.0
141
1.0
290
     0
  0
SCALE
  5
57
102
{ACAD_REACTORS
330
47
102
}
330
47
100
AcDbScale
 70
     0
300
10:1
140
10.0
141
1.0
290
     0
  0
SCALE
  5
58
102
{ACAD_REACTORS
330
47
102
}
330
47
100
AcDbScale
 70
     0
300
100:1
140
100.0
141
1.0
290
     0
  0
SCALE
  5
59
102
{ACAD_REACTORS
330
47
102
}
330
47
100
AcDbScale
 70
     0
300
1/128" = 1'-0"
140
0.0078125
141
12.0
290
     0
  0
SCALE
  5
5A
102
{ACAD_REACTORS
330
47
102
}
330
47
100
AcDbScale
 70
     0
300
1/64" = 1'-0"
140
0.015625
141
12.0
290
     0
  0
SCALE
  5
5B
102
{ACAD_REACTORS
330
47
102
}
330
47
100
AcDbScale
 70
     0
300
1/32" = 1'-0"
140
0.03125
141
12.0
290
     0
  0
SCALE
  5
5C
102
{ACAD_REACTORS
330
47
102
}
330
47
100
AcDbScale
 70
     0
300
1/16" = 1'-0"
140
0.0625
141
12.0
290
     0
  0
SCALE
  5
5D
102
{ACAD_REACTORS
330
47
102
}
330
47
100
AcDbScale
 70
     0
300
3/32" = 1'-0"
140
0.09375
141
12.0
290
     0
  0
SCALE
  5
5E
102
{ACAD_REACTORS
330
47
102
}
330
47
100
AcDbScale
 70
     0
300
1/8" = 1'-0"
140
0.125
141
12.0
290
     0
  0
SCALE
  5
5F
102
{ACAD_REACTORS
330
47
102
}
330
47
100
AcDbScale
 70
     0
300
3/16" = 1'-0"
140
0.1875
141
12.0
290
     0
  0
SCALE
  5
60
102
{ACAD_REACTORS
330
47
102
}
330
47
100
AcDbScale
 70
     0
300
1/4" = 1'-0"
140
0.25
141
12.0
290
     0
  0
SCALE
  5
61
102
{ACAD_REACTORS
330
47
102
}
330
47
100
AcDbScale
 70
     0
300
3/8" = 1'-0"
140
0.375
141
12.0
290
     0
  0
SCALE
  5
62
102
{ACAD_REACTORS
330
47
102
}
330
47
100
AcDbScale
 70
     0
300
1/2" = 1'-0"
140
0.5
141
12.0
290
     0
  0
SCALE
  5
63
102
{ACAD_REACTORS
330
47
102
}
330
47
100
AcDbScale
 70
     0
300
3/4" = 1'-0"
140
0.75
141
12.0
290
     0
  0
SCALE
  5
64
102
{ACAD_REACTORS
330
47
102
}
330
47
100
AcDbScale
 70
     0
300
1" = 1'-0"
140
1.0
141
12.0
290
     0
  0
SCALE
  5
65
102
{ACAD_REACTORS
330
47
102
}
330
47
100
AcDbScale
 70
     0
300
1-1/2" = 1'-0"
140
1.5
141
12.0
290
     0
  0
SCALE
  5
66
102
{ACAD_REACTORS
330
47
102
}
330
47
100
AcDbScale
 70
     0
300
3" = 1'-0"
140
3.0
141
12.0
290
     0
  0
SCALE
  5
67
102
{ACAD_REACTORS
330
47
102
}
330
47
100
AcDbScale
 70
     0
300
6" = 1'-0"
140
6.0
141
12.0
290
     0
  0
SCALE
  5
68
102
{ACAD_REACTORS
330
47
102
}
330
47
100
AcDbScale
 70
     0
300
1'-0" = 1'-0"
140
12.0
141
12.0
290
     0
  0
ENDSEC
  0
EOF
