  0
SECTION
  2
HEADER
  9
$ACADVER
  1
AC1015
  9
$ACADMAINTVER
 70
     6
  9
$DWGCODEPAGE
  3
ANSI_1251
  9
$INSBASE
 10
0.0
 20
0.0
 30
0.0
  9
$EXTMIN
 10
-294.0
 20
-710.3679474909
 30
0.0
  9
$EXTMAX
 10
977.7417772882
 20
0.0
 30
0.0
  9
$LIMMIN
 10
0.0
 20
0.0
  9
$LIMMAX
 10
420.0
 20
297.0
  9
$ORTHOMODE
 70
     0
  9
$REGENMODE
 70
     1
  9
$FILLMODE
 70
     1
  9
$QTEXTMODE
 70
     0
  9
$MIRRTEXT
 70
     1
  9
$LTSCALE
 40
1.0
  9
$ATTMODE
 70
     1
  9
$TEXTSIZE
 40
4.0
  9
$TRACEWID
 40
1.0
  9
$TEXTSTYLE
  7
Standard
  9
$CLAYER
  8
0
  9
$CELTYPE
  6
ByLayer
  9
$CECOLOR
 62
   256
  9
$CELTSCALE
 40
1.0
  9
$DISPSILH
 70
     0
  9
$DIMSCALE
 40
1.0
  9
$DIMASZ
 40
6.0
  9
$DIMEXO
 40
1.0
  9
$DIMDLI
 40
3.75
  9
$DIMRND
 40
0.0
  9
$DIMDLE
 40
0.0
  9
$DIMEXE
 40
1.0
  9
$DIMTP
 40
0.0
  9
$DIMTM
 40
0.0
  9
$DIMTXT
 40
4.0
  9
$DIMCEN
 40
2.5
  9
$DIMTSZ
 40
0.0
  9
$DIMTOL
 70
     0
  9
$DIMLIM
 70
     0
  9
$DIMTIH
 70
     1
  9
$DIMTOH
 70
     1
  9
$DIMSE1
 70
     0
  9
$DIMSE2
 70
     0
  9
$DIMTAD
 70
     1
  9
$DIMZIN
 70
     0
  9
$DIMBLK
  1

  9
$DIMASO
 70
     1
  9
$DIMSHO
 70
     1
  9
$DIMPOST
  1

  9
$DIMAPOST
  1

  9
$DIMALT
 70
     0
  9
$DIMALTD
 70
     3
  9
$DIMALTF
 40
0.0393700787
  9
$DIMLFAC
 40
1.0
  9
$DIMTOFL
 70
     1
  9
$DIMTVP
 40
0.0
  9
$DIMTIX
 70
     0
  9
$DIMSOXD
 70
     0
  9
$DIMSAH
 70
     0
  9
$DIMBLK1
  1

  9
$DIMBLK2
  1

  9
$DIMSTYLE
  2
ISO-25
  9
$DIMCLRD
 70
     0
  9
$DIMCLRE
 70
     0
  9
$DIMCLRT
 70
     0
  9
$DIMTFAC
 40
1.0
  9
$DIMGAP
 40
3.0
  9
$DIMJUST
 70
     0
  9
$DIMSD1
 70
     0
  9
$DIMSD2
 70
     0
  9
$DIMTOLJ
 70
     0
  9
$DIMTZIN
 70
     0
  9
$DIMALTZ
 70
     0
  9
$DIMALTTZ
 70
     0
  9
$DIMUPT
 70
     0
  9
$DIMDEC
 70
     2
  9
$DIMTDEC
 70
     4
  9
$DIMALTU
 70
     2
  9
$DIMALTTD
 70
     3
  9
$DIMTXSTY
  7
Standard
  9
$DIMAUNIT
 70
     0
  9
$DIMADEC
 70
     2
  9
$DIMALTRND
 40
0.0
  9
$DIMAZIN
 70
     0
  9
$DIMDSEP
 70
    44
  9
$DIMATFIT
 70
     3
  9
$DIMFRAC
 70
     0
  9
$DIMLDRBLK
  1

  9
$DIMLUNIT
 70
     2
  9
$DIMLWD
 70
    -2
  9
$DIMLWE
 70
    -2
  9
$DIMTMOVE
 70
     0
  9
$LUNITS
 70
     2
  9
$LUPREC
 70
     2
  9
$SKETCHINC
 40
1.0
  9
$FILLETRAD
 40
10.0
  9
$AUNITS
 70
     0
  9
$AUPREC
 70
     2
  9
$MENU
  1
.
  9
$ELEVATION
 40
0.0
  9
$PELEVATION
 40
0.0
  9
$THICKNESS
 40
0.0
  9
$LIMCHECK
 70
     0
  9
$CHAMFERA
 40
0.0
  9
$CHAMFERB
 40
0.0
  9
$CHAMFERC
 40
0.0
  9
$CHAMFERD
 40
0.0
  9
$SKPOLY
 70
     0
  9
$TDCREATE
 40
2458879.535613808
  9
$TDUCREATE
 40
2458879.410613808
  9
$TDUPDATE
 40
2458879.535641655
  9
$TDUUPDATE
 40
2458879.410641655
  9
$TDINDWG
 40
0.0000000116
  9
$TDUSRTIMER
 40
0.0000000116
  9
$USRTIMER
 70
     1
  9
$ANGBASE
 50
0.0
  9
$ANGDIR
 70
     0
  9
$PDMODE
 70
     0
  9
$PDSIZE
 40
-1.0
  9
$PLINEWID
 40
0.0
  9
$SPLFRAME
 70
     0
  9
$SPLINETYPE
 70
     6
  9
$SPLINESEGS
 70
     8
  9
$HANDSEED
  5
249
  9
$SURFTAB1
 70
     6
  9
$SURFTAB2
 70
     6
  9
$SURFTYPE
 70
     6
  9
$SURFU
 70
     6
  9
$SURFV
 70
     6
  9
$UCSBASE
  2

  9
$UCSNAME
  2

  9
$UCSORG
 10
0.0
 20
0.0
 30
0.0
  9
$UCSXDIR
 10
1.0
 20
0.0
 30
0.0
  9
$UCSYDIR
 10
0.0
 20
1.0
 30
0.0
  9
$UCSORTHOREF
  2

  9
$UCSORTHOVIEW
 70
     0
  9
$UCSORGTOP
 10
0.0
 20
0.0
 30
0.0
  9
$UCSORGBOTTOM
 10
0.0
 20
0.0
 30
0.0
  9
$UCSORGLEFT
 10
0.0
 20
0.0
 30
0.0
  9
$UCSORGRIGHT
 10
0.0
 20
0.0
 30
0.0
  9
$UCSORGFRONT
 10
0.0
 20
0.0
 30
0.0
  9
$UCSORGBACK
 10
0.0
 20
0.0
 30
0.0
  9
$PUCSBASE
  2

  9
$PUCSNAME
  2

  9
$PUCSORG
 10
0.0
 20
0.0
 30
0.0
  9
$PUCSXDIR
 10
1.0
 20
0.0
 30
0.0
  9
$PUCSYDIR
 10
0.0
 20
1.0
 30
0.0
  9
$PUCSORTHOREF
  2

  9
$PUCSORTHOVIEW
 70
     0
  9
$PUCSORGTOP
 10
0.0
 20
0.0
 30
0.0
  9
$PUCSORGBOTTOM
 10
0.0
 20
0.0
 30
0.0
  9
$PUCSORGLEFT
 10
0.0
 20
0.0
 30
0.0
  9
$PUCSORGRIGHT
 10
0.0
 20
0.0
 30
0.0
  9
$PUCSORGFRONT
 10
0.0
 20
0.0
 30
0.0
  9
$PUCSORGBACK
 10
0.0
 20
0.0
 30
0.0
  9
$USERI1
 70
     0
  9
$USERI2
 70
     0
  9
$USERI3
 70
     0
  9
$USERI4
 70
     0
  9
$USERI5
 70
     0
  9
$USERR1
 40
0.0
  9
$USERR2
 40
0.0
  9
$USERR3
 40
0.0
  9
$USERR4
 40
0.0
  9
$USERR5
 40
0.0
  9
$WORLDVIEW
 70
     1
  9
$SHADEDGE
 70
     3
  9
$SHADEDIF
 70
    70
  9
$TILEMODE
 70
     1
  9
$MAXACTVP
 70
    64
  9
$PINSBASE
 10
0.0
 20
0.0
 30
0.0
  9
$PLIMCHECK
 70
     0
  9
$PEXTMIN
 10
1.0000000000E+20
 20
1.0000000000E+20
 30
1.0000000000E+20
  9
$PEXTMAX
 10
-1.0000000000E+20
 20
-1.0000000000E+20
 30
-1.0000000000E+20
  9
$PLIMMIN
 10
0.0
 20
0.0
  9
$PLIMMAX
 10
420.0
 20
297.0
  9
$UNITMODE
 70
     0
  9
$VISRETAIN
 70
     1
  9
$PLINEGEN
 70
     0
  9
$PSLTSCALE
 70
     1
  9
$TREEDEPTH
 70
  3020
  9
$CMLSTYLE
  2
Standard
  9
$CMLJUST
 70
     0
  9
$CMLSCALE
 40
20.0
  9
$PROXYGRAPHICS
 70
     1
  9
$MEASUREMENT
 70
     1
  9
$CELWEIGHT
370
    -1
  9
$ENDCAPS
280
     0
  9
$JOINSTYLE
280
     0
  9
$LWDISPLAY
290
     1
  9
$INSUNITS
 70
     4
  9
$HYPERLINKBASE
  1

  9
$STYLESHEET
  1

  9
$XEDIT
290
     1
  9
$CEPSNTYPE
380
     0
  9
$PSTYLEMODE
290
     1
  9
$FINGERPRINTGUID
  2
{ce7fe6ec-e632-48a9-9b7b-b242f20b00ca}
  9
$VERSIONGUID
  2
{FAEB1C32-E019-11D5-929B-00C0DF256EC4}
  9
$EXTNAMES
290
     1
  9
$PSVPSCALE
 40
0.0
  9
$OLESTARTUP
290
     0
  0
ENDSEC
  0
SECTION
  2
CLASSES
  0
CLASS
  1
ACDBDICTIONARYWDFLT
  2
AcDbDictionaryWithDefault
  3
ObjectDBX Classes
 90
        0
280
     0
281
     0
  0
CLASS
  1
VISUALSTYLE
  2
AcDbVisualStyle
  3
ObjectDBX Classes
 90
     4095
280
     0
281
     0
  0
CLASS
  1
MATERIAL
  2
AcDbMaterial
  3
ObjectDBX Classes
 90
     1153
280
     0
281
     0
  0
CLASS
  1
SCALE
  2
AcDbScale
  3
ObjectDBX Classes
 90
     1153
280
     0
281
     0
  0
CLASS
  1
TABLESTYLE
  2
AcDbTableStyle
  3
ObjectDBX Classes
 90
     4095
280
     0
281
     0
  0
CLASS
  1
MLEADERSTYLE
  2
AcDbMLeaderStyle
  3
ACDB_MLEADERSTYLE_CLASS
 90
     4095
280
     0
281
     0
  0
CLASS
  1
SUN
  2
AcDbSun
  3
SCENEOE
 90
     1153
280
     0
281
     0
  0
CLASS
  1
ACDBPLACEHOLDER
  2
AcDbPlaceHolder
  3
ObjectDBX Classes
 90
        0
280
     0
281
     0
  0
CLASS
  1
LAYOUT
  2
AcDbLayout
  3
ObjectDBX Classes
 90
        0
280
     0
281
     0
  0
ENDSEC
  0
SECTION
  2
TABLES
  0
TABLE
  2
VPORT
  5
8
330
0
100
AcDbSymbolTable
 70
     1
  0
VPORT
  5
29
330
8
100
AcDbSymbolTableRecord
100
AcDbViewportTableRecord
  2
*Active
 70
     0
 10
0.0
 20
0.0
 11
1.0
 21
1.0
 12
341.8708886441
 22
-355.1839737455
 13
0.0
 23
0.0
 14
10.0
 24
10.0
 15
10.0
 25
10.0
 16
0.0
 26
0.0
 36
1.0
 17
0.0
 27
0.0
 37
0.0
 40
724.5753064408
 41
1.7902578259
 42
50.0
 43
0.0
 44
0.0
 50
0.0
 51
0.0
 71
     0
 72
   100
 73
     1
 74
     3
 75
     0
 76
     0
 77
     0
 78
     0
281
     0
 65
     1
110
0.0
120
0.0
130
0.0
111
1.0
121
0.0
131
0.0
112
0.0
122
1.0
132
0.0
 79
     0
146
0.0
  0
ENDTAB
  0
TABLE
  2
LTYPE
  5
5
330
0
100
AcDbSymbolTable
 70
     6
  0
LTYPE
  5
14
330
5
100
AcDbSymbolTableRecord
100
AcDbLinetypeTableRecord
  2
ByBlock
 70
     0
  3

 72
    65
 73
     0
 40
0.0
  0
LTYPE
  5
15
330
5
100
AcDbSymbolTableRecord
100
AcDbLinetypeTableRecord
  2
ByLayer
 70
     0
  3

 72
    65
 73
     0
 40
0.0
  0
LTYPE
  5
16
330
5
100
AcDbSymbolTableRecord
100
AcDbLinetypeTableRecord
  2
Continuous
 70
     0
  3
Solid line
 72
    65
 73
     0
 40
0.0
  0
LTYPE
  5
6E
330
5
100
AcDbSymbolTableRecord
100
AcDbLinetypeTableRecord
  2
HIDDEN
 70
     0
  3
Hidden __ __ __ __ __ __ __ __ __ __ __ __ __ __
 72
    65
 73
     2
 40
1.905
 49
1.27
 74
     0
 49
-0.635
 74
     0
  0
LTYPE
  5
6F
330
5
100
AcDbSymbolTableRecord
100
AcDbLinetypeTableRecord
  2
PHANTOM
 70
     0
  3
Phantom ______  __  __  ______  __  __  ______
 72
    65
 73
     6
 40
12.7
 49
6.35
 74
     0
 49
-1.27
 74
     0
 49
1.27
 74
     0
 49
-1.27
 74
     0
 49
1.27
 74
     0
 49
-1.27
 74
     0
  0
LTYPE
  5
70
330
5
100
AcDbSymbolTableRecord
100
AcDbLinetypeTableRecord
  2
CENTER
 70
     0
  3
Center ____ _ ____ _ ____ _ ____ _ ____ _ ____
 72
    65
 73
     4
 40
10.16
 49
6.35
 74
     0
 49
-1.27
 74
     0
 49
1.27
 74
     0
 49
-1.27
 74
     0
  0
LTYPE
  5
71
330
5
100
AcDbSymbolTableRecord
100
AcDbLinetypeTableRecord
  2
CENTERX2
 70
     0
  3
Center (2x) ________  __  ________  __  _____
 72
    65
 73
     4
 40
20.32
 49
12.7
 74
     0
 49
-2.54
 74
     0
 49
2.54
 74
     0
 49
-2.54
 74
     0
  0
LTYPE
  5
72
330
5
100
AcDbSymbolTableRecord
100
AcDbLinetypeTableRecord
  2
DOT2
 70
     0
  3
Dot (.5x) ........................................
 72
    65
 73
     2
 40
0.635
 49
0.0
 74
     0
 49
-0.635
 74
     0
  0
ENDTAB
  0
TABLE
  2
LAYER
  5
2
330
0
100
AcDbSymbolTable
 70
     1
  0
LAYER
  5
10
330
2
100
AcDbSymbolTableRecord
100
AcDbLayerTableRecord
  2
0
 70
     0
 62
     7
  6
Continuous
370
    -3
390
F
  0
ENDTAB
  0
TABLE
  2
STYLE
  5
3
330
0
100
AcDbSymbolTable
 70
     1
  0
STYLE
  5
11
330
3
100
AcDbSymbolTableRecord
100
AcDbTextStyleTableRecord
  2
Standard
 70
     0
 40
0.0
 41
1.0
 50
0.0
 71
     0
 42
4.0
  3
txt
  4

  0
ENDTAB
  0
TABLE
  2
VIEW
  5
6
330
0
100
AcDbSymbolTable
 70
     0
  0
ENDTAB
  0
TABLE
  2
UCS
  5
7
330
0
100
AcDbSymbolTable
 70
     0
  0
ENDTAB
  0
TABLE
  2
APPID
  5
9
330
0
100
AcDbSymbolTable
 70
     1
  0
APPID
  5
12
330
9
100
AcDbSymbolTableRecord
100
AcDbRegAppTableRecord
  2
ACAD
 70
     0
  0
ENDTAB
  0
TABLE
  2
DIMSTYLE
  5
A
330
0
100
AcDbSymbolTable
 70
     1
100
AcDbDimStyleTable
  0
DIMSTYLE
105
27
330
A
100
AcDbSymbolTableRecord
100
AcDbDimStyleTableRecord
  2
ISO-25
 70
     0
 41
2.5
 42
0.625
 43
3.75
 44
1.25
 73
     0
 74
     0
 77
     1
 78
     8
140
2.5
141
2.5
143
0.0393700787
147
0.625
171
     3
172
     1
178
     0
271
     2
272
     2
274
     3
278
    44
283
     0
284
     8
340
11
  0
ENDTAB
  0
TABLE
  2
BLOCK_RECORD
  5
1
330
0
100
AcDbSymbolTable
 70
     1
  0
BLOCK_RECORD
  5
1F
330
1
100
AcDbSymbolTableRecord
100
AcDbBlockTableRecord
  2
*Model_Space
340
22
  0
BLOCK_RECORD
  5
1B
330
1
100
AcDbSymbolTableRecord
100
AcDbBlockTableRecord
  2
*Paper_Space
340
1E
  0
BLOCK_RECORD
  5
23
330
1
100
AcDbSymbolTableRecord
100
AcDbBlockTableRecord
  2
*Paper_Space0
340
26
  0
ENDTAB
  0
ENDSEC
  0
SECTION
  2
BLOCKS
  0
BLOCK
  5
20
330
1F
100
AcDbEntity
  8
0
100
AcDbBlockBegin
  2
*Model_Space
 70
     0
 10
0.0
 20
0.0
 30
0.0
  3
*Model_Space
  1

  0
ENDBLK
  5
21
330
1F
100
AcDbEntity
  8
0
100
AcDbBlockEnd
  0
BLOCK
  5
1C
330
1B
100
AcDbEntity
 67
     1
  8
0
100
AcDbBlockBegin
  2
*Paper_Space
 70
     0
 10
0.0
 20
0.0
 30
0.0
  3
*Paper_Space
  1

  0
ENDBLK
  5
1D
330
1B
100
AcDbEntity
 67
     1
  8
0
100
AcDbBlockEnd
  0
BLOCK
  5
24
330
23
100
AcDbEntity
  8
0
100
AcDbBlockBegin
  2
*Paper_Space0
 70
     0
 10
0.0
 20
0.0
 30
0.0
  3
*Paper_Space0
  1

  0
ENDBLK
  5
25
330
23
100
AcDbEntity
  8
0
100
AcDbBlockEnd
  0
ENDSEC
  0
SECTION
  2
ENTITIES
  0
SPLINE
  5
75
330
1F
100
AcDbEntity
  8
0
  6
Continuous
 62
   144
370
    18
100
AcDbSpline
210
0.0
220
0.0
230
1.0
 70
     8
 71
     3
 72
    10
 73
     6
 74
     0
 42
0.000000001
 43
0.00000001
 40
0.0
 40
0.0
 40
0.0
 40
0.0
 40
0.3351938552375488
 40
0.6677411770730587
 40
0.9999999999999999
 40
0.9999999999999999
 40
0.9999999999999999
 40
0.9999999999999999
 10
292.6000000000003
 20
-0.0225035612608226
 30
0.0
 10
292.6006414491218
 20
-0.017935183296458
 30
0.0
 10
292.6019192827835
 20
-0.0088344971366783
 30
0.0
 10
292.6116650058041
 20
-0.0014221951938898
 30
0.0
 10
292.6233430957072
 20
-0.0004739278947619
 30
0.0
 10
292.62917960675
 20
0.0
 30
0.0
  0
SPLINE
  5
76
330
1F
100
AcDbEntity
  8
0
  6
Continuous
 62
   144
370
    18
100
AcDbSpline
210
0.0
220
0.0
230
1.0
 70
     8
 71
     3
 72
    10
 73
     6
 74
     0
 42
0.000000001
 43
0.00000001
 40
0.0
 40
0.0
 40
0.0
 40
0.0
 40
0.3322588229278187
 40
0.6648061447638742
 40
0.9999999999999999
 40
0.9999999999999999
 40
0.9999999999999999
 40
0.9999999999999999
 10
-292.62917960675
 20
0.0
 30
0.0
 10
-292.6233430957071
 20
-0.0004739278947619
 30
0.0
 10
-292.6116650058038
 20
-0.0014221951938898
 30
0.0
 10
-292.6019192827832
 20
-0.0088344971366783
 30
0.0
 10
-292.6006414491213
 20
-0.017935183296458
 30
0.0
 10
-292.5999999999997
 20
-0.0225035612607671
 30
0.0
  0
SPLINE
  5
77
330
1F
100
AcDbEntity
  8
0
  6
Continuous
 62
   144
370
    18
100
AcDbSpline
210
0.0
220
0.0
230
1.0
 70
    24
 71
     3
 72
    14
 73
    10
 74
     0
 42
0.000000001
 43
0.00000001
 40
0.0
 40
0.0
 40
0.0
 40
0.0
 40
0.25
 40
0.25
 40
0.5
 40
0.5
 40
0.75
 40
0.75
 40
1.0
 40
1.0
 40
1.0
 40
1.0
 10
-292.6000000000001
 20
-0.0225035612607671
 30
0.0
 10
-292.6000000000001
 20
-0.0432905467428468
 30
0.0
 10
-292.6000000000001
 20
-0.0798420732455729
 30
0.0
 10
-292.5999999999999
 20
-0.1865104410845309
 30
0.0
 10
-292.5999999999999
 20
-0.2566688557707475
 30
0.0
 10
-292.6
 20
-0.4208339281970286
 30
0.0
 10
-292.6
 20
-0.514550673427927
 30
0.0
 10
-292.6000000000001
 20
-0.7075231254028425
 30
0.0
 10
-292.6000000000001
 20
-0.806458565330681
 30
0.0
 10
-292.6000000000001
 20
-0.9000000000000119
 30
0.0
  0
SPLINE
  5
78
330
1F
100
AcDbEntity
  8
0
  6
Continuous
 62
   144
370
    18
100
AcDbSpline
210
0.0
220
0.0
230
1.0
 70
    24
 71
     3
 72
    14
 73
    10
 74
     0
 42
0.000000001
 43
0.00000001
 40
0.0
 40
0.0
 40
0.0
 40
0.0
 40
0.2499999999999999
 40
0.2499999999999999
 40
0.4999999999999999
 40
0.4999999999999999
 40
0.7499999999999999
 40
0.7499999999999999
 40
1.0
 40
1.0
 40
1.0
 40
1.0
 10
292.6
 20
-0.9000000000000119
 30
0.0
 10
292.6000000000001
 20
-0.806458565330681
 30
0.0
 10
292.6
 20
-0.7075231254028425
 30
0.0
 10
292.6
 20
-0.5145506734279826
 30
0.0
 10
292.6
 20
-0.4208339281970841
 30
0.0
 10
292.5999999999999
 20
-0.256668855770803
 30
0.0
 10
292.6
 20
-0.1865104410845309
 30
0.0
 10
292.6
 20
-0.0798420732455729
 30
0.0
 10
292.6000000000001
 20
-0.0432905467428468
 30
0.0
 10
292.6
 20
-0.0225035612607671
 30
0.0
  0
LWPOLYLINE
  5
80
330
1F
100
AcDbEntity
  8
0
  6
Continuous
 62
   144
370
    18
100
AcDbPolyline
 90
        2
 70
   128
 43
0.0
 10
293.5
 20
-0.95
 10
293.5
 20
-0.95
  0
LWPOLYLINE
  5
81
330
1F
100
AcDbEntity
  8
0
  6
Continuous
 62
   144
370
    18
100
AcDbPolyline
 90
        2
 70
   128
 43
0.0
 10
-293.5
 20
-16.0
 10
-293.5
 20
-16.0
  0
SPLINE
  5
82
330
1F
100
AcDbEntity
  8
0
  6
Continuous
 62
   144
370
    18
100
AcDbSpline
210
0.0
220
0.0
230
1.0
 70
     8
 71
     3
 72
    11
 73
     7
 74
     0
 42
0.000000001
 43
0.00000001
 40
0.0
 40
0.0
 40
0.0
 40
0.0
 40
0.2550715012675728
 40
0.5069041677644814
 40
0.7552032007684462
 40
1.0
 40
1.0
 40
1.0
 40
1.0
 10
-292.6000000000002
 20
-0.4968871125851093
 30
0.0
 10
-292.6003422431024
 20
-0.4894954018385134
 30
0.0
 10
-292.6010223835885
 20
-0.4748058384582698
 30
0.0
 10
-292.6067251312979
 20
-0.4605021031045542
 30
0.0
 10
-292.6155406850849
 20
-0.4515554979508396
 30
0.0
 10
-292.6246548775059
 20
-0.4505160383819207
 30
0.0
 10
-292.62917960675
 20
-0.450000000000006
 30
0.0
  0
SPLINE
  5
83
330
1F
100
AcDbEntity
  8
0
  6
Continuous
 62
   144
370
    18
100
AcDbSpline
210
0.0
220
0.0
230
1.0
 70
     8
 71
     3
 72
    11
 73
     7
 74
     0
 42
0.000000001
 43
0.00000001
 40
0.0
 40
0.0
 40
0.0
 40
0.0
 40
0.2447967992329239
 40
0.4930958322372828
 40
0.7449284987334465
 40
1.0
 40
1.0
 40
1.0
 40
1.0
 10
292.62917960675
 20
-0.450000000000006
 30
0.0
 10
292.6246548775059
 20
-0.4505160383819207
 30
0.0
 10
292.6155406850847
 20
-0.4515554979508396
 30
0.0
 10
292.6067251312978
 20
-0.4605021031046097
 30
0.0
 10
292.6010223835883
 20
-0.4748058384583809
 30
0.0
 10
292.600342243102
 20
-0.4894954018385134
 30
0.0
 10
292.5999999999999
 20
-0.4968871125851093
 30
0.0
  0
LWPOLYLINE
  5
85
330
1F
100
AcDbEntity
  8
0
  6
Continuous
 62
   144
370
    18
100
AcDbPolyline
 90
        2
 70
   128
 43
0.0
 10
-294.0
 20
-0.95
 10
-294.0
 20
-0.95
  0
SPLINE
  5
87
330
1F
100
AcDbEntity
  8
0
  6
Continuous
 62
     7
370
    25
100
AcDbSpline
210
0.0
220
0.0
230
1.0
 70
     8
 71
     3
 72
    14
 73
    10
 74
     0
 42
0.000000001
 43
0.00000001
 40
0.0
 40
0.0
 40
0.0
 40
0.0
 40
0.25
 40
0.25
 40
0.5
 40
0.5
 40
0.75
 40
0.75
 40
1.0
 40
1.0
 40
1.0
 40
1.0
 10
293.1
 20
-44.99999999999999
 30
0.0
 10
293.206066017178
 20
-45.00000000000004
 30
0.0
 10
293.3204979832605
 20
-44.98066913506788
 30
0.0
 10
293.5420724939513
 20
-44.89294980684455
 30
0.0
 10
293.6485281374239
 20
-44.82426406871198
 30
0.0
 10
293.824264068712
 20
-44.64852813742387
 30
0.0
 10
293.8929498068446
 20
-44.5420724939512
 30
0.0
 10
293.980669135068
 20
-44.32049798326021
 30
0.0
 10
294.0000000000001
 20
-44.20606601717797
 30
0.0
 10
294.0
 20
-44.09999999999997
 30
0.0
  0
LWPOLYLINE
  5
89
330
1F
100
AcDbEntity
  8
0
  6
Continuous
 62
   144
370
    18
100
AcDbPolyline
 90
        2
 70
   128
 43
0.0
 10
293.55
 20
-0.95
 10
293.55
 20
-0.95
  0
SPLINE
  5
91
330
1F
100
AcDbEntity
  8
0
  6
Continuous
 62
     7
370
    25
100
AcDbSpline
210
0.0
220
0.0
230
1.0
 70
     8
 71
     3
 72
    14
 73
    10
 74
     0
 42
0.000000001
 43
0.00000001
 40
0.0
 40
0.0
 40
0.0
 40
0.0
 40
0.25
 40
0.25
 40
0.5
 40
0.5
 40
0.75
 40
0.75
 40
1.0
 40
1.0
 40
1.0
 40
1.0
 10
-293.1
 20
-44.99999999999999
 30
0.0
 10
-293.2060660171779
 20
-45.00000000000004
 30
0.0
 10
-293.3204979832605
 20
-44.98066913506788
 30
0.0
 10
-293.5420724939514
 20
-44.89294980684455
 30
0.0
 10
-293.6485281374239
 20
-44.82426406871198
 30
0.0
 10
-293.824264068712
 20
-44.64852813742387
 30
0.0
 10
-293.8929498068447
 20
-44.5420724939512
 30
0.0
 10
-293.980669135068
 20
-44.32049798326021
 30
0.0
 10
-294.0000000000001
 20
-44.20606601717797
 30
0.0
 10
-293.9999999999999
 20
-44.09999999999997
 30
0.0
  0
SPLINE
  5
96
330
1F
100
AcDbEntity
  8
0
  6
Continuous
 62
   144
370
    18
100
AcDbSpline
210
0.0
220
0.0
230
1.0
 70
     8
 71
     3
 72
    14
 73
    10
 74
     0
 42
0.000000001
 43
0.00000001
 40
0.0
 40
0.0
 40
0.0
 40
0.0
 40
0.25
 40
0.25
 40
0.5
 40
0.5
 40
0.75
 40
0.75
 40
1.0
 40
1.0
 40
1.0
 40
1.0
 10
293.55
 20
-44.09999999999997
 30
0.0
 10
293.55
 20
-44.15303300858897
 30
0.0
 10
293.540334567534
 20
-44.21024899163007
 30
0.0
 10
293.4964749034223
 20
-44.32103624697553
 30
0.0
 10
293.4621320343561
 20
-44.37426406871192
 30
0.0
 10
293.374264068712
 20
-44.46213203435595
 30
0.0
 10
293.3210362469757
 20
-44.49647490342229
 30
0.0
 10
293.2102489916302
 20
-44.54033456753398
 30
0.0
 10
293.1530330085891
 20
-44.55000000000003
 30
0.0
 10
293.1
 20
-44.54999999999998
 30
0.0
  0
SPLINE
  5
99
330
1F
100
AcDbEntity
  8
0
  6
Continuous
 62
   144
370
    18
100
AcDbSpline
210
0.0
220
0.0
230
1.0
 70
     8
 71
     3
 72
    14
 73
    10
 74
     0
 42
0.000000001
 43
0.00000001
 40
0.0
 40
0.0
 40
0.0
 40
0.0
 40
0.25
 40
0.25
 40
0.5
 40
0.5
 40
0.75
 40
0.75
 40
1.0
 40
1.0
 40
1.0
 40
1.0
 10
-293.55
 20
-44.09999999999997
 30
0.0
 10
-293.55
 20
-44.15303300858897
 30
0.0
 10
-293.540334567534
 20
-44.21024899163007
 30
0.0
 10
-293.4964749034222
 20
-44.32103624697553
 30
0.0
 10
-293.4621320343561
 20
-44.37426406871192
 30
0.0
 10
-293.3742640687119
 20
-44.46213203435595
 30
0.0
 10
-293.3210362469757
 20
-44.49647490342229
 30
0.0
 10
-293.2102489916302
 20
-44.54033456753398
 30
0.0
 10
-293.1530330085891
 20
-44.55000000000003
 30
0.0
 10
-293.1
 20
-44.54999999999998
 30
0.0
  0
LWPOLYLINE
  5
9C
330
1F
100
AcDbEntity
  8
0
  6
Continuous
 62
   144
370
    18
100
AcDbPolyline
 90
        2
 70
   128
 43
0.0
 10
-293.55
 20
-0.95
 10
-293.55
 20
-0.95
  0
LWPOLYLINE
  5
9E
330
1F
100
AcDbEntity
  8
0
  6
Continuous
 62
   144
370
    18
100
AcDbPolyline
 90
        2
 70
   128
 43
0.0
 10
294.0
 20
-0.95
 10
294.0
 20
-0.95
  0
SPLINE
  5
9F
330
1F
100
AcDbEntity
  8
0
  6
Continuous
 62
   144
370
    18
100
AcDbSpline
210
0.0
220
0.0
230
1.0
 70
    24
 71
     3
 72
    10
 73
     6
 74
     0
 42
0.000000001
 43
0.00000001
 40
0.0
 40
0.0
 40
0.0
 40
0.0
 40
0.5
 40
0.5
 40
1.0
 40
1.0
 40
1.0
 40
1.0
 10
-293.1
 20
0.0
 30
0.0
 10
-292.9936525134625
 20
0.0
 30
0.0
 10
-292.8885190824676
 20
0.0
 30
0.0
 10
-292.7215314238711
 20
0.0
 30
0.0
 10
-292.6608863013012
 20
0.0
 30
0.0
 10
-292.62917960675
 20
0.0
 30
0.0
  0
SPLINE
  5
A0
330
1F
100
AcDbEntity
  8
0
  6
Continuous
 62
   144
370
    18
100
AcDbSpline
210
0.0
220
0.0
230
1.0
 70
    24
 71
     3
 72
    10
 73
     6
 74
     0
 42
0.000000001
 43
0.00000001
 40
0.0
 40
0.0
 40
0.0
 40
0.0
 40
0.5
 40
0.5
 40
1.0
 40
1.0
 40
1.0
 40
1.0
 10
293.1
 20
0.0
 30
0.0
 10
292.9936525134625
 20
0.0
 30
0.0
 10
292.8885190824677
 20
0.0
 30
0.0
 10
292.7215314238711
 20
0.0
 30
0.0
 10
292.6608863013012
 20
0.0
 30
0.0
 10
292.62917960675
 20
0.0
 30
0.0
  0
SPLINE
  5
A1
330
1F
100
AcDbEntity
  8
0
  6
Continuous
 62
   144
370
    18
100
AcDbSpline
210
0.0
220
0.0
230
1.0
 70
    24
 71
     3
 72
    10
 73
     6
 74
     0
 42
0.000000001
 43
0.00000001
 40
0.0
 40
0.0
 40
0.0
 40
0.0
 40
0.5
 40
0.5
 40
1.0
 40
1.0
 40
1.0
 40
1.0
 10
292.62917960675
 20
-0.450000000000006
 30
0.0
 10
292.6608863013012
 20
-0.450000000000006
 30
0.0
 10
292.7215314238711
 20
-0.450000000000006
 30
0.0
 10
292.8885190824676
 20
-0.450000000000006
 30
0.0
 10
292.9936525134625
 20
-0.450000000000006
 30
0.0
 10
293.1
 20
-0.450000000000006
 30
0.0
  0
SPLINE
  5
A2
330
1F
100
AcDbEntity
  8
0
  6
Continuous
 62
   144
370
    18
100
AcDbSpline
210
0.0
220
0.0
230
1.0
 70
    24
 71
     3
 72
    10
 73
     6
 74
     0
 42
0.000000001
 43
0.00000001
 40
0.0
 40
0.0
 40
0.0
 40
0.0
 40
0.5
 40
0.5
 40
1.0
 40
1.0
 40
1.0
 40
1.0
 10
-292.62917960675
 20
-0.450000000000006
 30
0.0
 10
-292.6608863013013
 20
-0.450000000000006
 30
0.0
 10
-292.7215314238711
 20
-0.450000000000006
 30
0.0
 10
-292.8885190824676
 20
-0.450000000000006
 30
0.0
 10
-292.9936525134625
 20
-0.450000000000006
 30
0.0
 10
-293.1
 20
-0.450000000000006
 30
0.0
  0
SPLINE
  5
A3
330
1F
100
AcDbEntity
  8
0
  6
Continuous
 62
   144
370
    18
100
AcDbSpline
210
0.0
220
0.0
230
1.0
 70
     8
 71
     3
 72
    10
 73
     6
 74
     0
 42
0.000000001
 43
0.00000001
 40
0.0
 40
0.0
 40
0.0
 40
0.0
 40
0.3351938552479356
 40
0.6677411770830677
 40
1.0
 40
1.0
 40
1.0
 40
1.0
 10
-293.3
 20
-0.0225035612607671
 30
0.0
 10
-293.2776165597645
 20
-0.017935183296347
 30
0.0
 10
-293.2330264084354
 20
-0.0088344971364562
 30
0.0
 10
-293.1656690342309
 20
-0.0014221951938342
 30
0.0
 10
-293.1218833443389
 20
-0.0004739278947619
 30
0.0
 10
-293.1
 20
0.0
 30
0.0
  0
SPLINE
  5
A4
330
1F
100
AcDbEntity
  8
0
  6
Continuous
 62
   144
370
    18
100
AcDbSpline
210
0.0
220
0.0
230
1.0
 70
     8
 71
     3
 72
    14
 73
    10
 74
     0
 42
0.000000001
 43
0.00000001
 40
0.0
 40
0.0
 40
0.0
 40
0.0
 40
0.25
 40
0.25
 40
0.5
 40
0.5
 40
0.75
 40
0.75
 40
1.0
 40
1.0
 40
1.0
 40
1.0
 10
-293.9999999999999
 20
-0.9000000000000119
 30
0.0
 10
-293.9999999999999
 20
-0.8064585653316803
 30
0.0
 10
-293.9850605822568
 20
-0.7075231254051184
 30
0.0
 10
-293.9196391877937
 20
-0.5145506734326455
 30
0.0
 10
-293.8690415759858
 20
-0.4208339282028573
 30
0.0
 10
-293.7380831519715
 20
-0.2566688557777974
 30
0.0
 10
-293.657953609942
 20
-0.1865104410916363
 30
0.0
 10
-293.4843443205127
 20
-0.0798420732516791
 30
0.0
 10
-293.3912025286779
 20
-0.0432905467479539
 30
0.0
 10
-293.300000000016
 20
-0.0225035612644309
 30
0.0
  0
SPLINE
  5
A5
330
1F
100
AcDbEntity
  8
0
  6
Continuous
 62
   144
370
    18
100
AcDbSpline
210
0.0
220
0.0
230
1.0
 70
     8
 71
     3
 72
    10
 73
     6
 74
     0
 42
0.000000001
 43
0.00000001
 40
0.0
 40
0.0
 40
0.0
 40
0.0
 40
0.3322588229173434
 40
0.6648061447526459
 40
0.9999999999999999
 40
0.9999999999999999
 40
0.9999999999999999
 40
0.9999999999999999
 10
293.1
 20
0.0
 30
0.0
 10
293.1218833443389
 20
-0.0004739278947619
 30
0.0
 10
293.1656690342311
 20
-0.0014221951938342
 30
0.0
 10
293.2330264084354
 20
-0.0088344971364562
 30
0.0
 10
293.2776165597645
 20
-0.017935183296347
 30
0.0
 10
293.3000000000001
 20
-0.0225035612607671
 30
0.0
  0
SPLINE
  5
A6
330
1F
100
AcDbEntity
  8
0
  6
Continuous
 62
   144
370
    18
100
AcDbSpline
210
0.0
220
0.0
230
1.0
 70
     8
 71
     3
 72
    14
 73
    10
 74
     0
 42
0.000000001
 43
0.00000001
 40
0.0
 40
0.0
 40
0.0
 40
0.0
 40
0.2500000000000001
 40
0.2500000000000001
 40
0.5000000000000001
 40
0.5000000000000001
 40
0.75
 40
0.75
 40
1.0
 40
1.0
 40
1.0
 40
1.0
 10
293.300000000016
 20
-0.0225035612644309
 30
0.0
 10
293.3912025286778
 20
-0.0432905467479539
 30
0.0
 10
293.4843443205127
 20
-0.0798420732516791
 30
0.0
 10
293.6579536099417
 20
-0.1865104410916363
 30
0.0
 10
293.7380831519714
 20
-0.2566688557777974
 30
0.0
 10
293.8690415759855
 20
-0.4208339282028573
 30
0.0
 10
293.9196391877937
 20
-0.514550673432701
 30
0.0
 10
293.9850605822567
 20
-0.7075231254051739
 30
0.0
 10
293.9999999999999
 20
-0.8064585653317358
 30
0.0
 10
294.0
 20
-0.9000000000000119
 30
0.0
  0
SPLINE
  5
A7
330
1F
100
AcDbEntity
  8
0
  6
Continuous
 62
   144
370
    18
100
AcDbSpline
210
0.0
220
0.0
230
1.0
 70
     8
 71
     3
 72
    10
 73
     6
 74
     0
 42
0.000000001
 43
0.00000001
 40
0.0
 40
0.0
 40
0.0
 40
0.0
 40
0.5
 40
0.5
 40
1.0
 40
1.0
 40
1.0
 40
1.0
 10
-293.3
 20
-0.4968871125850538
 30
0.0
 10
-293.3708197154666
 20
-0.5320235310313781
 30
0.0
 10
-293.4373774391991
 20
-0.5901898064113453
 30
0.0
 10
-293.5274754878398
 20
-0.7354685445633558
 30
0.0
 10
-293.55
 20
-0.8209430584957822
 30
0.0
 10
-293.55
 20
-0.9000000000000119
 30
0.0
  0
SPLINE
  5
A8
330
1F
100
AcDbEntity
  8
0
  6
Continuous
 62
   144
370
    18
100
AcDbSpline
210
0.0
220
0.0
230
1.0
 70
     8
 71
     3
 72
    11
 73
     7
 74
     0
 42
0.000000001
 43
0.00000001
 40
0.0
 40
0.0
 40
0.0
 40
0.0
 40
0.2447967992310925
 40
0.4930958322344164
 40
0.7449284987315004
 40
1.0
 40
1.0
 40
1.0
 40
1.0
 10
-293.1
 20
-0.450000000000006
 30
0.0
 10
-293.1165372912027
 20
-0.4505160383819207
 30
0.0
 10
-293.1498484676317
 20
-0.4515554979508396
 30
0.0
 10
-293.2006313011827
 20
-0.4605021031045542
 30
0.0
 10
-293.2513920058434
 20
-0.4748058384582698
 30
0.0
 10
-293.2837284646387
 20
-0.4894954018385134
 30
0.0
 10
-293.3
 20
-0.4968871125851648
 30
0.0
  0
SPLINE
  5
A9
330
1F
100
AcDbEntity
  8
0
  6
Continuous
 62
   144
370
    18
100
AcDbSpline
210
0.0
220
0.0
230
1.0
 70
     8
 71
     3
 72
    10
 73
     6
 74
     0
 42
0.000000001
 43
0.00000001
 40
0.0
 40
0.0
 40
0.0
 40
0.0
 40
0.5
 40
0.5
 40
1.0
 40
1.0
 40
1.0
 40
1.0
 10
293.3
 20
-0.4968871125850538
 30
0.0
 10
293.3708197154666
 20
-0.5320235310313781
 30
0.0
 10
293.437377439199
 20
-0.5901898064113453
 30
0.0
 10
293.5274754878398
 20
-0.7354685445633558
 30
0.0
 10
293.55
 20
-0.8209430584957822
 30
0.0
 10
293.55
 20
-0.9000000000000119
 30
0.0
  0
SPLINE
  5
AA
330
1F
100
AcDbEntity
  8
0
  6
Continuous
 62
   144
370
    18
100
AcDbSpline
210
0.0
220
0.0
230
1.0
 70
     8
 71
     3
 72
    11
 73
     7
 74
     0
 42
0.000000001
 43
0.00000001
 40
0.0
 40
0.0
 40
0.0
 40
0.0
 40
0.2550715012682289
 40
0.5069041677650284
 40
0.755203200768452
 40
1.0
 40
1.0
 40
1.0
 40
1.0
 10
293.2999999999998
 20
-0.4968871125851093
 30
0.0
 10
293.2837284646384
 20
-0.4894954018384579
 30
0.0
 10
293.2513920058431
 20
-0.4748058384582698
 30
0.0
 10
293.2006313011827
 20
-0.4605021031045542
 30
0.0
 10
293.1498484676317
 20
-0.4515554979508396
 30
0.0
 10
293.1165372912027
 20
-0.4505160383819207
 30
0.0
 10
293.1000000000001
 20
-0.450000000000006
 30
0.0
  0
SPLINE
  5
AB
330
1F
100
AcDbEntity
  8
0
  6
Continuous
 62
   144
370
    18
100
AcDbSpline
210
0.0
220
0.0
230
1.0
 70
    24
 71
     3
 72
    14
 73
    10
 74
     0
 42
0.000000001
 43
0.00000001
 40
0.0
 40
0.0
 40
0.0
 40
0.0
 40
0.25
 40
0.25
 40
0.5
 40
0.5
 40
0.75
 40
0.75
 40
1.0
 40
1.0
 40
1.0
 40
1.0
 10
-292.908578643763
 20
-44.54999999999998
 30
0.0
 10
-292.908578643763
 20
-44.54999999999998
 30
0.0
 10
-292.908578643763
 20
-44.53066913506787
 30
0.0
 10
-292.908578643763
 20
-44.44294980684449
 30
0.0
 10
-292.908578643763
 20
-44.37426406871192
 30
0.0
 10
-292.908578643763
 20
-44.19852813742386
 30
0.0
 10
-292.908578643763
 20
-44.09207249395114
 30
0.0
 10
-292.908578643763
 20
-43.8704979832602
 30
0.0
 10
-292.908578643763
 20
-43.75606601717796
 30
0.0
 10
-292.908578643763
 20
-43.65000000000002
 30
0.0
  0
SPLINE
  5
AC
330
1F
100
AcDbEntity
  8
0
  6
Continuous
 62
   144
370
    18
100
AcDbSpline
210
0.0
220
0.0
230
1.0
 70
    24
 71
     3
 72
    10
 73
     6
 74
     0
 42
0.000000001
 43
0.00000001
 40
0.0
 40
0.0
 40
0.0
 40
0.0
 40
0.44801000563371
 40
0.9323346123246407
 40
1.0
 40
1.0
 40
1.0
 40
1.0
 10
292.908578643763
 20
-44.54999999999998
 30
0.0
 10
292.908578643763
 20
-44.53300278313299
 30
0.0
 10
292.9085786437629
 20
-44.49763059635359
 30
0.0
 10
292.9085786437631
 20
-44.32490429757274
 30
0.0
 10
292.908578643763
 20
-44.1869739361283
 30
0.0
 10
292.908578643763
 20
-44.17006581917943
 30
0.0
  0
SPLINE
  5
AD
330
1F
100
AcDbEntity
  8
0
  6
Continuous
 62
   144
370
    18
100
AcDbSpline
210
0.0
220
0.0
230
1.0
 70
    24
 71
     3
 72
    11
 73
     7
 74
     0
 42
0.000000001
 43
0.00000001
 40
0.0
 40
0.0
 40
0.0
 40
0.0
 40
0.1636148612705139
 40
0.4984813446197698
 40
0.7590077932835031
 40
0.9999999999999999
 40
0.9999999999999999
 40
0.9999999999999999
 40
0.9999999999999999
 10
-292.77502
 20
-42.28346973415703
 30
0.0
 10
-292.841769941509
 20
-42.28346973415703
 30
0.0
 10
-293.0451353347153
 20
-42.28346973415703
 30
0.0
 10
-293.2939270561013
 20
-42.28346973415697
 30
0.0
 10
-293.4707100044308
 20
-42.28346973415703
 30
0.0
 10
-293.4904935253783
 20
-42.28346973415703
 30
0.0
 10
-293.5
 20
-42.28346973415697
 30
0.0
  0
SPLINE
  5
B5
330
1F
100
AcDbEntity
  8
0
  6
Continuous
 62
   144
370
    18
100
AcDbSpline
210
0.0
220
0.0
230
1.0
 70
     8
 71
     3
 72
    10
 73
     6
 74
     0
 42
0.000000001
 43
0.00000001
 40
0.0
 40
0.0
 40
0.0
 40
0.0
 40
0.5
 40
0.5
 40
1.0
 40
1.0
 40
1.0
 40
1.0
 10
-292.65
 20
-44.10665845819539
 30
0.0
 10
-292.556747429387
 20
-44.1536487325176
 30
0.0
 10
-292.4686376238263
 20
-44.21683582697062
 30
0.0
 10
-292.3171488138009
 20
-44.36832463699608
 30
0.0
 10
-292.2539617193481
 20
-44.45643444255687
 30
0.0
 10
-292.2069714450261
 20
-44.54968701317002
 30
0.0
  0
SPLINE
  5
B6
330
1F
100
AcDbEntity
  8
0
  6
Continuous
 62
   144
370
    18
100
AcDbSpline
210
0.0
220
0.0
230
1.0
 70
     8
 71
     3
 72
    10
 73
     6
 74
     0
 42
0.000000001
 43
0.00000001
 40
0.0
 40
0.0
 40
0.0
 40
0.0
 40
0.5
 40
0.5
 40
1.0
 40
1.0
 40
1.0
 40
1.0
 10
292.65
 20
-44.10665845819539
 30
0.0
 10
292.556747429387
 20
-44.15364873251776
 30
0.0
 10
292.4686376238263
 20
-44.21683582697084
 30
0.0
 10
292.3171488138006
 20
-44.36832463699625
 30
0.0
 10
292.2539617193476
 20
-44.45643444255693
 30
0.0
 10
292.206971445025
 20
-44.54968701317002
 30
0.0
  0
SPLINE
  5
B7
330
1F
100
AcDbEntity
  8
0
  6
Continuous
 62
   144
370
    18
100
AcDbSpline
210
0.0
220
0.0
230
1.0
 70
     8
 71
     3
 72
    18
 73
    14
 74
     0
 42
0.000000001
 43
0.00000001
 40
0.0
 40
0.0
 40
0.0
 40
0.0
 40
0.0615072613057106
 40
0.1260863075319327
 40
0.1938584423850035
 40
0.2648318090739299
 40
0.3388875837743674
 40
0.4157717419659212
 40
0.4950950402747382
 40
0.627716349283151
 40
0.7576286086170966
 40
0.882351996953125
 40
1.0
 40
1.0
 40
1.0
 40
1.0
 10
292.65
 20
-44.10665845819539
 30
0.0
 10
292.6778449162699
 20
-44.09788945600629
 30
0.0
 10
292.7349253747632
 20
-44.07991351164964
 30
0.0
 10
292.8235883529035
 20
-44.05818678765078
 30
0.0
 10
292.9155643225984
 20
-44.0393870369376
 30
0.0
 10
293.0094134707449
 20
-44.02398142857206
 30
0.0
 10
293.1030411764653
 20
-44.01185063561658
 30
0.0
 10
293.1940416683822
 20
-44.00291707473092
 30
0.0
 10
293.2981962422972
 20
-43.99644223505755
 30
0.0
 10
293.4029405221483
 20
-43.99260883257222
 30
0.0
 10
293.4888782422373
 20
-43.99118623018205
 30
0.0
 10
293.5407560941653
 20
-43.99304244151564
 30
0.0
 10
293.5469792542329
 20
-43.99751568407412
 30
0.0
 10
293.55
 20
-43.99968701317009
 30
0.0
  0
SPLINE
  5
B9
330
1F
100
AcDbEntity
  8
0
  6
Continuous
 62
   144
370
    18
100
AcDbSpline
210
0.0
220
0.0
230
1.0
 70
     8
 71
     3
 72
    13
 73
     9
 74
     0
 42
0.000000001
 43
0.00000001
 40
0.0
 40
0.0
 40
0.0
 40
0.0
 40
0.1490448496283147
 40
0.3049135717902816
 40
0.4679925112005932
 40
0.6383893297233654
 40
0.8159016331490234
 40
1.0
 40
1.0
 40
1.0
 40
1.0
 10
-292.2069714450261
 20
-44.54968701317002
 30
0.0
 10
-292.1974773772737
 20
-44.57746057689982
 30
0.0
 10
-292.1780545651712
 20
-44.63427928978603
 30
0.0
 10
-292.154859232412
 20
-44.7227381562339
 30
0.0
 10
-292.1351004966245
 20
-44.81443235913257
 30
0.0
 10
-292.1193821195234
 20
-44.90780799714306
 30
0.0
 10
-292.1072125722503
 20
-45.00144571961645
 30
0.0
 10
-292.1024332039789
 20
-45.05978735666349
 30
0.0
 10
-292.099999996207
 20
-45.08948946720015
 30
0.0
  0
SPLINE
  5
BA
330
1F
100
AcDbEntity
  8
0
  6
Continuous
 62
   144
370
    18
100
AcDbSpline
210
0.0
220
0.0
230
1.0
 70
     8
 71
     3
 72
    10
 73
     6
 74
     0
 42
0.000000001
 43
0.00000001
 40
0.0
 40
0.0
 40
0.0
 40
0.0
 40
0.5
 40
0.5
 40
1.0
 40
1.0
 40
1.0
 40
1.0
 10
-292.0999999226029
 20
-45.44514167505292
 30
0.0
 10
-292.0992367967257
 20
-45.4327638462948
 30
0.0
 10
-292.0957457174528
 20
-45.39433246877434
 30
0.0
 10
-292.0926356266796
 20
-45.27167340798955
 30
0.0
 10
-292.0930166151837
 20
-45.18776010589482
 30
0.0
 10
-292.099997624868
 20
-45.08952283381667
 30
0.0
  0
SPLINE
  5
BB
330
1F
100
AcDbEntity
  8
0
  6
Continuous
 62
   144
370
    18
100
AcDbSpline
210
0.0
220
0.0
230
1.0
 70
     8
 71
     3
 72
     8
 73
     4
 74
     0
 42
0.000000001
 43
0.00000001
 40
0.0
 40
0.0
 40
0.0
 40
0.0
 40
1.0
 40
1.0
 40
1.0
 40
1.0
 10
-292.1
 20
-45.44968701316998
 30
0.0
 10
-292.1001985447532
 20
-45.4496870296055
 30
0.0
 10
-292.1001985447532
 20
-45.44816844343114
 30
0.0
 10
-292.1
 20
-45.44514293049118
 30
0.0
  0
SPLINE
  5
BC
330
1F
100
AcDbEntity
  8
0
  6
Continuous
 62
   144
370
    18
100
AcDbSpline
210
0.0
220
0.0
230
1.0
 70
     8
 71
     3
 72
     8
 73
     4
 74
     0
 42
0.000000001
 43
0.00000001
 40
0.0
 40
0.0
 40
0.0
 40
0.0
 40
1.0
 40
1.0
 40
1.0
 40
1.0
 10
292.1
 20
-45.4496870131697
 30
0.0
 10
292.1001985447519
 20
-45.44968702960522
 30
0.0
 10
292.1001985447519
 20
-45.44816844343102
 30
0.0
 10
292.1
 20
-45.4451429304914
 30
0.0
  0
SPLINE
  5
BD
330
1F
100
AcDbEntity
  8
0
  6
Continuous
 62
   144
370
    18
100
AcDbSpline
210
0.0
220
0.0
230
1.0
 70
     8
 71
     3
 72
    10
 73
     6
 74
     0
 42
0.000000001
 43
0.00000001
 40
0.0
 40
0.0
 40
0.0
 40
0.0
 40
0.5
 40
0.5
 40
1.0
 40
1.0
 40
1.0
 40
1.0
 10
292.099999922603
 20
-45.4451416750527
 30
0.0
 10
292.0992367966603
 20
-45.4327638451752
 30
0.0
 10
292.0957457168209
 20
-45.39433246171026
 30
0.0
 10
292.0926356264676
 20
-45.27167338176902
 30
0.0
 10
292.0930166159527
 20
-45.18776006646713
 30
0.0
 10
292.099997628656
 20
-45.08952278050121
 30
0.0
  0
SPLINE
  5
BE
330
1F
100
AcDbEntity
  8
0
  6
Continuous
 62
   144
370
    18
100
AcDbSpline
210
0.0
220
0.0
230
1.0
 70
     8
 71
     3
 72
    14
 73
    10
 74
     0
 42
0.000000001
 43
0.00000001
 40
0.0
 40
0.0
 40
0.0
 40
0.0
 40
0.1581893188879353
 40
0.3116084052452776
 40
0.4598793664890128
 40
0.6028021956683066
 40
0.7403497522538189
 40
0.8726560900957127
 40
1.0
 40
1.0
 40
1.0
 40
1.0
 10
292.0999999999997
 20
-45.08948941382685
 30
0.0
 10
292.1020463353655
 20
-45.06405763670251
 30
0.0
 10
292.1060772984192
 20
-45.01396098309796
 30
0.0
 10
292.1157944644283
 20
-44.93405719883376
 30
0.0
 10
292.1281466984009
 20
-44.85390270506884
 30
0.0
 10
292.1433539465341
 20
-44.77436057763057
 30
0.0
 10
292.1614674484451
 20
-44.69672770968186
 30
0.0
 10
292.1821248753855
 20
-44.62173104891542
 30
0.0
 10
292.1987954577057
 20
-44.57339375141311
 30
0.0
 10
292.206971445025
 20
-44.5496870131697
 30
0.0
  0
LWPOLYLINE
  5
BF
330
1F
100
AcDbEntity
  8
0
  6
Continuous
 62
   144
370
    18
100
AcDbPolyline
 90
        2
 70
   128
 43
0.0
 10
-292.1
 20
-45.4496870132
 10
-292.1
 20
-45.4496870132
  0
LWPOLYLINE
  5
C0
330
1F
100
AcDbEntity
  8
0
  6
Continuous
 62
   144
370
    18
100
AcDbPolyline
 90
        2
 70
   128
 43
0.0
 10
292.1
 20
-45.4496870132
 10
292.1
 20
-45.4496870132
  0
LWPOLYLINE
  5
C6
330
1F
100
AcDbEntity
  8
0
  6
Continuous
 62
   144
370
    18
100
AcDbPolyline
 90
        2
 70
   128
 43
0.0
 10
-293.1
 20
-39.85
 10
-293.1
 20
-39.85
  0
SPLINE
  5
C9
330
1F
100
AcDbEntity
  8
0
  6
Continuous
 62
   144
370
    18
100
AcDbSpline
210
0.0
220
0.0
230
1.0
 70
     8
 71
     3
 72
    10
 73
     6
 74
     0
 42
0.000000001
 43
0.00000001
 40
0.0
 40
0.0
 40
0.0
 40
0.0
 40
0.3351938552479053
 40
0.66774117708302
 40
1.0
 40
1.0
 40
1.0
 40
1.0
 10
976.3417772882449
 20
-0.0225035612607671
 30
0.0
 10
976.3424187373665
 20
-0.017935183296347
 30
0.0
 10
976.3436965710283
 20
-0.0088344971364562
 30
0.0
 10
976.3534422940486
 20
-0.0014221951938342
 30
0.0
 10
976.3651203839522
 20
-0.0004739278947619
 30
0.0
 10
976.370956894995
 20
0.0
 30
0.0
  0
SPLINE
  5
CA
330
1F
100
AcDbEntity
  8
0
  6
Continuous
 62
   144
370
    18
100
AcDbSpline
210
0.0
220
0.0
230
1.0
 70
     8
 71
     3
 72
    10
 73
     6
 74
     0
 42
0.000000001
 43
0.00000001
 40
0.0
 40
0.0
 40
0.0
 40
0.0
 40
0.3322588229275146
 40
0.6648061447628915
 40
1.0
 40
1.0
 40
1.0
 40
1.0
 10
391.112597681495
 20
0.0
 30
0.0
 10
391.1184341925379
 20
-0.0004739278947619
 30
0.0
 10
391.130112282441
 20
-0.0014221951938898
 30
0.0
 10
391.1398580054619
 20
-0.0088344971367338
 30
0.0
 10
391.1411358391236
 20
-0.0179351832965136
 30
0.0
 10
391.1417772882452
 20
-0.0225035612608226
 30
0.0
  0
SPLINE
  5
CB
330
1F
100
AcDbEntity
  8
0
  6
Continuous
 62
   144
370
    18
100
AcDbSpline
210
0.0
220
0.0
230
1.0
 70
    24
 71
     3
 72
    14
 73
    10
 74
     0
 42
0.000000001
 43
0.00000001
 40
0.0
 40
0.0
 40
0.0
 40
0.0
 40
0.25
 40
0.25
 40
0.5
 40
0.5
 40
0.75
 40
0.75
 40
1.0
 40
1.0
 40
1.0
 40
1.0
 10
391.141777288245
 20
-0.0225035612607671
 30
0.0
 10
391.141777288245
 20
-0.0432905467428468
 30
0.0
 10
391.1417772882452
 20
-0.0798420732455729
 30
0.0
 10
391.141777288245
 20
-0.1865104410845309
 30
0.0
 10
391.1417772882451
 20
-0.2566688557707475
 30
0.0
 10
391.1417772882451
 20
-0.4208339281970286
 30
0.0
 10
391.1417772882451
 20
-0.514550673427927
 30
0.0
 10
391.1417772882451
 20
-0.7075231254028425
 30
0.0
 10
391.141777288245
 20
-0.806458565330681
 30
0.0
 10
391.141777288245
 20
-0.9000000000000119
 30
0.0
  0
SPLINE
  5
CC
330
1F
100
AcDbEntity
  8
0
  6
Continuous
 62
   144
370
    18
100
AcDbSpline
210
0.0
220
0.0
230
1.0
 70
    24
 71
     3
 72
    14
 73
    10
 74
     0
 42
0.000000001
 43
0.00000001
 40
0.0
 40
0.0
 40
0.0
 40
0.0
 40
0.25
 40
0.25
 40
0.5
 40
0.5
 40
0.75
 40
0.75
 40
1.0
 40
1.0
 40
1.0
 40
1.0
 10
976.341777288245
 20
-0.9000000000000119
 30
0.0
 10
976.341777288245
 20
-0.8064585653316803
 30
0.0
 10
976.341777288245
 20
-0.7075231254051184
 30
0.0
 10
976.3417772882447
 20
-0.5145506734326455
 30
0.0
 10
976.341777288245
 20
-0.4208339282028573
 30
0.0
 10
976.3417772882451
 20
-0.2566688557777974
 30
0.0
 10
976.341777288245
 20
-0.1865104410916363
 30
0.0
 10
976.3417772882451
 20
-0.0798420732516791
 30
0.0
 10
976.341777288245
 20
-0.0432905467479539
 30
0.0
 10
976.341777288245
 20
-0.0225035612644309
 30
0.0
  0
SPLINE
  5
CD
330
1F
100
AcDbEntity
  8
0
  6
Continuous
 62
     7
370
    25
100
AcDbSpline
210
0.0
220
0.0
230
1.0
 70
    24
 71
     3
 72
    14
 73
    10
 74
     0
 42
0.000000001
 43
0.00000001
 40
0.0
 40
0.0
 40
0.0
 40
0.0
 40
0.25
 40
0.25
 40
0.5
 40
0.5
 40
0.75
 40
0.75
 40
1.0
 40
1.0
 40
1.0
 40
1.0
 10
977.2417772882449
 20
-44.99999999999999
 30
0.0
 10
977.2417772882449
 20
-45.00000000000004
 30
0.0
 10
977.241777288245
 20
-44.98066913506788
 30
0.0
 10
977.2417772882447
 20
-44.89294980684455
 30
0.0
 10
977.2417772882449
 20
-44.82426406871198
 30
0.0
 10
977.2417772882451
 20
-44.64852813742387
 30
0.0
 10
977.2417772882449
 20
-44.5420724939512
 30
0.0
 10
977.241777288245
 20
-44.32049798326021
 30
0.0
 10
977.2417772882449
 20
-44.20606601717797
 30
0.0
 10
977.2417772882449
 20
-44.09999999999997
 30
0.0
  0
LWPOLYLINE
  5
CF
330
1F
100
AcDbEntity
  8
0
  6
Continuous
 62
   144
370
    18
100
AcDbPolyline
 90
        2
 70
   128
 43
0.0
 10
977.2417772882
 20
-0.95
 10
977.2417772882
 20
-0.95
  0
SPLINE
  5
D2
330
1F
100
AcDbEntity
  8
0
  6
Continuous
 62
   144
370
    18
100
AcDbSpline
210
0.0
220
0.0
230
1.0
 70
    24
 71
     3
 72
    14
 73
    10
 74
     0
 42
0.000000001
 43
0.00000001
 40
0.0
 40
0.0
 40
0.0
 40
0.0
 40
0.25
 40
0.25
 40
0.5
 40
0.5
 40
0.75
 40
0.75
 40
1.0
 40
1.0
 40
1.0
 40
1.0
 10
390.833198644482
 20
-44.09999999999997
 30
0.0
 10
390.8331986444819
 20
-44.20606601717797
 30
0.0
 10
390.833198644482
 20
-44.32049798326021
 30
0.0
 10
390.8331986444818
 20
-44.5420724939512
 30
0.0
 10
390.8331986444819
 20
-44.64852813742387
 30
0.0
 10
390.833198644482
 20
-44.82426406871198
 30
0.0
 10
390.8331986444819
 20
-44.89294980684455
 30
0.0
 10
390.833198644482
 20
-44.98066913506788
 30
0.0
 10
390.833198644482
 20
-44.99999999999999
 30
0.0
 10
390.833198644482
 20
-44.99999999999999
 30
0.0
  0
SPLINE
  5
D3
330
1F
100
AcDbEntity
  8
0
  6
Continuous
 62
     7
370
    25
100
AcDbSpline
210
0.0
220
0.0
230
1.0
 70
    11
 71
     3
 72
    38
 73
    34
 74
     0
 42
0.000000001
 43
0.00000001
 40
0.0
 40
0.0
 40
0.0
 40
0.0
 40
0.0625
 40
0.0625
 40
0.125
 40
0.125
 40
0.1875
 40
0.1875
 40
0.25
 40
0.25
 40
0.3125
 40
0.3125
 40
0.375
 40
0.375
 40
0.4375
 40
0.4375
 40
0.5
 40
0.5
 40
0.5625
 40
0.5625
 40
0.625
 40
0.625
 40
0.6875
 40
0.6875
 40
0.75
 40
0.75
 40
0.8125
 40
0.8125
 40
0.875
 40
0.875
 40
0.9375
 40
0.9375
 40
1.0
 40
1.0
 40
1.0
 40
1.0
 10
970.0919078006011
 20
-27.4996870131701
 30
0.0
 10
970.0919078006009
 20
-27.29344753532403
 30
0.0
 10
970.1294955935242
 20
-27.0709409346086
 30
0.0
 10
970.3000609539585
 20
-26.64010160826502
 30
0.0
 10
970.4336165558835
 20
-26.43310452373482
 30
0.0
 10
970.7753253111651
 20
-26.09139576845243
 30
0.0
 10
970.9823223956964
 20
-25.95784016652797
 30
0.0
 10
971.4131617220387
 20
-25.78727480609372
 30
0.0
 10
971.6356683227554
 20
-25.7496870131701
 30
0.0
 10
972.0481472784469
 20
-25.7496870131701
 30
0.0
 10
972.270653879162
 20
-25.78727480609372
 30
0.0
 10
972.7014932055062
 20
-25.95784016652797
 30
0.0
 10
972.9084902900366
 20
-26.09139576845249
 30
0.0
 10
973.2501990453186
 20
-26.43310452373482
 30
0.0
 10
973.3837546472436
 20
-26.64010160826502
 30
0.0
 10
973.5543200076776
 20
-27.0709409346086
 30
0.0
 10
973.5919078006009
 20
-27.29344753532403
 30
0.0
 10
973.591907800601
 20
-27.70592649101616
 30
0.0
 10
973.5543200076772
 20
-27.92843309173154
 30
0.0
 10
973.3837546472425
 20
-28.35927241807512
 30
0.0
 10
973.250199045319
 20
-28.56626950260532
 30
0.0
 10
972.9084902900364
 20
-28.90797825788766
 30
0.0
 10
972.7014932055055
 20
-29.04153385981217
 30
0.0
 10
972.2706538791618
 20
-29.21209922024648
 30
0.0
 10
972.048147278447
 20
-29.2496870131701
 30
0.0
 10
971.6356683227548
 20
-29.2496870131701
 30
0.0
 10
971.4131617220398
 20
-29.21209922024648
 30
0.0
 10
970.9823223956959
 20
-29.04153385981223
 30
0.0
 10
970.7753253111656
 20
-28.90797825788777
 30
0.0
 10
970.4336165558833
 20
-28.56626950260538
 30
0.0
 10
970.3000609539587
 20
-28.35927241807518
 30
0.0
 10
970.1294955935247
 20
-27.9284330917316
 30
0.0
 10
970.0919078006013
 20
-27.70592649101616
 30
0.0
 10
970.0919078006011
 20
-27.4996870131701
 30
0.0
  0
SPLINE
  5
DB
330
1F
100
AcDbEntity
  8
0
  6
Continuous
 62
   144
370
    18
100
AcDbSpline
210
0.0
220
0.0
230
1.0
 70
     8
 71
     3
 72
    11
 73
     7
 74
     0
 42
0.000000001
 43
0.00000001
 40
0.0
 40
0.0
 40
0.0
 40
0.0
 40
0.2550715012679294
 40
0.5069041677642454
 40
0.7552032007681375
 40
0.9999999999999999
 40
0.9999999999999999
 40
0.9999999999999999
 40
0.9999999999999999
 10
391.1417772882449
 20
-0.4968871125851093
 30
0.0
 10
391.1414350451428
 20
-0.4894954018385134
 30
0.0
 10
391.1407549046567
 20
-0.4748058384582698
 30
0.0
 10
391.1350521569467
 20
-0.4605021031045542
 30
0.0
 10
391.1262366031604
 20
-0.4515554979508396
 30
0.0
 10
391.1171224107392
 20
-0.4505160383819207
 30
0.0
 10
391.112597681495
 20
-0.450000000000006
 30
0.0
  0
SPLINE
  5
DC
330
1F
100
AcDbEntity
  8
0
  6
Continuous
 62
   144
370
    18
100
AcDbSpline
210
0.0
220
0.0
230
1.0
 70
     8
 71
     3
 72
    11
 73
     7
 74
     0
 42
0.000000001
 43
0.00000001
 40
0.0
 40
0.0
 40
0.0
 40
0.0
 40
0.2447967992312151
 40
0.4930958322345966
 40
0.7449284987312066
 40
1.0
 40
1.0
 40
1.0
 40
1.0
 10
976.3709568949951
 20
-0.450000000000006
 30
0.0
 10
976.3664321657508
 20
-0.4505160383819207
 30
0.0
 10
976.3573179733291
 20
-0.4515554979508396
 30
0.0
 10
976.3485024195431
 20
-0.4605021031045542
 30
0.0
 10
976.3427996718334
 20
-0.4748058384583254
 30
0.0
 10
976.3421195313472
 20
-0.4894954018385134
 30
0.0
 10
976.3417772882452
 20
-0.4968871125851648
 30
0.0
  0
LWPOLYLINE
  5
E1
330
1F
100
AcDbEntity
  8
0
  6
Continuous
 62
   144
370
    18
100
AcDbPolyline
 90
        2
 70
   128
 43
0.0
 10
977.7417772882
 20
-0.95
 10
977.7417772882
 20
-0.95
  0
LWPOLYLINE
  5
E2
330
1F
100
AcDbEntity
  8
0
  6
Continuous
 62
   144
370
    18
100
AcDbPolyline
 90
        2
 70
   128
 43
0.0
 10
977.2917772882
 20
-0.95
 10
977.2917772882
 20
-0.95
  0
SPLINE
  5
E5
330
1F
100
AcDbEntity
  8
0
  6
Continuous
 62
   144
370
    18
100
AcDbSpline
210
0.0
220
0.0
230
1.0
 70
    24
 71
     3
 72
    10
 73
     6
 74
     0
 42
0.000000001
 43
0.00000001
 40
0.0
 40
0.0
 40
0.0
 40
0.0
 40
0.3357814509287508
 40
0.6808264415182207
 40
1.0
 40
1.0
 40
1.0
 40
1.0
 10
390.191777288245
 20
-1.649999999999985
 30
0.0
 10
390.1035537418212
 20
-1.649999999999985
 30
0.0
 10
389.924672737514
 20
-1.649999999999985
 30
0.0
 10
389.7724492272236
 20
-1.649999999999985
 30
0.0
 10
389.7517322917823
 20
-1.649999999999985
 30
0.0
 10
389.741777288245
 20
-1.649999999999985
 30
0.0
  0
SPLINE
  5
E6
330
1F
100
AcDbEntity
  8
0
  6
Continuous
 62
   144
370
    18
100
AcDbSpline
210
0.0
220
0.0
230
1.0
 70
    24
 71
     3
 72
    10
 73
     6
 74
     0
 42
0.000000001
 43
0.00000001
 40
0.0
 40
0.0
 40
0.0
 40
0.0
 40
0.4092683235560878
 40
0.8517109416779974
 40
1.0
 40
1.0
 40
1.0
 40
1.0
 10
389.741777288245
 20
-42.28346973415697
 30
0.0
 10
389.758380640357
 20
-42.28346973415703
 30
0.0
 10
389.7929331719073
 20
-42.28346973415703
 30
0.0
 10
389.9870557229306
 20
-42.28346973415697
 30
0.0
 10
390.1506986463198
 20
-42.28346973415703
 30
0.0
 10
390.191777288245
 20
-42.28346973415703
 30
0.0
  0
SPLINE
  5
E7
330
1F
100
AcDbEntity
  8
0
  6
Continuous
 62
   144
370
    18
100
AcDbSpline
210
0.0
220
0.0
230
1.0
 70
    24
 71
     3
 72
    10
 73
     6
 74
     0
 42
0.000000001
 43
0.00000001
 40
0.0
 40
0.0
 40
0.0
 40
0.0
 40
0.5
 40
0.5
 40
1.0
 40
1.0
 40
1.0
 40
1.0
 10
976.370956894995
 20
0.0
 30
0.0
 10
976.4026635895461
 20
0.0
 30
0.0
 10
976.4633087121161
 20
0.0
 30
0.0
 10
976.6302963707124
 20
0.0
 30
0.0
 10
976.7354298017075
 20
0.0
 30
0.0
 10
976.841777288245
 20
0.0
 30
0.0
  0
SPLINE
  5
E8
330
1F
100
AcDbEntity
  8
0
  6
Continuous
 62
   144
370
    18
100
AcDbSpline
210
0.0
220
0.0
230
1.0
 70
    24
 71
     3
 72
    10
 73
     6
 74
     0
 42
0.000000001
 43
0.00000001
 40
0.0
 40
0.0
 40
0.0
 40
0.0
 40
0.5
 40
0.5
 40
1.0
 40
1.0
 40
1.0
 40
1.0
 10
390.641777288245
 20
0.0
 30
0.0
 10
390.7481247747825
 20
0.0
 30
0.0
 10
390.8532582057775
 20
0.0
 30
0.0
 10
391.0202458643739
 20
0.0
 30
0.0
 10
391.0808909869439
 20
0.0
 30
0.0
 10
391.112597681495
 20
0.0
 30
0.0
  0
SPLINE
  5
E9
330
1F
100
AcDbEntity
  8
0
  6
Continuous
 62
   144
370
    18
100
AcDbSpline
210
0.0
220
0.0
230
1.0
 70
    24
 71
     3
 72
    10
 73
     6
 74
     0
 42
0.000000001
 43
0.00000001
 40
0.0
 40
0.0
 40
0.0
 40
0.0
 40
0.5
 40
0.5
 40
1.0
 40
1.0
 40
1.0
 40
1.0
 10
391.112597681495
 20
-0.450000000000006
 30
0.0
 10
391.0808909869438
 20
-0.450000000000006
 30
0.0
 10
391.020245864374
 20
-0.450000000000006
 30
0.0
 10
390.8532582057773
 20
-0.450000000000006
 30
0.0
 10
390.7481247747826
 20
-0.450000000000006
 30
0.0
 10
390.641777288245
 20
-0.450000000000006
 30
0.0
  0
SPLINE
  5
EA
330
1F
100
AcDbEntity
  8
0
  6
Continuous
 62
   144
370
    18
100
AcDbSpline
210
0.0
220
0.0
230
1.0
 70
    24
 71
     3
 72
    10
 73
     6
 74
     0
 42
0.000000001
 43
0.00000001
 40
0.0
 40
0.0
 40
0.0
 40
0.0
 40
0.5
 40
0.5
 40
1.0
 40
1.0
 40
1.0
 40
1.0
 10
976.841777288245
 20
-0.450000000000006
 30
0.0
 10
976.7354298017076
 20
-0.450000000000006
 30
0.0
 10
976.6302963707125
 20
-0.450000000000006
 30
0.0
 10
976.4633087121158
 20
-0.450000000000006
 30
0.0
 10
976.4026635895464
 20
-0.450000000000006
 30
0.0
 10
976.370956894995
 20
-0.450000000000006
 30
0.0
  0
LWPOLYLINE
  5
EB
330
1F
100
AcDbEntity
  8
0
  6
Continuous
 62
   144
370
    18
100
AcDbPolyline
 90
        2
 70
   128
 43
0.0
 10
390.8331986445
 20
-45.0
 10
390.8331986445
 20
-45.0
  0
SPLINE
  5
F0
330
1F
100
AcDbEntity
  8
0
  6
Continuous
 62
     7
370
    25
100
AcDbSpline
210
0.0
220
0.0
230
1.0
 70
     8
 71
     3
 72
    14
 73
    10
 74
     0
 42
0.000000001
 43
0.00000001
 40
0.0
 40
0.0
 40
0.0
 40
0.0
 40
0.25
 40
0.25
 40
0.5
 40
0.5
 40
0.75
 40
0.75
 40
1.0
 40
1.0
 40
1.0
 40
1.0
 10
390.641777288245
 20
-44.54999999999998
 30
0.0
 10
390.5357112710669
 20
-44.54999999999998
 30
0.0
 10
390.4212793049848
 20
-44.53066913506787
 30
0.0
 10
390.1997047942937
 20
-44.44294980684449
 30
0.0
 10
390.0932491508212
 20
-44.37426406871192
 30
0.0
 10
389.917513219533
 20
-44.19852813742386
 30
0.0
 10
389.8488274814005
 20
-44.09207249395114
 30
0.0
 10
389.7611081531773
 20
-43.8704979832602
 30
0.0
 10
389.741777288245
 20
-43.75606601717796
 30
0.0
 10
389.741777288245
 20
-43.65000000000002
 30
0.0
  0
SPLINE
  5
F1
330
1F
100
AcDbEntity
  8
0
  6
Continuous
 62
   144
370
    18
100
AcDbSpline
210
0.0
220
0.0
230
1.0
 70
     8
 71
     3
 72
    14
 73
    10
 74
     0
 42
0.000000001
 43
0.00000001
 40
0.0
 40
0.0
 40
0.0
 40
0.0
 40
0.25
 40
0.25
 40
0.5
 40
0.5
 40
0.75
 40
0.75
 40
1.0
 40
1.0
 40
1.0
 40
1.0
 10
390.191777288245
 20
-43.65000000000002
 30
0.0
 10
390.1917772882449
 20
-43.70303300858897
 30
0.0
 10
390.201442720711
 20
-43.76024899163006
 30
0.0
 10
390.2453023848225
 20
-43.87103624697553
 30
0.0
 10
390.2796452538889
 20
-43.92426406871191
 30
0.0
 10
390.367513219533
 20
-44.01213203435594
 30
0.0
 10
390.4207410412693
 20
-44.04647490342223
 30
0.0
 10
390.5315282966149
 20
-44.09033456753392
 30
0.0
 10
390.5887442796559
 20
-44.10000000000003
 30
0.0
 10
390.641777288245
 20
-44.09999999999997
 30
0.0
  0
LWPOLYLINE
  5
F4
330
1F
100
AcDbEntity
  8
0
  6
Continuous
 62
   144
370
    18
100
AcDbPolyline
 90
        2
 70
   128
 43
0.0
 10
389.7417772882
 20
-42.2834697342
 10
389.7417772882
 20
-42.2834697342
  0
LWPOLYLINE
  5
F5
330
1F
100
AcDbEntity
  8
0
  6
Continuous
 62
   144
370
    18
100
AcDbPolyline
 90
        2
 70
   128
 43
0.0
 10
389.7417772882
 20
-42.7834697342
 10
389.7417772882
 20
-42.7834697342
  0
LWPOLYLINE
  5
F7
330
1F
100
AcDbEntity
  8
0
  6
Continuous
 62
   144
370
    18
100
AcDbPolyline
 90
        2
 70
   128
 43
0.0
 10
389.7417772882
 20
-42.2834697342
 10
389.7417772882
 20
-42.2834697342
  0
LWPOLYLINE
  5
FA
330
1F
100
AcDbEntity
  8
0
  6
Continuous
 62
   144
370
    18
100
AcDbPolyline
 90
        2
 70
   128
 43
0.0
 10
390.1917772882
 20
-42.2834697342
 10
390.1917772882
 20
-42.2834697342
  0
LWPOLYLINE
  5
FC
330
1F
100
AcDbEntity
  8
0
  6
Continuous
 62
   144
370
    18
100
AcDbPolyline
 90
        2
 70
   128
 43
0.0
 10
390.1917772882
 20
-42.7834697342
 10
390.1917772882
 20
-42.7834697342
  0
LWPOLYLINE
  5
FD
330
1F
100
AcDbEntity
  8
0
  6
Continuous
 62
   144
370
    18
100
AcDbPolyline
 90
        2
 70
   128
 43
0.0
 10
390.1917772882
 20
-42.2834697342
 10
390.1917772882
 20
-42.2834697342
  0
SPLINE
  5
FE
330
1F
100
AcDbEntity
  8
0
  6
Continuous
 62
   144
370
    18
100
AcDbSpline
210
0.0
220
0.0
230
1.0
 70
     8
 71
     3
 72
    10
 73
     6
 74
     0
 42
0.000000001
 43
0.00000001
 40
0.0
 40
0.0
 40
0.0
 40
0.0
 40
0.3322588229279798
 40
0.6648061447634842
 40
1.0
 40
1.0
 40
1.0
 40
1.0
 10
976.841777288245
 20
0.0
 30
0.0
 10
976.8636606325845
 20
-0.0004739278947619
 30
0.0
 10
976.9074463224774
 20
-0.0014221951938898
 30
0.0
 10
976.974803696682
 20
-0.0088344971367338
 30
0.0
 10
977.01939384801
 20
-0.017935183296458
 30
0.0
 10
977.0417772882452
 20
-0.0225035612607671
 30
0.0
  0
SPLINE
  5
FF
330
1F
100
AcDbEntity
  8
0
  6
Continuous
 62
   144
370
    18
100
AcDbSpline
210
0.0
220
0.0
230
1.0
 70
     8
 71
     3
 72
    14
 73
    10
 74
     0
 42
0.000000001
 43
0.00000001
 40
0.0
 40
0.0
 40
0.0
 40
0.0
 40
0.25
 40
0.25
 40
0.5
 40
0.5
 40
0.75
 40
0.75
 40
1.0
 40
1.0
 40
1.0
 40
1.0
 10
977.0417772882449
 20
-0.0225035612607671
 30
0.0
 10
977.132979816908
 20
-0.0432905467428468
 30
0.0
 10
977.2261216087451
 20
-0.0798420732455729
 30
0.0
 10
977.3997308981781
 20
-0.1865104410845309
 30
0.0
 10
977.4798604402098
 20
-0.2566688557707475
 30
0.0
 10
977.6108188642276
 20
-0.4208339281970286
 30
0.0
 10
977.6614164760368
 20
-0.514550673427927
 30
0.0
 10
977.7268378705015
 20
-0.7075231254028425
 30
0.0
 10
977.7417772882451
 20
-0.806458565330681
 30
0.0
 10
977.741777288245
 20
-0.9000000000000119
 30
0.0
  0
SPLINE
  5
100
330
1F
100
AcDbEntity
  8
0
  6
Continuous
 62
   144
370
    18
100
AcDbSpline
210
0.0
220
0.0
230
1.0
 70
     8
 71
     3
 72
    10
 73
     6
 74
     0
 42
0.000000001
 43
0.00000001
 40
0.0
 40
0.0
 40
0.0
 40
0.0
 40
0.5
 40
0.5
 40
1.0
 40
1.0
 40
1.0
 40
1.0
 10
977.0417772882449
 20
-0.4968871125850538
 30
0.0
 10
977.1125970037114
 20
-0.5320235310313781
 30
0.0
 10
977.1791547274441
 20
-0.5901898064113453
 30
0.0
 10
977.269252776085
 20
-0.7354685445633558
 30
0.0
 10
977.2917772882453
 20
-0.8209430584957822
 30
0.0
 10
977.291777288245
 20
-0.9000000000000119
 30
0.0
  0
SPLINE
  5
101
330
1F
100
AcDbEntity
  8
0
  6
Continuous
 62
   144
370
    18
100
AcDbSpline
210
0.0
220
0.0
230
1.0
 70
     8
 71
     3
 72
    11
 73
     7
 74
     0
 42
0.000000001
 43
0.00000001
 40
0.0
 40
0.0
 40
0.0
 40
0.0
 40
0.2550715012680002
 40
0.5069041677645973
 40
0.7552032007682474
 40
1.0
 40
1.0
 40
1.0
 40
1.0
 10
977.0417772882449
 20
-0.4968871125851093
 30
0.0
 10
977.0255057528834
 20
-0.4894954018385134
 30
0.0
 10
976.9931692940883
 20
-0.4748058384582698
 30
0.0
 10
976.9424085894278
 20
-0.4605021031045542
 30
0.0
 10
976.8916257558768
 20
-0.4515554979508396
 30
0.0
 10
976.8583145794474
 20
-0.4505160383819207
 30
0.0
 10
976.841777288245
 20
-0.450000000000006
 30
0.0
  0
SPLINE
  5
102
330
1F
100
AcDbEntity
  8
0
  6
Continuous
 62
     7
370
    25
100
AcDbSpline
210
0.0
220
0.0
230
1.0
 70
     8
 71
     3
 72
    14
 73
    10
 74
     0
 42
0.000000001
 43
0.00000001
 40
0.0
 40
0.0
 40
0.0
 40
0.0
 40
0.2499999999999999
 40
0.2499999999999999
 40
0.4999999999999999
 40
0.4999999999999999
 40
0.7499999999999999
 40
0.7499999999999999
 40
1.0
 40
1.0
 40
1.0
 40
1.0
 10
389.741777288245
 20
-0.9000000000000119
 30
0.0
 10
389.7417772882451
 20
-0.806458565330681
 30
0.0
 10
389.7567167059887
 20
-0.7075231254028425
 30
0.0
 10
389.8221381004533
 20
-0.5145506734279826
 30
0.0
 10
389.8727357122627
 20
-0.4208339281970841
 30
0.0
 10
390.0036941362803
 20
-0.256668855770803
 30
0.0
 10
390.0838236783119
 20
-0.1865104410845309
 30
0.0
 10
390.2574329677451
 20
-0.0798420732455729
 30
0.0
 10
390.3505747595818
 20
-0.0432905467428468
 30
0.0
 10
390.441777288245
 20
-0.0225035612607671
 30
0.0
  0
SPLINE
  5
103
330
1F
100
AcDbEntity
  8
0
  6
Continuous
 62
   144
370
    18
100
AcDbSpline
210
0.0
220
0.0
230
1.0
 70
     8
 71
     3
 72
    10
 73
     6
 74
     0
 42
0.000000001
 43
0.00000001
 40
0.0
 40
0.0
 40
0.0
 40
0.0
 40
0.3351938552371801
 40
0.6677411770729487
 40
1.0
 40
1.0
 40
1.0
 40
1.0
 10
390.4417772882449
 20
-0.0225035612607671
 30
0.0
 10
390.4641607284797
 20
-0.017935183296458
 30
0.0
 10
390.5087508798081
 20
-0.0088344971366783
 30
0.0
 10
390.5761082540125
 20
-0.0014221951938898
 30
0.0
 10
390.6198939439054
 20
-0.0004739278947619
 30
0.0
 10
390.641777288245
 20
0.0
 30
0.0
  0
SPLINE
  5
104
330
1F
100
AcDbEntity
  8
0
  6
Continuous
 62
     7
370
    25
100
AcDbSpline
210
0.0
220
0.0
230
1.0
 70
     8
 71
     3
 72
    10
 73
     6
 74
     0
 42
0.000000001
 43
0.00000001
 40
0.0
 40
0.0
 40
0.0
 40
0.0
 40
0.5
 40
0.5
 40
1.0
 40
1.0
 40
1.0
 40
1.0
 10
390.441777288245
 20
-0.4968871125850538
 30
0.0
 10
390.3709575727784
 20
-0.5320235310313781
 30
0.0
 10
390.304399849046
 20
-0.5901898064113453
 30
0.0
 10
390.2143018004052
 20
-0.7354685445633558
 30
0.0
 10
390.1917772882451
 20
-0.8209430584957822
 30
0.0
 10
390.191777288245
 20
-0.9000000000000119
 30
0.0
  0
SPLINE
  5
105
330
1F
100
AcDbEntity
  8
0
  6
Continuous
 62
   144
370
    18
100
AcDbSpline
210
0.0
220
0.0
230
1.0
 70
     8
 71
     3
 72
    11
 73
     7
 74
     0
 42
0.000000001
 43
0.00000001
 40
0.0
 40
0.0
 40
0.0
 40
0.0
 40
0.2447967992310082
 40
0.4930958322348225
 40
0.7449284987321374
 40
1.0
 40
1.0
 40
1.0
 40
1.0
 10
390.641777288245
 20
-0.450000000000006
 30
0.0
 10
390.6252399970423
 20
-0.4505160383819207
 30
0.0
 10
390.5919288206134
 20
-0.4515554979508396
 30
0.0
 10
390.541145987062
 20
-0.4605021031046097
 30
0.0
 10
390.4903852824018
 20
-0.4748058384582698
 30
0.0
 10
390.4580488236064
 20
-0.4894954018385134
 30
0.0
 10
390.441777288245
 20
-0.4968871125851093
 30
0.0
  0
LWPOLYLINE
  5
107
330
1F
100
AcDbEntity
  8
0
  6
Continuous
 62
   144
370
    18
100
AcDbPolyline
 90
        2
 70
   128
 43
0.0
 10
390.8331986445
 20
-45.0
 10
390.8331986445
 20
-45.0
  0
SPLINE
  5
10A
330
1F
100
AcDbEntity
  8
0
  6
Continuous
 62
   144
370
    18
100
AcDbSpline
210
0.0
220
0.0
230
1.0
 70
     8
 71
     3
 72
    13
 73
     9
 74
     0
 42
0.000000001
 43
0.00000001
 40
0.0
 40
0.0
 40
0.0
 40
0.0
 40
0.1490448496283606
 40
0.3049135717902426
 40
0.4679925112004703
 40
0.6383893297233613
 40
0.815901633149005
 40
1.0
 40
1.0
 40
1.0
 40
1.0
 10
977.291907800601
 20
-44.54968701317002
 30
0.0
 10
977.2911714691745
 20
-44.57746057689976
 30
0.0
 10
977.2896650941077
 20
-44.63427928978597
 30
0.0
 10
977.276597976606
 20
-44.7227381562339
 30
0.0
 10
977.2539724247615
 20
-44.81443235913268
 30
0.0
 10
977.219526244458
 20
-44.90780799714295
 30
0.0
 10
977.1733871737504
 20
-45.00144571961651
 30
0.0
 10
977.1327464016837
 20
-45.05978735666355
 30
0.0
 10
977.1120559177461
 20
-45.08948946720015
 30
0.0
  0
SPLINE
  5
10B
330
1F
100
AcDbEntity
  8
0
  6
Continuous
 62
   144
370
    18
100
AcDbSpline
210
0.0
220
0.0
230
1.0
 70
     8
 71
     3
 72
    10
 73
     6
 74
     0
 42
0.000000001
 43
0.00000001
 40
0.0
 40
0.0
 40
0.0
 40
0.0
 40
0.5
 40
0.5
 40
1.0
 40
1.0
 40
1.0
 40
1.0
 10
976.482245768878
 20
-45.44514167505292
 30
0.0
 10
976.6049381946301
 20
-45.4327638462948
 30
0.0
 10
976.7266967885275
 20
-45.39433246877434
 30
0.0
 10
976.9434927264388
 20
-45.27167340798955
 30
0.0
 10
977.0383879439948
 20
-45.18776010589482
 30
0.0
 10
977.112030905874
 20
-45.08952283381667
 30
0.0
  0
SPLINE
  5
10C
330
1F
100
AcDbEntity
  8
0
  6
Continuous
 62
   144
370
    18
100
AcDbSpline
210
0.0
220
0.0
230
1.0
 70
     8
 71
     3
 72
     8
 73
     4
 74
     0
 42
0.000000001
 43
0.00000001
 40
0.0
 40
0.0
 40
0.0
 40
0.0
 40
1.0
 40
1.0
 40
1.0
 40
1.0
 10
976.3919078006
 20
-45.44968701316998
 30
0.0
 10
976.422053730935
 20
-45.4496870296055
 30
0.0
 10
976.4522396012991
 20
-45.44816844343114
 30
0.0
 10
976.4822333237629
 20
-45.44514293049118
 30
0.0
  0
SPLINE
  5
10F
330
1F
100
AcDbEntity
  8
0
  6
Continuous
 62
   144
370
    18
100
AcDbSpline
210
0.0
220
0.0
230
1.0
 70
    24
 71
     3
 72
    10
 73
     6
 74
     0
 42
0.000000001
 43
0.00000001
 40
0.0
 40
0.0
 40
0.0
 40
0.0
 40
0.5
 40
0.5
 40
1.0
 40
1.0
 40
1.0
 40
1.0
 10
975.2256438058308
 20
-45.44968701316998
 30
0.0
 10
975.1062225501032
 20
-45.44968701316998
 30
0.0
 10
974.9827016615093
 20
-45.44968701317003
 30
0.0
 10
974.7520584157865
 20
-45.44968701316998
 30
0.0
 10
974.6454441945289
 20
-45.44968701317003
 30
0.0
 10
974.5566790742091
 20
-45.44968701316998
 30
0.0
  0
SPLINE
  5
114
330
1F
100
AcDbEntity
  8
0
  6
Continuous
 62
   144
370
    18
100
AcDbSpline
210
0.0
220
0.0
230
1.0
 70
     8
 71
     3
 72
    10
 73
     6
 74
     0
 42
0.000000001
 43
0.00000001
 40
0.0
 40
0.0
 40
0.0
 40
0.0
 40
0.3351938552378435
 40
0.6677411770736356
 40
0.9999999999999999
 40
0.9999999999999999
 40
0.9999999999999999
 40
0.9999999999999999
 10
292.6000000000004
 20
-709.6679474909445
 30
0.0
 10
292.6006414491218
 20
-709.6455640507095
 30
0.0
 10
292.6019192827837
 20
-709.6009738993811
 30
0.0
 10
292.6116650058042
 20
-709.5336165251771
 30
0.0
 10
292.6233430957072
 20
-709.4898308352839
 30
0.0
 10
292.62917960675
 20
-709.4679474909443
 30
0.0
  0
SPLINE
  5
115
330
1F
100
AcDbEntity
  8
0
  6
Continuous
 62
   144
370
    18
100
AcDbSpline
210
0.0
220
0.0
230
1.0
 70
     8
 71
     3
 72
    10
 73
     6
 74
     0
 42
0.000000001
 43
0.00000001
 40
0.0
 40
0.0
 40
0.0
 40
0.0
 40
0.3322588229280792
 40
0.6648061447638645
 40
0.9999999999999999
 40
0.9999999999999999
 40
0.9999999999999999
 40
0.9999999999999999
 10
-292.62917960675
 20
-709.4679474909443
 30
0.0
 10
-292.6233430957071
 20
-709.489830835284
 30
0.0
 10
-292.611665005804
 20
-709.533616525177
 30
0.0
 10
-292.6019192827832
 20
-709.6009738993812
 30
0.0
 10
-292.6006414491213
 20
-709.6455640507097
 30
0.0
 10
-292.5999999999997
 20
-709.6679474909445
 30
0.0
  0
SPLINE
  5
116
330
1F
100
AcDbEntity
  8
0
  6
Continuous
 62
   144
370
    18
100
AcDbSpline
210
0.0
220
0.0
230
1.0
 70
    24
 71
     3
 72
    14
 73
    10
 74
     0
 42
0.000000001
 43
0.00000001
 40
0.0
 40
0.0
 40
0.0
 40
0.0
 40
0.25
 40
0.25
 40
0.4999999999999999
 40
0.4999999999999999
 40
0.75
 40
0.75
 40
1.0
 40
1.0
 40
1.0
 40
1.0
 10
-292.6000000000001
 20
-709.6679474909444
 30
0.0
 10
-292.6000000000002
 20
-709.7591500196075
 30
0.0
 10
-292.6000000000001
 20
-709.8522918114443
 30
0.0
 10
-292.6000000000001
 20
-710.0259011008775
 30
0.0
 10
-292.6000000000001
 20
-710.1060306429094
 30
0.0
 10
-292.6
 20
-710.2369890669268
 30
0.0
 10
-292.6
 20
-710.2875866787359
 30
0.0
 10
-292.6000000000001
 20
-710.353008073201
 30
0.0
 10
-292.6000000000001
 20
-710.3679474909443
 30
0.0
 10
-292.6000000000001
 20
-710.3679474909443
 30
0.0
  0
SPLINE
  5
117
330
1F
100
AcDbEntity
  8
0
  6
Continuous
 62
   144
370
    18
100
AcDbSpline
210
0.0
220
0.0
230
1.0
 70
    24
 71
     3
 72
    14
 73
    10
 74
     0
 42
0.000000001
 43
0.00000001
 40
0.0
 40
0.0
 40
0.0
 40
0.0
 40
0.2499999999999999
 40
0.2499999999999999
 40
0.4999999999999999
 40
0.4999999999999999
 40
0.7499999999999999
 40
0.7499999999999999
 40
1.0
 40
1.0
 40
1.0
 40
1.0
 10
292.6000000000001
 20
-710.3679474909443
 30
0.0
 10
292.6000000000001
 20
-710.3679474909444
 30
0.0
 10
292.6
 20
-710.353008073201
 30
0.0
 10
292.6
 20
-710.2875866787363
 30
0.0
 10
292.6
 20
-710.236989066927
 30
0.0
 10
292.6
 20
-710.1060306429093
 30
0.0
 10
292.6
 20
-710.0259011008775
 30
0.0
 10
292.6
 20
-709.8522918114444
 30
0.0
 10
292.6000000000002
 20
-709.7591500196077
 30
0.0
 10
292.6000000000001
 20
-709.6679474909444
 30
0.0
  0
SPLINE
  5
11A
330
1F
100
AcDbEntity
  8
0
  6
Continuous
 62
   144
370
    18
100
AcDbSpline
210
0.0
220
0.0
230
1.0
 70
     8
 71
     3
 72
    10
 73
     6
 74
     0
 42
0.000000001
 43
0.00000001
 40
0.0
 40
0.0
 40
0.0
 40
0.0
 40
0.3351938552479472
 40
0.6677411770832675
 40
1.0
 40
1.0
 40
1.0
 40
1.0
 10
-293.3000000000001
 20
-708.9679474909441
 30
0.0
 10
-293.2776165597645
 20
-708.9685889400657
 30
0.0
 10
-293.2330264084354
 20
-708.9698667737276
 30
0.0
 10
-293.1656690342311
 20
-708.9796124967478
 30
0.0
 10
-293.1218833443389
 20
-708.9912905866512
 30
0.0
 10
-293.1
 20
-708.9971270976943
 30
0.0
  0
SPLINE
  5
11B
330
1F
100
AcDbEntity
  8
0
  6
Continuous
 62
   144
370
    18
100
AcDbSpline
210
0.0
220
0.0
230
1.0
 70
     8
 71
     3
 72
    10
 73
     6
 74
     0
 42
0.000000001
 43
0.00000001
 40
0.0
 40
0.0
 40
0.0
 40
0.0
 40
0.33225882292748
 40
0.6648061447628839
 40
1.0
 40
1.0
 40
1.0
 40
1.0
 10
-293.1000000000001
 20
-123.7387678841943
 30
0.0
 10
-293.1218833443398
 20
-123.7446043952372
 30
0.0
 10
-293.1656690342327
 20
-123.7562824851405
 30
0.0
 10
-293.233026408437
 20
-123.7660282081611
 30
0.0
 10
-293.2776165597654
 20
-123.767306041823
 30
0.0
 10
-293.3000000000002
 20
-123.7679474909446
 30
0.0
  0
SPLINE
  5
11C
330
1F
100
AcDbEntity
  8
0
  6
Continuous
 62
   144
370
    18
100
AcDbSpline
210
0.0
220
0.0
230
1.0
 70
    24
 71
     3
 72
    14
 73
    10
 74
     0
 42
0.000000001
 43
0.00000001
 40
0.0
 40
0.0
 40
0.0
 40
0.0
 40
0.25
 40
0.25
 40
0.5
 40
0.5
 40
0.75
 40
0.75
 40
1.0
 40
1.0
 40
1.0
 40
1.0
 10
-293.3
 20
-123.7679474909443
 30
0.0
 10
-293.3912025286635
 20
-123.7679474909443
 30
0.0
 10
-293.4843443205001
 20
-123.7679474909443
 30
0.0
 10
-293.6579536099332
 20
-123.7679474909443
 30
0.0
 10
-293.7380831519648
 20
-123.7679474909444
 30
0.0
 10
-293.8690415759825
 20
-123.7679474909444
 30
0.0
 10
-293.9196391877919
 20
-123.7679474909444
 30
0.0
 10
-293.9850605822566
 20
-123.7679474909443
 30
0.0
 10
-293.9999999999999
 20
-123.7679474909443
 30
0.0
 10
-294.0000000000001
 20
-123.7679474909443
 30
0.0
  0
SPLINE
  5
11D
330
1F
100
AcDbEntity
  8
0
  6
Continuous
 62
   144
370
    18
100
AcDbSpline
210
0.0
220
0.0
230
1.0
 70
    24
 71
     3
 72
    14
 73
    10
 74
     0
 42
0.000000001
 43
0.00000001
 40
0.0
 40
0.0
 40
0.0
 40
0.0
 40
0.25
 40
0.25
 40
0.5
 40
0.5
 40
0.75
 40
0.75
 40
1.0
 40
1.0
 40
1.0
 40
1.0
 10
-294.0000000000001
 20
-708.9679474909443
 30
0.0
 10
-293.9999999999999
 20
-708.9679474909443
 30
0.0
 10
-293.9850605822568
 20
-708.9679474909444
 30
0.0
 10
-293.9196391877937
 20
-708.9679474909442
 30
0.0
 10
-293.8690415759858
 20
-708.9679474909445
 30
0.0
 10
-293.7380831519716
 20
-708.9679474909444
 30
0.0
 10
-293.6579536099421
 20
-708.9679474909443
 30
0.0
 10
-293.4843443205128
 20
-708.9679474909444
 30
0.0
 10
-293.3912025286779
 20
-708.9679474909443
 30
0.0
 10
-293.300000000016
 20
-708.9679474909443
 30
0.0
  0
SPLINE
  5
120
330
1F
100
AcDbEntity
  8
0
  6
Continuous
 62
   144
370
    18
100
AcDbSpline
210
0.0
220
0.0
230
1.0
 70
     8
 71
     3
 72
    10
 73
     6
 74
     0
 42
0.000000001
 43
0.00000001
 40
0.0
 40
0.0
 40
0.0
 40
0.0
 40
0.3351938552369377
 40
0.6677411770723669
 40
1.0
 40
1.0
 40
1.0
 40
1.0
 10
293.3000000000002
 20
-123.7679474909445
 30
0.0
 10
293.2776165597653
 20
-123.7673060418229
 30
0.0
 10
293.2330264084369
 20
-123.766028208161
 30
0.0
 10
293.1656690342326
 20
-123.7562824851405
 30
0.0
 10
293.1218833443397
 20
-123.7446043952372
 30
0.0
 10
293.1000000000001
 20
-123.7387678841943
 30
0.0
  0
SPLINE
  5
121
330
1F
100
AcDbEntity
  8
0
  6
Continuous
 62
   144
370
    18
100
AcDbSpline
210
0.0
220
0.0
230
1.0
 70
     8
 71
     3
 72
    10
 73
     6
 74
     0
 42
0.000000001
 43
0.00000001
 40
0.0
 40
0.0
 40
0.0
 40
0.0
 40
0.3322588229173002
 40
0.6648061447525855
 40
1.0
 40
1.0
 40
1.0
 40
1.0
 10
293.1000000000001
 20
-708.9971270976943
 30
0.0
 10
293.121883344339
 20
-708.9912905866515
 30
0.0
 10
293.1656690342313
 20
-708.9796124967482
 30
0.0
 10
293.2330264084356
 20
-708.9698667737277
 30
0.0
 10
293.2776165597646
 20
-708.9685889400662
 30
0.0
 10
293.3000000000002
 20
-708.9679474909445
 30
0.0
  0
SPLINE
  5
122
330
1F
100
AcDbEntity
  8
0
  6
Continuous
 62
   144
370
    18
100
AcDbSpline
210
0.0
220
0.0
230
1.0
 70
    24
 71
     3
 72
    14
 73
    10
 74
     0
 42
0.000000001
 43
0.00000001
 40
0.0
 40
0.0
 40
0.0
 40
0.0
 40
0.2500000000000001
 40
0.2500000000000001
 40
0.5000000000000001
 40
0.5000000000000001
 40
0.75
 40
0.75
 40
1.0
 40
1.0
 40
1.0
 40
1.0
 10
293.300000000016
 20
-708.9679474909443
 30
0.0
 10
293.3912025286779
 20
-708.9679474909444
 30
0.0
 10
293.4843443205127
 20
-708.9679474909444
 30
0.0
 10
293.6579536099418
 20
-708.9679474909445
 30
0.0
 10
293.7380831519714
 20
-708.9679474909444
 30
0.0
 10
293.8690415759858
 20
-708.9679474909445
 30
0.0
 10
293.9196391877938
 20
-708.9679474909445
 30
0.0
 10
293.9850605822568
 20
-708.9679474909447
 30
0.0
 10
294.0000000000001
 20
-708.9679474909443
 30
0.0
 10
294.0000000000001
 20
-708.9679474909443
 30
0.0
  0
SPLINE
  5
123
330
1F
100
AcDbEntity
  8
0
  6
Continuous
 62
   144
370
    18
100
AcDbSpline
210
0.0
220
0.0
230
1.0
 70
    24
 71
     3
 72
    14
 73
    10
 74
     0
 42
0.000000001
 43
0.00000001
 40
0.0
 40
0.0
 40
0.0
 40
0.0
 40
0.25
 40
0.25
 40
0.5
 40
0.5
 40
0.75
 40
0.75
 40
1.0
 40
1.0
 40
1.0
 40
1.0
 10
294.0000000000001
 20
-123.7679474909443
 30
0.0
 10
294.0000000000001
 20
-123.7679474909443
 30
0.0
 10
293.9850605822564
 20
-123.7679474909443
 30
0.0
 10
293.9196391877918
 20
-123.7679474909443
 30
0.0
 10
293.8690415759825
 20
-123.7679474909444
 30
0.0
 10
293.7380831519648
 20
-123.7679474909444
 30
0.0
 10
293.6579536099332
 20
-123.7679474909444
 30
0.0
 10
293.4843443205
 20
-123.7679474909443
 30
0.0
 10
293.3912025286633
 20
-123.7679474909443
 30
0.0
 10
293.3000000000001
 20
-123.7679474909443
 30
0.0
  0
SPLINE
  5
124
330
1F
100
AcDbEntity
  8
0
  6
Continuous
 62
     7
370
    25
100
AcDbSpline
210
0.0
220
0.0
230
1.0
 70
    11
 71
     3
 72
    38
 73
    34
 74
     0
 42
0.000000001
 43
0.00000001
 40
0.0
 40
0.0
 40
0.0
 40
0.0
 40
0.0625
 40
0.0625
 40
0.125
 40
0.125
 40
0.1875
 40
0.1875
 40
0.25
 40
0.25
 40
0.3125
 40
0.3125
 40
0.375
 40
0.375
 40
0.4375
 40
0.4375
 40
0.5
 40
0.5
 40
0.5625
 40
0.5625
 40
0.625
 40
0.625
 40
0.6875
 40
0.6875
 40
0.75
 40
0.75
 40
0.8125
 40
0.8125
 40
0.875
 40
0.875
 40
0.9375
 40
0.9375
 40
1.0
 40
1.0
 40
1.0
 40
1.0
 10
-235.0000000000001
 20
-639.7679474909442
 30
0.0
 10
-234.8114381916836
 20
-639.7679474909439
 30
0.0
 10
-234.6080035853152
 20
-639.8023134730458
 30
0.0
 10
-234.2140933440868
 20
-639.9582589454426
 30
0.0
 10
-234.0248388668022
 20
-640.0803669243454
 30
0.0
 10
-233.7124194334012
 20
-640.3927863577461
 30
0.0
 10
-233.5903114544988
 20
-640.582040835031
 30
0.0
 10
-233.4343659821018
 20
-640.9759510762592
 30
0.0
 10
-233.4000000000002
 20
-641.1793856826283
 30
0.0
 10
-233.4000000000002
 20
-641.5565092992607
 30
0.0
 10
-233.4343659821018
 20
-641.7599439056291
 30
0.0
 10
-233.5903114544988
 20
-642.1538541468574
 30
0.0
 10
-233.7124194334012
 20
-642.3431086241422
 30
0.0
 10
-234.0248388668022
 20
-642.6555280575433
 30
0.0
 10
-234.214093344087
 20
-642.7776360364462
 30
0.0
 10
-234.6080035853153
 20
-642.9335815088425
 30
0.0
 10
-234.8114381916836
 20
-642.9679474909442
 30
0.0
 10
-235.1885618083165
 20
-642.9679474909442
 30
0.0
 10
-235.3919964146848
 20
-642.9335815088427
 30
0.0
 10
-235.7859066559134
 20
-642.7776360364455
 30
0.0
 10
-235.975161133198
 20
-642.6555280575432
 30
0.0
 10
-236.287580566599
 20
-642.343108624142
 30
0.0
 10
-236.4096885455015
 20
-642.1538541468574
 30
0.0
 10
-236.5656340178984
 20
-641.7599439056288
 30
0.0
 10
-236.6
 20
-641.5565092992606
 30
0.0
 10
-236.6
 20
-641.1793856826275
 30
0.0
 10
-236.5656340178985
 20
-640.9759510762594
 30
0.0
 10
-236.4096885455015
 20
-640.582040835031
 30
0.0
 10
-236.2875805665992
 20
-640.392786357746
 30
0.0
 10
-235.975161133198
 20
-640.080366924345
 30
0.0
 10
-235.7859066559133
 20
-639.9582589454429
 30
0.0
 10
-235.3919964146849
 20
-639.8023134730455
 30
0.0
 10
-235.1885618083165
 20
-639.7679474909445
 30
0.0
 10
-235.0000000000001
 20
-639.7679474909442
 30
0.0
  0
SPLINE
  5
125
330
1F
100
AcDbEntity
  8
0
  6
Continuous
 62
     7
370
    25
100
AcDbSpline
210
0.0
220
0.0
230
1.0
 70
    11
 71
     3
 72
    38
 73
    34
 74
     0
 42
0.000000001
 43
0.00000001
 40
0.0
 40
0.0
 40
0.0
 40
0.0
 40
0.0625
 40
0.0625
 40
0.125
 40
0.125
 40
0.1875
 40
0.1875
 40
0.25
 40
0.25
 40
0.3125
 40
0.3125
 40
0.375
 40
0.375
 40
0.4375
 40
0.4375
 40
0.5
 40
0.5
 40
0.5625
 40
0.5625
 40
0.625
 40
0.625
 40
0.6875
 40
0.6875
 40
0.75
 40
0.75
 40
0.8125
 40
0.8125
 40
0.875
 40
0.875
 40
0.9375
 40
0.9375
 40
1.0
 40
1.0
 40
1.0
 40
1.0
 10
235.0000000000001
 20
-639.7679474909444
 30
0.0
 10
235.1885618083165
 20
-639.767947490944
 30
0.0
 10
235.3919964146849
 20
-639.8023134730457
 30
0.0
 10
235.7859066559133
 20
-639.9582589454425
 30
0.0
 10
235.9751611331981
 20
-640.0803669243451
 30
0.0
 10
236.287580566599
 20
-640.3927863577456
 30
0.0
 10
236.4096885455015
 20
-640.582040835031
 30
0.0
 10
236.5656340178984
 20
-640.9759510762592
 30
0.0
 10
236.6000000000001
 20
-641.1793856826283
 30
0.0
 10
236.6000000000001
 20
-641.5565092992607
 30
0.0
 10
236.5656340178986
 20
-641.7599439056291
 30
0.0
 10
236.4096885455015
 20
-642.1538541468574
 30
0.0
 10
236.2875805665991
 20
-642.3431086241422
 30
0.0
 10
235.9751611331981
 20
-642.6555280575433
 30
0.0
 10
235.7859066559134
 20
-642.7776360364462
 30
0.0
 10
235.3919964146848
 20
-642.9335815088425
 30
0.0
 10
235.1885618083164
 20
-642.9679474909442
 30
0.0
 10
234.8114381916837
 20
-642.9679474909442
 30
0.0
 10
234.6080035853153
 20
-642.9335815088426
 30
0.0
 10
234.2140933440869
 20
-642.7776360364454
 30
0.0
 10
234.0248388668022
 20
-642.6555280575432
 30
0.0
 10
233.7124194334011
 20
-642.3431086241422
 30
0.0
 10
233.5903114544986
 20
-642.1538541468574
 30
0.0
 10
233.4343659821017
 20
-641.7599439056288
 30
0.0
 10
233.4000000000001
 20
-641.5565092992609
 30
0.0
 10
233.4000000000001
 20
-641.1793856826276
 30
0.0
 10
233.4343659821017
 20
-640.9759510762592
 30
0.0
 10
233.5903114544988
 20
-640.5820408350306
 30
0.0
 10
233.7124194334012
 20
-640.3927863577462
 30
0.0
 10
234.0248388668022
 20
-640.0803669243452
 30
0.0
 10
234.2140933440869
 20
-639.9582589454426
 30
0.0
 10
234.6080035853153
 20
-639.8023134730457
 30
0.0
 10
234.8114381916837
 20
-639.7679474909447
 30
0.0
 10
235.0000000000001
 20
-639.7679474909444
 30
0.0
  0
SPLINE
  5
126
330
1F
100
AcDbEntity
  8
0
  6
Continuous
 62
     7
370
    25
100
AcDbSpline
210
0.0
220
0.0
230
1.0
 70
    11
 71
     3
 72
    38
 73
    34
 74
     0
 42
0.000000001
 43
0.00000001
 40
0.0
 40
0.0
 40
0.0
 40
0.0
 40
0.0625
 40
0.0625
 40
0.125
 40
0.125
 40
0.1875
 40
0.1875
 40
0.25
 40
0.25
 40
0.3124999999999999
 40
0.3124999999999999
 40
0.3749999999999999
 40
0.3749999999999999
 40
0.4375
 40
0.4375
 40
0.5
 40
0.5
 40
0.5625
 40
0.5625
 40
0.625
 40
0.625
 40
0.6875
 40
0.6875
 40
0.75
 40
0.75
 40
0.8125000000000001
 40
0.8125000000000001
 40
0.8750000000000001
 40
0.8750000000000001
 40
0.9375000000000001
 40
0.9375000000000001
 40
1.0
 40
1.0
 40
1.0
 40
1.0
 10
0.0000000000000276
 20
-639.7679474909444
 30
0.0
 10
0.1885618083164453
 20
-639.767947490944
 30
0.0
 10
0.3919964146848476
 20
-639.802313473046
 30
0.0
 10
0.785906655913271
 20
-639.9582589454429
 30
0.0
 10
0.9751611331980103
 20
-640.0803669243454
 30
0.0
 10
1.287580566599056
 20
-640.3927863577461
 30
0.0
 10
1.409688545501442
 20
-640.5820408350312
 30
0.0
 10
1.565634017898443
 20
-640.9759510762593
 30
0.0
 10
1.600000000000046
 20
-641.1793856826281
 30
0.0
 10
1.600000000000046
 20
-641.5565092992606
 30
0.0
 10
1.565634017898498
 20
-641.7599439056293
 30
0.0
 10
1.409688545501442
 20
-642.1538541468576
 30
0.0
 10
1.287580566599056
 20
-642.3431086241425
 30
0.0
 10
0.9751611331980659
 20
-642.6555280575433
 30
0.0
 10
0.785906655913271
 20
-642.7776360364456
 30
0.0
 10
0.3919964146849031
 20
-642.9335815088425
 30
0.0
 10
0.1885618083165008
 20
-642.9679474909444
 30
0.0
 10
-0.1885618083163343
 20
-642.9679474909441
 30
0.0
 10
-0.391996414684681
 20
-642.9335815088427
 30
0.0
 10
-0.7859066559131045
 20
-642.7776360364454
 30
0.0
 10
-0.9751611331978993
 20
-642.6555280575433
 30
0.0
 10
-1.287580566598889
 20
-642.3431086241425
 30
0.0
 10
-1.409688545501275
 20
-642.1538541468574
 30
0.0
 10
-1.565634017898332
 20
-641.7599439056288
 30
0.0
 10
-1.599999999999935
 20
-641.5565092992608
 30
0.0
 10
-1.599999999999935
 20
-641.1793856826276
 30
0.0
 10
-1.565634017898332
 20
-640.9759510762593
 30
0.0
 10
-1.409688545501331
 20
-640.5820408350309
 30
0.0
 10
-1.287580566598945
 20
-640.3927863577461
 30
0.0
 10
-0.9751611331978993
 20
-640.0803669243455
 30
0.0
 10
-0.78590665591316
 20
-639.9582589454428
 30
0.0
 10
-0.3919964146847366
 20
-639.8023134730458
 30
0.0
 10
-0.1885618083163898
 20
-639.7679474909445
 30
0.0
 10
0.0000000000000276
 20
-639.7679474909443
 30
0.0
  0
SPLINE
  5
127
330
1F
100
AcDbEntity
  8
0
  6
Continuous
 62
     7
370
    25
100
AcDbSpline
210
0.0
220
0.0
230
1.0
 70
    11
 71
     3
 72
    38
 73
    34
 74
     0
 42
0.000000001
 43
0.00000001
 40
0.0
 40
0.0
 40
0.0
 40
0.0
 40
0.0625
 40
0.0625
 40
0.125
 40
0.125
 40
0.1875
 40
0.1875
 40
0.25
 40
0.25
 40
0.3125
 40
0.3125
 40
0.375
 40
0.375
 40
0.4375
 40
0.4375
 40
0.5
 40
0.5
 40
0.5625
 40
0.5625
 40
0.625
 40
0.625
 40
0.6875
 40
0.6875
 40
0.75
 40
0.75
 40
0.8125
 40
0.8125
 40
0.875
 40
0.875
 40
0.9375
 40
0.9375
 40
1.0
 40
1.0
 40
1.0
 40
1.0
 10
-235.0000000000001
 20
-589.7679474909442
 30
0.0
 10
-234.8114381916836
 20
-589.767947490944
 30
0.0
 10
-234.6080035853152
 20
-589.8023134730458
 30
0.0
 10
-234.2140933440868
 20
-589.9582589454426
 30
0.0
 10
-234.0248388668022
 20
-590.0803669243453
 30
0.0
 10
-233.7124194334012
 20
-590.3927863577462
 30
0.0
 10
-233.5903114544988
 20
-590.5820408350313
 30
0.0
 10
-233.4343659821018
 20
-590.9759510762592
 30
0.0
 10
-233.4000000000002
 20
-591.179385682628
 30
0.0
 10
-233.4000000000002
 20
-591.5565092992607
 30
0.0
 10
-233.4343659821018
 20
-591.7599439056294
 30
0.0
 10
-233.5903114544988
 20
-592.1538541468576
 30
0.0
 10
-233.7124194334012
 20
-592.3431086241421
 30
0.0
 10
-234.0248388668022
 20
-592.6555280575429
 30
0.0
 10
-234.214093344087
 20
-592.7776360364459
 30
0.0
 10
-234.6080035853153
 20
-592.9335815088426
 30
0.0
 10
-234.8114381916836
 20
-592.9679474909443
 30
0.0
 10
-235.1885618083164
 20
-592.9679474909443
 30
0.0
 10
-235.3919964146848
 20
-592.9335815088425
 30
0.0
 10
-235.7859066559134
 20
-592.7776360364458
 30
0.0
 10
-235.9751611331982
 20
-592.6555280575434
 30
0.0
 10
-236.287580566599
 20
-592.3431086241422
 30
0.0
 10
-236.4096885455015
 20
-592.1538541468574
 30
0.0
 10
-236.5656340178984
 20
-591.7599439056291
 30
0.0
 10
-236.6
 20
-591.5565092992607
 30
0.0
 10
-236.6000000000001
 20
-591.1793856826279
 30
0.0
 10
-236.5656340178985
 20
-590.9759510762593
 30
0.0
 10
-236.4096885455015
 20
-590.582040835031
 30
0.0
 10
-236.287580566599
 20
-590.3927863577462
 30
0.0
 10
-235.9751611331982
 20
-590.0803669243451
 30
0.0
 10
-235.7859066559134
 20
-589.9582589454428
 30
0.0
 10
-235.3919964146848
 20
-589.802313473046
 30
0.0
 10
-235.1885618083165
 20
-589.7679474909442
 30
0.0
 10
-235.0000000000001
 20
-589.7679474909442
 30
0.0
  0
SPLINE
  5
128
330
1F
100
AcDbEntity
  8
0
  6
Continuous
 62
     7
370
    25
100
AcDbSpline
210
0.0
220
0.0
230
1.0
 70
    11
 71
     3
 72
    38
 73
    34
 74
     0
 42
0.000000001
 43
0.00000001
 40
0.0
 40
0.0
 40
0.0
 40
0.0
 40
0.0625
 40
0.0625
 40
0.125
 40
0.125
 40
0.1875
 40
0.1875
 40
0.25
 40
0.25
 40
0.3125
 40
0.3125
 40
0.375
 40
0.375
 40
0.4375
 40
0.4375
 40
0.5
 40
0.5
 40
0.5625
 40
0.5625
 40
0.625
 40
0.625
 40
0.6875
 40
0.6875
 40
0.75
 40
0.75
 40
0.8125
 40
0.8125
 40
0.875
 40
0.875
 40
0.9375
 40
0.9375
 40
1.0
 40
1.0
 40
1.0
 40
1.0
 10
235.0000000000001
 20
-589.7679474909442
 30
0.0
 10
235.1885618083165
 20
-589.7679474909442
 30
0.0
 10
235.3919964146849
 20
-589.8023134730457
 30
0.0
 10
235.7859066559133
 20
-589.9582589454426
 30
0.0
 10
235.9751611331981
 20
-590.080366924345
 30
0.0
 10
236.287580566599
 20
-590.3927863577462
 30
0.0
 10
236.4096885455015
 20
-590.5820408350313
 30
0.0
 10
236.5656340178984
 20
-590.9759510762592
 30
0.0
 10
236.6000000000001
 20
-591.1793856826282
 30
0.0
 10
236.6000000000001
 20
-591.5565092992607
 30
0.0
 10
236.5656340178986
 20
-591.7599439056289
 30
0.0
 10
236.4096885455015
 20
-592.1538541468575
 30
0.0
 10
236.2875805665991
 20
-592.3431086241421
 30
0.0
 10
235.9751611331981
 20
-592.6555280575432
 30
0.0
 10
235.7859066559134
 20
-592.7776360364459
 30
0.0
 10
235.3919964146848
 20
-592.9335815088426
 30
0.0
 10
235.1885618083164
 20
-592.9679474909441
 30
0.0
 10
234.8114381916837
 20
-592.9679474909443
 30
0.0
 10
234.6080035853153
 20
-592.9335815088426
 30
0.0
 10
234.2140933440869
 20
-592.7776360364454
 30
0.0
 10
234.0248388668022
 20
-592.6555280575433
 30
0.0
 10
233.7124194334011
 20
-592.3431086241421
 30
0.0
 10
233.5903114544986
 20
-592.1538541468577
 30
0.0
 10
233.4343659821017
 20
-591.7599439056291
 30
0.0
 10
233.4000000000001
 20
-591.5565092992607
 30
0.0
 10
233.4000000000001
 20
-591.1793856826279
 30
0.0
 10
233.4343659821017
 20
-590.9759510762593
 30
0.0
 10
233.5903114544988
 20
-590.582040835031
 30
0.0
 10
233.7124194334012
 20
-590.3927863577462
 30
0.0
 10
234.0248388668022
 20
-590.0803669243451
 30
0.0
 10
234.2140933440869
 20
-589.9582589454428
 30
0.0
 10
234.6080035853153
 20
-589.802313473046
 30
0.0
 10
234.8114381916837
 20
-589.7679474909443
 30
0.0
 10
235.0000000000001
 20
-589.7679474909442
 30
0.0
  0
SPLINE
  5
129
330
1F
100
AcDbEntity
  8
0
  6
Continuous
 62
     7
370
    25
100
AcDbSpline
210
0.0
220
0.0
230
1.0
 70
    11
 71
     3
 72
    38
 73
    34
 74
     0
 42
0.000000001
 43
0.00000001
 40
0.0
 40
0.0
 40
0.0
 40
0.0
 40
0.0625
 40
0.0625
 40
0.125
 40
0.125
 40
0.1875
 40
0.1875
 40
0.25
 40
0.25
 40
0.3125
 40
0.3125
 40
0.375
 40
0.375
 40
0.4375
 40
0.4375
 40
0.5
 40
0.5
 40
0.5625
 40
0.5625
 40
0.625
 40
0.625
 40
0.6875
 40
0.6875
 40
0.75
 40
0.75
 40
0.8125
 40
0.8125
 40
0.875
 40
0.875
 40
0.9375
 40
0.9375
 40
1.0
 40
1.0
 40
1.0
 40
1.0
 10
-235.0000000000001
 20
-539.7679474909444
 30
0.0
 10
-234.8114381916836
 20
-539.7679474909443
 30
0.0
 10
-234.6080035853154
 20
-539.8023134730458
 30
0.0
 10
-234.2140933440869
 20
-539.9582589454429
 30
0.0
 10
-234.0248388668024
 20
-540.0803669243454
 30
0.0
 10
-233.7124194334012
 20
-540.392786357746
 30
0.0
 10
-233.5903114544989
 20
-540.5820408350311
 30
0.0
 10
-233.4343659821017
 20
-540.9759510762595
 30
0.0
 10
-233.4000000000002
 20
-541.179385682628
 30
0.0
 10
-233.4000000000002
 20
-541.5565092992607
 30
0.0
 10
-233.4343659821018
 20
-541.7599439056291
 30
0.0
 10
-233.5903114544987
 20
-542.1538541468576
 30
0.0
 10
-233.712419433401
 20
-542.3431086241424
 30
0.0
 10
-234.024838866802
 20
-542.6555280575435
 30
0.0
 10
-234.2140933440867
 20
-542.7776360364455
 30
0.0
 10
-234.6080035853152
 20
-542.9335815088425
 30
0.0
 10
-234.8114381916836
 20
-542.9679474909443
 30
0.0
 10
-235.1885618083164
 20
-542.9679474909442
 30
0.0
 10
-235.3919964146848
 20
-542.9335815088427
 30
0.0
 10
-235.785906655913
 20
-542.7776360364455
 30
0.0
 10
-235.9751611331979
 20
-542.6555280575435
 30
0.0
 10
-236.2875805665988
 20
-542.3431086241425
 30
0.0
 10
-236.4096885455013
 20
-542.1538541468575
 30
0.0
 10
-236.5656340178984
 20
-541.7599439056291
 30
0.0
 10
-236.6
 20
-541.5565092992606
 30
0.0
 10
-236.6000000000001
 20
-541.1793856826278
 30
0.0
 10
-236.5656340178985
 20
-540.9759510762599
 30
0.0
 10
-236.4096885455015
 20
-540.5820408350311
 30
0.0
 10
-236.287580566599
 20
-540.3927863577463
 30
0.0
 10
-235.975161133198
 20
-540.0803669243453
 30
0.0
 10
-235.7859066559133
 20
-539.9582589454429
 30
0.0
 10
-235.3919964146848
 20
-539.8023134730457
 30
0.0
 10
-235.1885618083165
 20
-539.7679474909444
 30
0.0
 10
-235.0000000000001
 20
-539.7679474909444
 30
0.0
  0
SPLINE
  5
12A
330
1F
100
AcDbEntity
  8
0
  6
Continuous
 62
     7
370
    25
100
AcDbSpline
210
0.0
220
0.0
230
1.0
 70
    11
 71
     3
 72
    38
 73
    34
 74
     0
 42
0.000000001
 43
0.00000001
 40
0.0
 40
0.0
 40
0.0
 40
0.0
 40
0.0625
 40
0.0625
 40
0.125
 40
0.125
 40
0.1875
 40
0.1875
 40
0.25
 40
0.25
 40
0.3125
 40
0.3125
 40
0.375
 40
0.375
 40
0.4375
 40
0.4375
 40
0.5
 40
0.5
 40
0.5625
 40
0.5625
 40
0.625
 40
0.625
 40
0.6875
 40
0.6875
 40
0.75
 40
0.75
 40
0.8125
 40
0.8125
 40
0.875
 40
0.875
 40
0.9375
 40
0.9375
 40
1.0
 40
1.0
 40
1.0
 40
1.0
 10
-235.0000000000001
 20
-489.7679474909443
 30
0.0
 10
-234.8114381916836
 20
-489.7679474909443
 30
0.0
 10
-234.6080035853152
 20
-489.8023134730459
 30
0.0
 10
-234.2140933440867
 20
-489.9582589454427
 30
0.0
 10
-234.0248388668022
 20
-490.0803669243454
 30
0.0
 10
-233.7124194334009
 20
-490.3927863577462
 30
0.0
 10
-233.5903114544987
 20
-490.5820408350311
 30
0.0
 10
-233.4343659821016
 20
-490.9759510762594
 30
0.0
 10
-233.4000000000002
 20
-491.179385682628
 30
0.0
 10
-233.4000000000001
 20
-491.5565092992607
 30
0.0
 10
-233.4343659821016
 20
-491.7599439056293
 30
0.0
 10
-233.5903114544987
 20
-492.1538541468575
 30
0.0
 10
-233.7124194334009
 20
-492.3431086241423
 30
0.0
 10
-234.0248388668019
 20
-492.6555280575432
 30
0.0
 10
-234.2140933440867
 20
-492.7776360364459
 30
0.0
 10
-234.6080035853152
 20
-492.9335815088427
 30
0.0
 10
-234.8114381916836
 20
-492.9679474909442
 30
0.0
 10
-235.1885618083164
 20
-492.9679474909443
 30
0.0
 10
-235.3919964146849
 20
-492.9335815088426
 30
0.0
 10
-235.7859066559133
 20
-492.7776360364456
 30
0.0
 10
-235.9751611331982
 20
-492.6555280575432
 30
0.0
 10
-236.287580566599
 20
-492.3431086241422
 30
0.0
 10
-236.4096885455015
 20
-492.1538541468575
 30
0.0
 10
-236.5656340178984
 20
-491.7599439056289
 30
0.0
 10
-236.6000000000001
 20
-491.5565092992607
 30
0.0
 10
-236.6
 20
-491.1793856826278
 30
0.0
 10
-236.5656340178985
 20
-490.9759510762597
 30
0.0
 10
-236.4096885455013
 20
-490.5820408350309
 30
0.0
 10
-236.287580566599
 20
-490.3927863577464
 30
0.0
 10
-235.9751611331979
 20
-490.0803669243454
 30
0.0
 10
-235.7859066559132
 20
-489.958258945443
 30
0.0
 10
-235.3919964146848
 20
-489.8023134730461
 30
0.0
 10
-235.1885618083165
 20
-489.7679474909444
 30
0.0
 10
-235.0000000000001
 20
-489.7679474909443
 30
0.0
  0
SPLINE
  5
12B
330
1F
100
AcDbEntity
  8
0
  6
Continuous
 62
     7
370
    25
100
AcDbSpline
210
0.0
220
0.0
230
1.0
 70
    11
 71
     3
 72
    38
 73
    34
 74
     0
 42
0.000000001
 43
0.00000001
 40
0.0
 40
0.0
 40
0.0
 40
0.0
 40
0.0625
 40
0.0625
 40
0.125
 40
0.125
 40
0.1875
 40
0.1875
 40
0.25
 40
0.25
 40
0.3125
 40
0.3125
 40
0.375
 40
0.375
 40
0.4375
 40
0.4375
 40
0.5
 40
0.5
 40
0.5625
 40
0.5625
 40
0.625
 40
0.625
 40
0.6875
 40
0.6875
 40
0.75
 40
0.75
 40
0.8125
 40
0.8125
 40
0.875
 40
0.875
 40
0.9375
 40
0.9375
 40
1.0
 40
1.0
 40
1.0
 40
1.0
 10
235.0
 20
-489.7679474909443
 30
0.0
 10
235.1885618083165
 20
-489.7679474909443
 30
0.0
 10
235.3919964146849
 20
-489.8023134730459
 30
0.0
 10
235.7859066559133
 20
-489.9582589454427
 30
0.0
 10
235.9751611331982
 20
-490.0803669243455
 30
0.0
 10
236.2875805665991
 20
-490.3927863577463
 30
0.0
 10
236.4096885455016
 20
-490.5820408350312
 30
0.0
 10
236.5656340178984
 20
-490.9759510762594
 30
0.0
 10
236.6
 20
-491.179385682628
 30
0.0
 10
236.6000000000001
 20
-491.5565092992607
 30
0.0
 10
236.5656340178985
 20
-491.7599439056293
 30
0.0
 10
236.4096885455015
 20
-492.1538541468575
 30
0.0
 10
236.2875805665991
 20
-492.3431086241424
 30
0.0
 10
235.9751611331981
 20
-492.6555280575432
 30
0.0
 10
235.7859066559134
 20
-492.7776360364459
 30
0.0
 10
235.3919964146849
 20
-492.9335815088428
 30
0.0
 10
235.1885618083165
 20
-492.9679474909443
 30
0.0
 10
234.8114381916836
 20
-492.9679474909443
 30
0.0
 10
234.6080035853153
 20
-492.9335815088426
 30
0.0
 10
234.2140933440869
 20
-492.7776360364456
 30
0.0
 10
234.0248388668022
 20
-492.6555280575432
 30
0.0
 10
233.7124194334011
 20
-492.3431086241422
 30
0.0
 10
233.5903114544986
 20
-492.1538541468576
 30
0.0
 10
233.4343659821017
 20
-491.7599439056287
 30
0.0
 10
233.4000000000001
 20
-491.5565092992607
 30
0.0
 10
233.4000000000001
 20
-491.1793856826278
 30
0.0
 10
233.4343659821017
 20
-490.9759510762598
 30
0.0
 10
233.5903114544988
 20
-490.5820408350311
 30
0.0
 10
233.7124194334013
 20
-490.3927863577464
 30
0.0
 10
234.0248388668022
 20
-490.0803669243451
 30
0.0
 10
234.214093344087
 20
-489.958258945443
 30
0.0
 10
234.6080035853154
 20
-489.8023134730457
 30
0.0
 10
234.8114381916836
 20
-489.7679474909444
 30
0.0
 10
235.0
 20
-489.7679474909443
 30
0.0
  0
SPLINE
  5
12C
330
1F
100
AcDbEntity
  8
0
  6
Continuous
 62
     7
370
    25
100
AcDbSpline
210
0.0
220
0.0
230
1.0
 70
    11
 71
     3
 72
    38
 73
    34
 74
     0
 42
0.000000001
 43
0.00000001
 40
0.0
 40
0.0
 40
0.0
 40
0.0
 40
0.0625
 40
0.0625
 40
0.125
 40
0.125
 40
0.1875
 40
0.1875
 40
0.25
 40
0.25
 40
0.3125
 40
0.3125
 40
0.375
 40
0.375
 40
0.4375
 40
0.4375
 40
0.5
 40
0.5
 40
0.5625
 40
0.5625
 40
0.625
 40
0.625
 40
0.6875
 40
0.6875
 40
0.75
 40
0.75
 40
0.8125
 40
0.8125
 40
0.875
 40
0.875
 40
0.9375
 40
0.9375
 40
1.0
 40
1.0
 40
1.0
 40
1.0
 10
-235.0000000000001
 20
-439.7679474909443
 30
0.0
 10
-234.8114381916836
 20
-439.7679474909442
 30
0.0
 10
-234.6080035853154
 20
-439.802313473046
 30
0.0
 10
-234.2140933440868
 20
-439.9582589454428
 30
0.0
 10
-234.0248388668022
 20
-440.0803669243456
 30
0.0
 10
-233.7124194334012
 20
-440.3927863577462
 30
0.0
 10
-233.5903114544989
 20
-440.5820408350313
 30
0.0
 10
-233.4343659821017
 20
-440.9759510762594
 30
0.0
 10
-233.4000000000002
 20
-441.1793856826282
 30
0.0
 10
-233.4000000000001
 20
-441.5565092992607
 30
0.0
 10
-233.4343659821017
 20
-441.759943905629
 30
0.0
 10
-233.5903114544986
 20
-442.1538541468573
 30
0.0
 10
-233.7124194334009
 20
-442.3431086241423
 30
0.0
 10
-234.0248388668022
 20
-442.6555280575433
 30
0.0
 10
-234.2140933440869
 20
-442.7776360364458
 30
0.0
 10
-234.6080035853152
 20
-442.9335815088428
 30
0.0
 10
-234.8114381916836
 20
-442.9679474909444
 30
0.0
 10
-235.1885618083164
 20
-442.9679474909442
 30
0.0
 10
-235.3919964146848
 20
-442.9335815088428
 30
0.0
 10
-235.7859066559134
 20
-442.7776360364455
 30
0.0
 10
-235.9751611331983
 20
-442.6555280575433
 30
0.0
 10
-236.287580566599
 20
-442.3431086241424
 30
0.0
 10
-236.4096885455016
 20
-442.1538541468575
 30
0.0
 10
-236.5656340178984
 20
-441.7599439056291
 30
0.0
 10
-236.6
 20
-441.5565092992608
 30
0.0
 10
-236.6
 20
-441.1793856826279
 30
0.0
 10
-236.5656340178985
 20
-440.9759510762597
 30
0.0
 10
-236.4096885455015
 20
-440.5820408350311
 30
0.0
 10
-236.2875805665992
 20
-440.3927863577463
 30
0.0
 10
-235.9751611331979
 20
-440.0803669243453
 30
0.0
 10
-235.7859066559132
 20
-439.9582589454429
 30
0.0
 10
-235.3919964146848
 20
-439.8023134730458
 30
0.0
 10
-235.1885618083165
 20
-439.7679474909444
 30
0.0
 10
-235.0000000000001
 20
-439.7679474909443
 30
0.0
  0
SPLINE
  5
12D
330
1F
100
AcDbEntity
  8
0
  6
Continuous
 62
     7
370
    25
100
AcDbSpline
210
0.0
220
0.0
230
1.0
 70
    11
 71
     3
 72
    38
 73
    34
 74
     0
 42
0.000000001
 43
0.00000001
 40
0.0
 40
0.0
 40
0.0
 40
0.0
 40
0.0625
 40
0.0625
 40
0.125
 40
0.125
 40
0.1875
 40
0.1875
 40
0.25
 40
0.25
 40
0.3125
 40
0.3125
 40
0.375
 40
0.375
 40
0.4375
 40
0.4375
 40
0.5
 40
0.5
 40
0.5625
 40
0.5625
 40
0.625
 40
0.625
 40
0.6875
 40
0.6875
 40
0.75
 40
0.75
 40
0.8125
 40
0.8125
 40
0.875
 40
0.875
 40
0.9375
 40
0.9375
 40
1.0
 40
1.0
 40
1.0
 40
1.0
 10
0.0000000000000278
 20
-439.7679474909443
 30
0.0
 10
0.1885618083164453
 20
-439.7679474909443
 30
0.0
 10
0.3919964146848476
 20
-439.802313473046
 30
0.0
 10
0.7859066559132155
 20
-439.9582589454427
 30
0.0
 10
0.9751611331980103
 20
-440.0803669243454
 30
0.0
 10
1.287580566599
 20
-440.3927863577462
 30
0.0
 10
1.409688545501386
 20
-440.5820408350311
 30
0.0
 10
1.565634017898443
 20
-440.9759510762594
 30
0.0
 10
1.600000000000046
 20
-441.179385682628
 30
0.0
 10
1.600000000000046
 20
-441.5565092992607
 30
0.0
 10
1.565634017898443
 20
-441.7599439056292
 30
0.0
 10
1.409688545501386
 20
-442.1538541468576
 30
0.0
 10
1.287580566599056
 20
-442.3431086241421
 30
0.0
 10
0.9751611331980103
 20
-442.6555280575432
 30
0.0
 10
0.785906655913271
 20
-442.7776360364456
 30
0.0
 10
0.3919964146848476
 20
-442.9335815088427
 30
0.0
 10
0.1885618083164453
 20
-442.9679474909444
 30
0.0
 10
-0.1885618083163898
 20
-442.9679474909443
 30
0.0
 10
-0.3919964146847366
 20
-442.9335815088426
 30
0.0
 10
-0.78590665591316
 20
-442.7776360364456
 30
0.0
 10
-0.9751611331978993
 20
-442.6555280575433
 30
0.0
 10
-1.287580566598945
 20
-442.3431086241422
 30
0.0
 10
-1.409688545501331
 20
-442.1538541468575
 30
0.0
 10
-1.565634017898387
 20
-441.759943905629
 30
0.0
 10
-1.599999999999935
 20
-441.5565092992607
 30
0.0
 10
-1.599999999999935
 20
-441.1793856826279
 30
0.0
 10
-1.565634017898387
 20
-440.9759510762595
 30
0.0
 10
-1.409688545501331
 20
-440.5820408350311
 30
0.0
 10
-1.287580566598945
 20
-440.3927863577465
 30
0.0
 10
-0.9751611331979548
 20
-440.0803669243453
 30
0.0
 10
-0.78590665591316
 20
-439.9582589454428
 30
0.0
 10
-0.3919964146847366
 20
-439.8023134730457
 30
0.0
 10
-0.1885618083163898
 20
-439.7679474909443
 30
0.0
 10
0.0000000000000278
 20
-439.7679474909443
 30
0.0
  0
SPLINE
  5
12E
330
1F
100
AcDbEntity
  8
0
  6
Continuous
 62
     7
370
    25
100
AcDbSpline
210
0.0
220
0.0
230
1.0
 70
    11
 71
     3
 72
    38
 73
    34
 74
     0
 42
0.000000001
 43
0.00000001
 40
0.0
 40
0.0
 40
0.0
 40
0.0
 40
0.0625
 40
0.0625
 40
0.125
 40
0.125
 40
0.1875
 40
0.1875
 40
0.25
 40
0.25
 40
0.3125
 40
0.3125
 40
0.375
 40
0.375
 40
0.4375
 40
0.4375
 40
0.5
 40
0.5
 40
0.5625
 40
0.5625
 40
0.625
 40
0.625
 40
0.6875
 40
0.6875
 40
0.75
 40
0.75
 40
0.8125
 40
0.8125
 40
0.875
 40
0.875
 40
0.9375
 40
0.9375
 40
1.0
 40
1.0
 40
1.0
 40
1.0
 10
-235.0000000000001
 20
-389.7679474909442
 30
0.0
 10
-234.8114381916836
 20
-389.7679474909442
 30
0.0
 10
-234.6080035853153
 20
-389.8023134730459
 30
0.0
 10
-234.2140933440868
 20
-389.9582589454428
 30
0.0
 10
-234.0248388668022
 20
-390.0803669243455
 30
0.0
 10
-233.7124194334009
 20
-390.3927863577463
 30
0.0
 10
-233.5903114544988
 20
-390.5820408350311
 30
0.0
 10
-233.4343659821016
 20
-390.9759510762594
 30
0.0
 10
-233.4000000000001
 20
-391.179385682628
 30
0.0
 10
-233.4000000000002
 20
-391.5565092992606
 30
0.0
 10
-233.4343659821018
 20
-391.7599439056293
 30
0.0
 10
-233.5903114544987
 20
-392.1538541468576
 30
0.0
 10
-233.712419433401
 20
-392.3431086241424
 30
0.0
 10
-234.0248388668022
 20
-392.6555280575432
 30
0.0
 10
-234.2140933440869
 20
-392.7776360364458
 30
0.0
 10
-234.6080035853153
 20
-392.9335815088427
 30
0.0
 10
-234.8114381916836
 20
-392.9679474909443
 30
0.0
 10
-235.1885618083164
 20
-392.9679474909443
 30
0.0
 10
-235.3919964146849
 20
-392.9335815088428
 30
0.0
 10
-235.7859066559133
 20
-392.7776360364457
 30
0.0
 10
-235.975161133198
 20
-392.6555280575433
 30
0.0
 10
-236.287580566599
 20
-392.3431086241422
 30
0.0
 10
-236.4096885455015
 20
-392.1538541468576
 30
0.0
 10
-236.5656340178984
 20
-391.759943905629
 30
0.0
 10
-236.6000000000001
 20
-391.5565092992607
 30
0.0
 10
-236.6
 20
-391.1793856826278
 30
0.0
 10
-236.5656340178985
 20
-390.9759510762594
 30
0.0
 10
-236.4096885455015
 20
-390.5820408350311
 30
0.0
 10
-236.287580566599
 20
-390.3927863577464
 30
0.0
 10
-235.975161133198
 20
-390.0803669243455
 30
0.0
 10
-235.7859066559133
 20
-389.958258945443
 30
0.0
 10
-235.3919964146848
 20
-389.802313473046
 30
0.0
 10
-235.1885618083165
 20
-389.7679474909442
 30
0.0
 10
-235.0000000000001
 20
-389.7679474909442
 30
0.0
  0
SPLINE
  5
12F
330
1F
100
AcDbEntity
  8
0
  6
Continuous
 62
     7
370
    25
100
AcDbSpline
210
0.0
220
0.0
230
1.0
 70
    11
 71
     3
 72
    38
 73
    34
 74
     0
 42
0.000000001
 43
0.00000001
 40
0.0
 40
0.0
 40
0.0
 40
0.0
 40
0.0624999999999999
 40
0.0624999999999999
 40
0.1249999999999999
 40
0.1249999999999999
 40
0.1874999999999998
 40
0.1874999999999998
 40
0.2499999999999998
 40
0.2499999999999998
 40
0.3124999999999997
 40
0.3124999999999997
 40
0.3749999999999997
 40
0.3749999999999997
 40
0.4374999999999997
 40
0.4374999999999997
 40
0.4999999999999997
 40
0.4999999999999997
 40
0.5624999999999997
 40
0.5624999999999997
 40
0.6249999999999998
 40
0.6249999999999998
 40
0.6874999999999998
 40
0.6874999999999998
 40
0.7499999999999999
 40
0.7499999999999999
 40
0.8124999999999999
 40
0.8124999999999999
 40
0.875
 40
0.875
 40
0.9375
 40
0.9375
 40
1.0
 40
1.0
 40
1.0
 40
1.0
 10
0.0000000000000278
 20
-389.7679474909444
 30
0.0
 10
0.1885618083164453
 20
-389.7679474909444
 30
0.0
 10
0.3919964146848476
 20
-389.8023134730457
 30
0.0
 10
0.785906655913271
 20
-389.9582589454429
 30
0.0
 10
0.9751611331980103
 20
-390.0803669243454
 30
0.0
 10
1.287580566599
 20
-390.3927863577464
 30
0.0
 10
1.409688545501386
 20
-390.5820408350311
 30
0.0
 10
1.565634017898443
 20
-390.9759510762596
 30
0.0
 10
1.600000000000046
 20
-391.179385682628
 30
0.0
 10
1.600000000000046
 20
-391.5565092992606
 30
0.0
 10
1.565634017898443
 20
-391.759943905629
 30
0.0
 10
1.409688545501386
 20
-392.1538541468576
 30
0.0
 10
1.287580566599056
 20
-392.3431086241421
 30
0.0
 10
0.9751611331980103
 20
-392.6555280575433
 30
0.0
 10
0.785906655913271
 20
-392.7776360364458
 30
0.0
 10
0.3919964146848476
 20
-392.9335815088427
 30
0.0
 10
0.1885618083164453
 20
-392.9679474909446
 30
0.0
 10
-0.1885618083163898
 20
-392.9679474909443
 30
0.0
 10
-0.3919964146847366
 20
-392.9335815088427
 30
0.0
 10
-0.78590665591316
 20
-392.7776360364457
 30
0.0
 10
-0.9751611331979548
 20
-392.6555280575433
 30
0.0
 10
-1.287580566598945
 20
-392.3431086241422
 30
0.0
 10
-1.409688545501331
 20
-392.1538541468576
 30
0.0
 10
-1.565634017898387
 20
-391.7599439056292
 30
0.0
 10
-1.599999999999935
 20
-391.5565092992605
 30
0.0
 10
-1.599999999999935
 20
-391.179385682628
 30
0.0
 10
-1.565634017898387
 20
-390.9759510762594
 30
0.0
 10
-1.409688545501331
 20
-390.5820408350311
 30
0.0
 10
-1.287580566598945
 20
-390.3927863577465
 30
0.0
 10
-0.9751611331979548
 20
-390.0803669243454
 30
0.0
 10
-0.78590665591316
 20
-389.9582589454429
 30
0.0
 10
-0.3919964146847366
 20
-389.8023134730458
 30
0.0
 10
-0.1885618083163898
 20
-389.7679474909443
 30
0.0
 10
0.0000000000000278
 20
-389.7679474909444
 30
0.0
  0
SPLINE
  5
130
330
1F
100
AcDbEntity
  8
0
  6
Continuous
 62
     7
370
    25
100
AcDbSpline
210
0.0
220
0.0
230
1.0
 70
    11
 71
     3
 72
    38
 73
    34
 74
     0
 42
0.000000001
 43
0.00000001
 40
0.0
 40
0.0
 40
0.0
 40
0.0
 40
0.0625
 40
0.0625
 40
0.125
 40
0.125
 40
0.1875
 40
0.1875
 40
0.25
 40
0.25
 40
0.3125
 40
0.3125
 40
0.375
 40
0.375
 40
0.4375
 40
0.4375
 40
0.5
 40
0.5
 40
0.5625
 40
0.5625
 40
0.625
 40
0.625
 40
0.6875
 40
0.6875
 40
0.75
 40
0.75
 40
0.8125
 40
0.8125
 40
0.875
 40
0.875
 40
0.9375
 40
0.9375
 40
1.0
 40
1.0
 40
1.0
 40
1.0
 10
235.0
 20
-339.7679474909444
 30
0.0
 10
235.1885618083164
 20
-339.7679474909443
 30
0.0
 10
235.3919964146848
 20
-339.8023134730459
 30
0.0
 10
235.7859066559133
 20
-339.9582589454429
 30
0.0
 10
235.975161133198
 20
-340.0803669243454
 30
0.0
 10
236.287580566599
 20
-340.3927863577462
 30
0.0
 10
236.4096885455014
 20
-340.5820408350314
 30
0.0
 10
236.5656340178984
 20
-340.9759510762594
 30
0.0
 10
236.6000000000001
 20
-341.1793856826279
 30
0.0
 10
236.6
 20
-341.5565092992608
 30
0.0
 10
236.5656340178985
 20
-341.7599439056291
 30
0.0
 10
236.4096885455013
 20
-342.1538541468577
 30
0.0
 10
236.287580566599
 20
-342.3431086241424
 30
0.0
 10
235.9751611331979
 20
-342.6555280575432
 30
0.0
 10
235.7859066559132
 20
-342.7776360364456
 30
0.0
 10
235.3919964146848
 20
-342.9335815088427
 30
0.0
 10
235.1885618083165
 20
-342.9679474909443
 30
0.0
 10
234.8114381916837
 20
-342.9679474909444
 30
0.0
 10
234.6080035853153
 20
-342.9335815088426
 30
0.0
 10
234.2140933440868
 20
-342.7776360364458
 30
0.0
 10
234.0248388668021
 20
-342.6555280575433
 30
0.0
 10
233.7124194334011
 20
-342.3431086241423
 30
0.0
 10
233.5903114544987
 20
-342.1538541468574
 30
0.0
 10
233.4343659821016
 20
-341.759943905629
 30
0.0
 10
233.4000000000001
 20
-341.5565092992606
 30
0.0
 10
233.4
 20
-341.1793856826279
 30
0.0
 10
233.4343659821016
 20
-340.9759510762595
 30
0.0
 10
233.5903114544986
 20
-340.5820408350313
 30
0.0
 10
233.7124194334011
 20
-340.3927863577463
 30
0.0
 10
234.024838866802
 20
-340.0803669243453
 30
0.0
 10
234.2140933440868
 20
-339.958258945443
 30
0.0
 10
234.6080035853152
 20
-339.802313473046
 30
0.0
 10
234.8114381916836
 20
-339.7679474909444
 30
0.0
 10
235.0
 20
-339.7679474909444
 30
0.0
  0
SPLINE
  5
131
330
1F
100
AcDbEntity
  8
0
  6
Continuous
 62
     7
370
    25
100
AcDbSpline
210
0.0
220
0.0
230
1.0
 70
    11
 71
     3
 72
    38
 73
    34
 74
     0
 42
0.000000001
 43
0.00000001
 40
0.0
 40
0.0
 40
0.0
 40
0.0
 40
0.0625
 40
0.0625
 40
0.125
 40
0.125
 40
0.1875
 40
0.1875
 40
0.25
 40
0.25
 40
0.3125
 40
0.3125
 40
0.375
 40
0.375
 40
0.4375
 40
0.4375
 40
0.5
 40
0.5
 40
0.5625
 40
0.5625
 40
0.625
 40
0.625
 40
0.6875
 40
0.6875
 40
0.75
 40
0.75
 40
0.8125
 40
0.8125
 40
0.875
 40
0.875
 40
0.9375
 40
0.9375
 40
1.0
 40
1.0
 40
1.0
 40
1.0
 10
-235.0000000000001
 20
-289.7679474909444
 30
0.0
 10
-234.8114381916836
 20
-289.7679474909443
 30
0.0
 10
-234.6080035853152
 20
-289.802313473046
 30
0.0
 10
-234.2140933440866
 20
-289.9582589454429
 30
0.0
 10
-234.0248388668019
 20
-290.0803669243456
 30
0.0
 10
-233.7124194334008
 20
-290.3927863577462
 30
0.0
 10
-233.5903114544987
 20
-290.5820408350311
 30
0.0
 10
-233.4343659821016
 20
-290.9759510762595
 30
0.0
 10
-233.4000000000001
 20
-291.179385682628
 30
0.0
 10
-233.4000000000002
 20
-291.5565092992607
 30
0.0
 10
-233.4343659821017
 20
-291.7599439056293
 30
0.0
 10
-233.5903114544987
 20
-292.1538541468574
 30
0.0
 10
-233.712419433401
 20
-292.3431086241422
 30
0.0
 10
-234.0248388668022
 20
-292.6555280575433
 30
0.0
 10
-234.2140933440868
 20
-292.7776360364458
 30
0.0
 10
-234.6080035853152
 20
-292.9335815088425
 30
0.0
 10
-234.8114381916835
 20
-292.9679474909442
 30
0.0
 10
-235.1885618083165
 20
-292.9679474909444
 30
0.0
 10
-235.391996414685
 20
-292.9335815088427
 30
0.0
 10
-235.7859066559134
 20
-292.7776360364456
 30
0.0
 10
-235.9751611331983
 20
-292.6555280575434
 30
0.0
 10
-236.287580566599
 20
-292.3431086241422
 30
0.0
 10
-236.4096885455016
 20
-292.1538541468574
 30
0.0
 10
-236.5656340178984
 20
-291.7599439056289
 30
0.0
 10
-236.6
 20
-291.5565092992608
 30
0.0
 10
-236.6
 20
-291.1793856826278
 30
0.0
 10
-236.5656340178984
 20
-290.9759510762596
 30
0.0
 10
-236.4096885455015
 20
-290.582040835031
 30
0.0
 10
-236.287580566599
 20
-290.3927863577464
 30
0.0
 10
-235.975161133198
 20
-290.0803669243452
 30
0.0
 10
-235.7859066559133
 20
-289.958258945443
 30
0.0
 10
-235.3919964146848
 20
-289.8023134730458
 30
0.0
 10
-235.1885618083165
 20
-289.7679474909444
 30
0.0
 10
-235.0000000000001
 20
-289.7679474909444
 30
0.0
  0
SPLINE
  5
132
330
1F
100
AcDbEntity
  8
0
  6
Continuous
 62
     7
370
    25
100
AcDbSpline
210
0.0
220
0.0
230
1.0
 70
    11
 71
     3
 72
    38
 73
    34
 74
     0
 42
0.000000001
 43
0.00000001
 40
0.0
 40
0.0
 40
0.0
 40
0.0
 40
0.0625
 40
0.0625
 40
0.125
 40
0.125
 40
0.1875
 40
0.1875
 40
0.25
 40
0.25
 40
0.3124999999999999
 40
0.3124999999999999
 40
0.3749999999999999
 40
0.3749999999999999
 40
0.4375
 40
0.4375
 40
0.5
 40
0.5
 40
0.5625
 40
0.5625
 40
0.625
 40
0.625
 40
0.6875
 40
0.6875
 40
0.75
 40
0.75
 40
0.8125000000000001
 40
0.8125000000000001
 40
0.8750000000000001
 40
0.8750000000000001
 40
0.9375000000000001
 40
0.9375000000000001
 40
1.0
 40
1.0
 40
1.0
 40
1.0
 10
0.0000000000000276
 20
-289.7679474909443
 30
0.0
 10
0.1885618083164453
 20
-289.7679474909442
 30
0.0
 10
0.3919964146848476
 20
-289.802313473046
 30
0.0
 10
0.7859066559132155
 20
-289.958258945443
 30
0.0
 10
0.9751611331980103
 20
-290.0803669243453
 30
0.0
 10
1.287580566599
 20
-290.3927863577463
 30
0.0
 10
1.409688545501386
 20
-290.5820408350311
 30
0.0
 10
1.565634017898443
 20
-290.9759510762595
 30
0.0
 10
1.59999999999999
 20
-291.179385682628
 30
0.0
 10
1.59999999999999
 20
-291.5565092992606
 30
0.0
 10
1.565634017898387
 20
-291.759943905629
 30
0.0
 10
1.409688545501386
 20
-292.1538541468574
 30
0.0
 10
1.287580566599
 20
-292.3431086241423
 30
0.0
 10
0.9751611331979548
 20
-292.6555280575432
 30
0.0
 10
0.7859066559132155
 20
-292.7776360364458
 30
0.0
 10
0.3919964146847921
 20
-292.9335815088426
 30
0.0
 10
0.1885618083164453
 20
-292.9679474909443
 30
0.0
 10
-0.1885618083163898
 20
-292.9679474909442
 30
0.0
 10
-0.3919964146847366
 20
-292.9335815088427
 30
0.0
 10
-0.78590665591316
 20
-292.7776360364456
 30
0.0
 10
-0.9751611331979548
 20
-292.6555280575431
 30
0.0
 10
-1.287580566598945
 20
-292.3431086241423
 30
0.0
 10
-1.409688545501331
 20
-292.1538541468576
 30
0.0
 10
-1.565634017898387
 20
-291.7599439056291
 30
0.0
 10
-1.599999999999935
 20
-291.5565092992607
 30
0.0
 10
-1.599999999999935
 20
-291.1793856826279
 30
0.0
 10
-1.565634017898387
 20
-290.9759510762595
 30
0.0
 10
-1.409688545501331
 20
-290.5820408350312
 30
0.0
 10
-1.287580566598945
 20
-290.3927863577463
 30
0.0
 10
-0.9751611331978993
 20
-290.0803669243453
 30
0.0
 10
-0.78590665591316
 20
-289.958258945443
 30
0.0
 10
-0.3919964146847366
 20
-289.8023134730458
 30
0.0
 10
-0.1885618083163898
 20
-289.7679474909443
 30
0.0
 10
0.0000000000000276
 20
-289.7679474909443
 30
0.0
  0
SPLINE
  5
133
330
1F
100
AcDbEntity
  8
0
  6
Continuous
 62
     7
370
    25
100
AcDbSpline
210
0.0
220
0.0
230
1.0
 70
    11
 71
     3
 72
    38
 73
    34
 74
     0
 42
0.000000001
 43
0.00000001
 40
0.0
 40
0.0
 40
0.0
 40
0.0
 40
0.0625
 40
0.0625
 40
0.125
 40
0.125
 40
0.1875
 40
0.1875
 40
0.25
 40
0.25
 40
0.3125
 40
0.3125
 40
0.375
 40
0.375
 40
0.4375
 40
0.4375
 40
0.5
 40
0.5
 40
0.5625
 40
0.5625
 40
0.625
 40
0.625
 40
0.6875
 40
0.6875
 40
0.75
 40
0.75
 40
0.8125
 40
0.8125
 40
0.875
 40
0.875
 40
0.9375
 40
0.9375
 40
1.0
 40
1.0
 40
1.0
 40
1.0
 10
-235.0000000000001
 20
-239.7679474909443
 30
0.0
 10
-234.8114381916836
 20
-239.7679474909442
 30
0.0
 10
-234.6080035853154
 20
-239.802313473046
 30
0.0
 10
-234.2140933440869
 20
-239.9582589454429
 30
0.0
 10
-234.0248388668022
 20
-240.0803669243453
 30
0.0
 10
-233.7124194334012
 20
-240.3927863577463
 30
0.0
 10
-233.5903114544989
 20
-240.5820408350311
 30
0.0
 10
-233.4343659821017
 20
-240.9759510762595
 30
0.0
 10
-233.4000000000001
 20
-241.179385682628
 30
0.0
 10
-233.4000000000002
 20
-241.5565092992606
 30
0.0
 10
-233.4343659821017
 20
-241.7599439056291
 30
0.0
 10
-233.5903114544987
 20
-242.1538541468574
 30
0.0
 10
-233.7124194334012
 20
-242.3431086241423
 30
0.0
 10
-234.0248388668022
 20
-242.6555280575433
 30
0.0
 10
-234.2140933440869
 20
-242.7776360364456
 30
0.0
 10
-234.6080035853154
 20
-242.9335815088427
 30
0.0
 10
-234.8114381916837
 20
-242.9679474909444
 30
0.0
 10
-235.1885618083164
 20
-242.9679474909443
 30
0.0
 10
-235.3919964146847
 20
-242.9335815088428
 30
0.0
 10
-235.785906655913
 20
-242.7776360364456
 30
0.0
 10
-235.9751611331978
 20
-242.6555280575433
 30
0.0
 10
-236.2875805665988
 20
-242.3431086241423
 30
0.0
 10
-236.4096885455014
 20
-242.1538541468576
 30
0.0
 10
-236.5656340178984
 20
-241.7599439056292
 30
0.0
 10
-236.6
 20
-241.5565092992607
 30
0.0
 10
-236.6
 20
-241.1793856826279
 30
0.0
 10
-236.5656340178984
 20
-240.9759510762596
 30
0.0
 10
-236.4096885455013
 20
-240.5820408350311
 30
0.0
 10
-236.287580566599
 20
-240.3927863577464
 30
0.0
 10
-235.9751611331978
 20
-240.0803669243453
 30
0.0
 10
-235.785906655913
 20
-239.9582589454429
 30
0.0
 10
-235.3919964146848
 20
-239.8023134730458
 30
0.0
 10
-235.1885618083165
 20
-239.7679474909444
 30
0.0
 10
-235.0000000000001
 20
-239.7679474909443
 30
0.0
  0
SPLINE
  5
134
330
1F
100
AcDbEntity
  8
0
  6
Continuous
 62
     7
370
    25
100
AcDbSpline
210
0.0
220
0.0
230
1.0
 70
    11
 71
     3
 72
    38
 73
    34
 74
     0
 42
0.000000001
 43
0.00000001
 40
0.0
 40
0.0
 40
0.0
 40
0.0
 40
0.0625
 40
0.0625
 40
0.125
 40
0.125
 40
0.1875
 40
0.1875
 40
0.25
 40
0.25
 40
0.3125
 40
0.3125
 40
0.375
 40
0.375
 40
0.4375
 40
0.4375
 40
0.5
 40
0.5
 40
0.5625
 40
0.5625
 40
0.625
 40
0.625
 40
0.6875
 40
0.6875
 40
0.75
 40
0.75
 40
0.8125
 40
0.8125
 40
0.875
 40
0.875
 40
0.9375
 40
0.9375
 40
1.0
 40
1.0
 40
1.0
 40
1.0
 10
0.0000000000000278
 20
-189.7679474909443
 30
0.0
 10
0.1885618083164453
 20
-189.7679474909442
 30
0.0
 10
0.3919964146848476
 20
-189.8023134730458
 30
0.0
 10
0.785906655913271
 20
-189.9582589454428
 30
0.0
 10
0.9751611331980103
 20
-190.0803669243453
 30
0.0
 10
1.287580566599
 20
-190.3927863577462
 30
0.0
 10
1.409688545501386
 20
-190.5820408350311
 30
0.0
 10
1.565634017898443
 20
-190.9759510762594
 30
0.0
 10
1.600000000000046
 20
-191.1793856826278
 30
0.0
 10
1.600000000000046
 20
-191.5565092992607
 30
0.0
 10
1.565634017898443
 20
-191.759943905629
 30
0.0
 10
1.409688545501386
 20
-192.1538541468574
 30
0.0
 10
1.287580566599
 20
-192.3431086241422
 30
0.0
 10
0.9751611331980103
 20
-192.6555280575432
 30
0.0
 10
0.7859066559132155
 20
-192.7776360364456
 30
0.0
 10
0.3919964146847921
 20
-192.9335815088427
 30
0.0
 10
0.1885618083164453
 20
-192.9679474909443
 30
0.0
 10
-0.1885618083163898
 20
-192.9679474909443
 30
0.0
 10
-0.3919964146847921
 20
-192.9335815088426
 30
0.0
 10
-0.78590665591316
 20
-192.7776360364456
 30
0.0
 10
-0.9751611331979548
 20
-192.6555280575432
 30
0.0
 10
-1.287580566598945
 20
-192.3431086241422
 30
0.0
 10
-1.409688545501331
 20
-192.1538541468574
 30
0.0
 10
-1.565634017898387
 20
-191.759943905629
 30
0.0
 10
-1.59999999999999
 20
-191.5565092992608
 30
0.0
 10
-1.59999999999999
 20
-191.1793856826279
 30
0.0
 10
-1.565634017898387
 20
-190.9759510762595
 30
0.0
 10
-1.409688545501331
 20
-190.5820408350312
 30
0.0
 10
-1.287580566598945
 20
-190.3927863577464
 30
0.0
 10
-0.9751611331979548
 20
-190.0803669243454
 30
0.0
 10
-0.78590665591316
 20
-189.958258945443
 30
0.0
 10
-0.3919964146847366
 20
-189.802313473046
 30
0.0
 10
-0.1885618083163898
 20
-189.7679474909444
 30
0.0
 10
0.0000000000000278
 20
-189.7679474909443
 30
0.0
  0
SPLINE
  5
135
330
1F
100
AcDbEntity
  8
0
  6
Continuous
 62
     7
370
    25
100
AcDbSpline
210
0.0
220
0.0
230
1.0
 70
    11
 71
     3
 72
    38
 73
    34
 74
     0
 42
0.000000001
 43
0.00000001
 40
0.0
 40
0.0
 40
0.0
 40
0.0
 40
0.0625
 40
0.0625
 40
0.125
 40
0.125
 40
0.1875
 40
0.1875
 40
0.25
 40
0.25
 40
0.3125
 40
0.3125
 40
0.375
 40
0.375
 40
0.4375
 40
0.4375
 40
0.5
 40
0.5
 40
0.5625
 40
0.5625
 40
0.625
 40
0.625
 40
0.6875
 40
0.6875
 40
0.75
 40
0.75
 40
0.8125
 40
0.8125
 40
0.875
 40
0.875
 40
0.9375
 40
0.9375
 40
1.0
 40
1.0
 40
1.0
 40
1.0
 10
-235.0000000000001
 20
-213.7679474909443
 30
0.0
 10
-234.8114381916836
 20
-213.7679474909442
 30
0.0
 10
-234.6080035853152
 20
-213.8023134730459
 30
0.0
 10
-234.2140933440868
 20
-213.9582589454429
 30
0.0
 10
-234.0248388668022
 20
-214.0803669243454
 30
0.0
 10
-233.7124194334012
 20
-214.3927863577463
 30
0.0
 10
-233.5903114544988
 20
-214.5820408350311
 30
0.0
 10
-233.4343659821018
 20
-214.9759510762595
 30
0.0
 10
-233.4000000000002
 20
-215.1793856826279
 30
0.0
 10
-233.4000000000002
 20
-215.5565092992607
 30
0.0
 10
-233.4343659821018
 20
-215.7599439056292
 30
0.0
 10
-233.5903114544988
 20
-216.1538541468576
 30
0.0
 10
-233.7124194334012
 20
-216.3431086241424
 30
0.0
 10
-234.0248388668022
 20
-216.6555280575433
 30
0.0
 10
-234.214093344087
 20
-216.7776360364457
 30
0.0
 10
-234.6080035853153
 20
-216.9335815088427
 30
0.0
 10
-234.8114381916836
 20
-216.9679474909443
 30
0.0
 10
-235.1885618083164
 20
-216.9679474909443
 30
0.0
 10
-235.3919964146848
 20
-216.9335815088426
 30
0.0
 10
-235.7859066559134
 20
-216.7776360364457
 30
0.0
 10
-235.9751611331982
 20
-216.6555280575432
 30
0.0
 10
-236.287580566599
 20
-216.3431086241423
 30
0.0
 10
-236.4096885455015
 20
-216.1538541468575
 30
0.0
 10
-236.5656340178984
 20
-215.7599439056291
 30
0.0
 10
-236.6
 20
-215.5565092992607
 30
0.0
 10
-236.6000000000001
 20
-215.1793856826278
 30
0.0
 10
-236.5656340178985
 20
-214.9759510762595
 30
0.0
 10
-236.4096885455015
 20
-214.5820408350311
 30
0.0
 10
-236.287580566599
 20
-214.3927863577464
 30
0.0
 10
-235.9751611331982
 20
-214.0803669243453
 30
0.0
 10
-235.7859066559134
 20
-213.9582589454429
 30
0.0
 10
-235.3919964146848
 20
-213.8023134730459
 30
0.0
 10
-235.1885618083165
 20
-213.7679474909444
 30
0.0
 10
-235.0000000000001
 20
-213.7679474909443
 30
0.0
  0
SPLINE
  5
136
330
1F
100
AcDbEntity
  8
0
  6
Continuous
 62
     7
370
    25
100
AcDbSpline
210
0.0
220
0.0
230
1.0
 70
    11
 71
     3
 72
    38
 73
    34
 74
     0
 42
0.000000001
 43
0.00000001
 40
0.0
 40
0.0
 40
0.0
 40
0.0
 40
0.0625
 40
0.0625
 40
0.125
 40
0.125
 40
0.1875
 40
0.1875
 40
0.25
 40
0.25
 40
0.3125
 40
0.3125
 40
0.375
 40
0.375
 40
0.4375
 40
0.4375
 40
0.5
 40
0.5
 40
0.5625
 40
0.5625
 40
0.625
 40
0.625
 40
0.6875
 40
0.6875
 40
0.75
 40
0.75
 40
0.8125
 40
0.8125
 40
0.875
 40
0.875
 40
0.9375
 40
0.9375
 40
1.0
 40
1.0
 40
1.0
 40
1.0
 10
235.0000000000001
 20
-615.7679474909444
 30
0.0
 10
235.1885618083165
 20
-615.7679474909444
 30
0.0
 10
235.3919964146849
 20
-615.8023134730458
 30
0.0
 10
235.7859066559133
 20
-615.9582589454426
 30
0.0
 10
235.9751611331981
 20
-616.0803669243451
 30
0.0
 10
236.287580566599
 20
-616.3927863577462
 30
0.0
 10
236.4096885455015
 20
-616.5820408350311
 30
0.0
 10
236.5656340178984
 20
-616.9759510762594
 30
0.0
 10
236.6000000000001
 20
-617.1793856826281
 30
0.0
 10
236.6000000000001
 20
-617.5565092992606
 30
0.0
 10
236.5656340178986
 20
-617.759943905629
 30
0.0
 10
236.4096885455015
 20
-618.1538541468575
 30
0.0
 10
236.2875805665991
 20
-618.3431086241424
 30
0.0
 10
235.9751611331981
 20
-618.655528057543
 30
0.0
 10
235.7859066559134
 20
-618.7776360364455
 30
0.0
 10
235.3919964146848
 20
-618.9335815088424
 30
0.0
 10
235.1885618083164
 20
-618.9679474909444
 30
0.0
 10
234.8114381916837
 20
-618.9679474909441
 30
0.0
 10
234.6080035853153
 20
-618.9335815088425
 30
0.0
 10
234.2140933440869
 20
-618.7776360364456
 30
0.0
 10
234.0248388668022
 20
-618.6555280575434
 30
0.0
 10
233.7124194334011
 20
-618.3431086241424
 30
0.0
 10
233.5903114544986
 20
-618.1538541468576
 30
0.0
 10
233.4343659821017
 20
-617.7599439056289
 30
0.0
 10
233.4000000000001
 20
-617.5565092992607
 30
0.0
 10
233.4000000000001
 20
-617.179385682628
 30
0.0
 10
233.4343659821017
 20
-616.9759510762595
 30
0.0
 10
233.5903114544988
 20
-616.582040835031
 30
0.0
 10
233.7124194334012
 20
-616.3927863577467
 30
0.0
 10
234.0248388668022
 20
-616.0803669243452
 30
0.0
 10
234.2140933440869
 20
-615.9582589454428
 30
0.0
 10
234.6080035853153
 20
-615.8023134730458
 30
0.0
 10
234.8114381916837
 20
-615.7679474909444
 30
0.0
 10
235.0000000000001
 20
-615.7679474909444
 30
0.0
  0
SPLINE
  5
137
330
1F
100
AcDbEntity
  8
0
  6
Continuous
 62
     7
370
    25
100
AcDbSpline
210
0.0
220
0.0
230
1.0
 70
    11
 71
     3
 72
    38
 73
    34
 74
     0
 42
0.000000001
 43
0.00000001
 40
0.0
 40
0.0
 40
0.0
 40
0.0
 40
0.0625
 40
0.0625
 40
0.125
 40
0.125
 40
0.1875
 40
0.1875
 40
0.25
 40
0.25
 40
0.3125
 40
0.3125
 40
0.375
 40
0.375
 40
0.4375
 40
0.4375
 40
0.5
 40
0.5
 40
0.5625
 40
0.5625
 40
0.625
 40
0.625
 40
0.6875
 40
0.6875
 40
0.75
 40
0.75
 40
0.8125
 40
0.8125
 40
0.875
 40
0.875
 40
0.9375
 40
0.9375
 40
1.0
 40
1.0
 40
1.0
 40
1.0
 10
-235.0000000000001
 20
-615.7679474909444
 30
0.0
 10
-234.8114381916836
 20
-615.7679474909444
 30
0.0
 10
-234.6080035853152
 20
-615.8023134730458
 30
0.0
 10
-234.2140933440868
 20
-615.9582589454426
 30
0.0
 10
-234.0248388668022
 20
-616.0803669243451
 30
0.0
 10
-233.7124194334012
 20
-616.3927863577462
 30
0.0
 10
-233.5903114544988
 20
-616.5820408350311
 30
0.0
 10
-233.4343659821018
 20
-616.9759510762594
 30
0.0
 10
-233.4000000000002
 20
-617.1793856826281
 30
0.0
 10
-233.4000000000002
 20
-617.5565092992606
 30
0.0
 10
-233.4343659821018
 20
-617.759943905629
 30
0.0
 10
-233.5903114544988
 20
-618.1538541468575
 30
0.0
 10
-233.7124194334012
 20
-618.3431086241424
 30
0.0
 10
-234.0248388668022
 20
-618.655528057543
 30
0.0
 10
-234.214093344087
 20
-618.7776360364455
 30
0.0
 10
-234.6080035853153
 20
-618.9335815088424
 30
0.0
 10
-234.8114381916836
 20
-618.9679474909444
 30
0.0
 10
-235.1885618083165
 20
-618.9679474909441
 30
0.0
 10
-235.3919964146848
 20
-618.9335815088425
 30
0.0
 10
-235.7859066559134
 20
-618.7776360364456
 30
0.0
 10
-235.9751611331982
 20
-618.6555280575434
 30
0.0
 10
-236.287580566599
 20
-618.3431086241424
 30
0.0
 10
-236.4096885455015
 20
-618.1538541468576
 30
0.0
 10
-236.5656340178984
 20
-617.7599439056289
 30
0.0
 10
-236.6
 20
-617.5565092992607
 30
0.0
 10
-236.6
 20
-617.179385682628
 30
0.0
 10
-236.5656340178985
 20
-616.9759510762595
 30
0.0
 10
-236.4096885455015
 20
-616.582040835031
 30
0.0
 10
-236.2875805665992
 20
-616.3927863577467
 30
0.0
 10
-235.975161133198
 20
-616.0803669243452
 30
0.0
 10
-235.7859066559133
 20
-615.9582589454428
 30
0.0
 10
-235.3919964146849
 20
-615.8023134730458
 30
0.0
 10
-235.1885618083165
 20
-615.7679474909444
 30
0.0
 10
-235.0000000000001
 20
-615.7679474909444
 30
0.0
  0
SPLINE
  5
138
330
1F
100
AcDbEntity
  8
0
  6
Continuous
 62
     7
370
    25
100
AcDbSpline
210
0.0
220
0.0
230
1.0
 70
    11
 71
     3
 72
    38
 73
    34
 74
     0
 42
0.000000001
 43
0.00000001
 40
0.0
 40
0.0
 40
0.0
 40
0.0
 40
0.0625
 40
0.0625
 40
0.125
 40
0.125
 40
0.1875
 40
0.1875
 40
0.25
 40
0.25
 40
0.3125
 40
0.3125
 40
0.375
 40
0.375
 40
0.4375
 40
0.4375
 40
0.5
 40
0.5
 40
0.5625
 40
0.5625
 40
0.625
 40
0.625
 40
0.6875
 40
0.6875
 40
0.75
 40
0.75
 40
0.8125
 40
0.8125
 40
0.875
 40
0.875
 40
0.9375
 40
0.9375
 40
1.0
 40
1.0
 40
1.0
 40
1.0
 10
0.0000000000000278
 20
-213.7679474909443
 30
0.0
 10
0.1885618083164453
 20
-213.7679474909442
 30
0.0
 10
0.3919964146847921
 20
-213.8023134730459
 30
0.0
 10
0.7859066559132155
 20
-213.9582589454429
 30
0.0
 10
0.9751611331980103
 20
-214.0803669243454
 30
0.0
 10
1.287580566599
 20
-214.3927863577464
 30
0.0
 10
1.409688545501442
 20
-214.5820408350312
 30
0.0
 10
1.565634017898443
 20
-214.9759510762595
 30
0.0
 10
1.600000000000046
 20
-215.1793856826279
 30
0.0
 10
1.600000000000046
 20
-215.5565092992606
 30
0.0
 10
1.565634017898498
 20
-215.759943905629
 30
0.0
 10
1.409688545501442
 20
-216.1538541468575
 30
0.0
 10
1.287580566599056
 20
-216.3431086241424
 30
0.0
 10
0.9751611331980659
 20
-216.6555280575433
 30
0.0
 10
0.785906655913271
 20
-216.7776360364458
 30
0.0
 10
0.3919964146848476
 20
-216.9335815088428
 30
0.0
 10
0.1885618083165008
 20
-216.9679474909443
 30
0.0
 10
-0.1885618083163343
 20
-216.9679474909443
 30
0.0
 10
-0.391996414684681
 20
-216.9335815088427
 30
0.0
 10
-0.7859066559131045
 20
-216.7776360364456
 30
0.0
 10
-0.9751611331978993
 20
-216.6555280575433
 30
0.0
 10
-1.287580566598889
 20
-216.3431086241422
 30
0.0
 10
-1.409688545501275
 20
-216.1538541468574
 30
0.0
 10
-1.565634017898332
 20
-215.7599439056289
 30
0.0
 10
-1.599999999999935
 20
-215.5565092992607
 30
0.0
 10
-1.599999999999935
 20
-215.1793856826278
 30
0.0
 10
-1.565634017898332
 20
-214.9759510762595
 30
0.0
 10
-1.409688545501331
 20
-214.5820408350311
 30
0.0
 10
-1.287580566598945
 20
-214.3927863577463
 30
0.0
 10
-0.9751611331978993
 20
-214.0803669243452
 30
0.0
 10
-0.78590665591316
 20
-213.9582589454429
 30
0.0
 10
-0.3919964146847366
 20
-213.8023134730458
 30
0.0
 10
-0.1885618083163898
 20
-213.7679474909444
 30
0.0
 10
0.0000000000000278
 20
-213.7679474909443
 30
0.0
  0
SPLINE
  5
139
330
1F
100
AcDbEntity
  8
0
  6
Continuous
 62
     7
370
    25
100
AcDbSpline
210
0.0
220
0.0
230
1.0
 70
    11
 71
     3
 72
    38
 73
    34
 74
     0
 42
0.000000001
 43
0.00000001
 40
0.0
 40
0.0
 40
0.0
 40
0.0
 40
0.0625
 40
0.0625
 40
0.125
 40
0.125
 40
0.1875
 40
0.1875
 40
0.25
 40
0.25
 40
0.3125
 40
0.3125
 40
0.375
 40
0.375
 40
0.4375
 40
0.4375
 40
0.5
 40
0.5
 40
0.5625
 40
0.5625
 40
0.625
 40
0.625
 40
0.6875
 40
0.6875
 40
0.75
 40
0.75
 40
0.8125
 40
0.8125
 40
0.875
 40
0.875
 40
0.9375
 40
0.9375
 40
1.0
 40
1.0
 40
1.0
 40
1.0
 10
-56.17851577843899
 20
-150.1172592915693
 30
0.0
 10
-55.92513584851383
 20
-150.1172592915692
 30
0.0
 10
-55.65177059620635
 20
-150.1634385800183
 30
0.0
 10
-55.12245370955565
 20
-150.3729903085517
 30
0.0
 10
-54.86814300570425
 20
-150.5370729052017
 30
0.0
 10
-54.44832939207156
 20
-150.9568865188344
 30
0.0
 10
-54.28424679542149
 20
-151.2111972226858
 30
0.0
 10
-54.07469506688795
 20
-151.7405141093366
 30
0.0
 10
-54.02851577843892
 20
-152.0138793616441
 30
0.0
 10
-54.02851577843887
 20
-152.5206392214945
 30
0.0
 10
-54.07469506688789
 20
-152.794004473802
 30
0.0
 10
-54.28424679542137
 20
-153.3233213604527
 30
0.0
 10
-54.44832939207145
 20
-153.5776320643041
 30
0.0
 10
-54.86814300570403
 20
-153.9974456779367
 30
0.0
 10
-55.12245370955543
 20
-154.1615282745868
 30
0.0
 10
-55.65177059620608
 20
-154.3710800031202
 30
0.0
 10
-55.92513584851366
 20
-154.4172592915692
 30
0.0
 10
-56.43189570836393
 20
-154.4172592915694
 30
0.0
 10
-56.70526096067147
 20
-154.3710800031204
 30
0.0
 10
-57.23457784732216
 20
-154.1615282745869
 30
0.0
 10
-57.48888855117362
 20
-153.9974456779368
 30
0.0
 10
-57.9087021648062
 20
-153.5776320643042
 30
0.0
 10
-58.07278476145633
 20
-153.3233213604528
 30
0.0
 10
-58.28233648998987
 20
-152.7940044738021
 30
0.0
 10
-58.32851577843889
 20
-152.5206392214945
 30
0.0
 10
-58.32851577843889
 20
-152.0138793616441
 30
0.0
 10
-58.28233648998993
 20
-151.7405141093365
 30
0.0
 10
-58.07278476145644
 20
-151.2111972226858
 30
0.0
 10
-57.90870216480637
 20
-150.9568865188343
 30
0.0
 10
-57.48888855117373
 20
-150.5370729052018
 30
0.0
 10
-57.23457784732238
 20
-150.3729903085517
 30
0.0
 10
-56.70526096067169
 20
-150.1634385800182
 30
0.0
 10
-56.43189570836415
 20
-150.1172592915694
 30
0.0
 10
-56.17851577843899
 20
-150.1172592915693
 30
0.0
  0
SPLINE
  5
13A
330
1F
100
AcDbEntity
  8
0
  6
Continuous
 62
     7
370
    25
100
AcDbSpline
210
0.0
220
0.0
230
1.0
 70
    11
 71
     3
 72
    38
 73
    34
 74
     0
 42
0.000000001
 43
0.00000001
 40
0.0
 40
0.0
 40
0.0
 40
0.0
 40
0.0625
 40
0.0625
 40
0.125
 40
0.125
 40
0.1875
 40
0.1875
 40
0.25
 40
0.25
 40
0.3125
 40
0.3125
 40
0.375
 40
0.375
 40
0.4375
 40
0.4375
 40
0.5
 40
0.5
 40
0.5625
 40
0.5625
 40
0.625
 40
0.625
 40
0.6875
 40
0.6875
 40
0.75
 40
0.75
 40
0.8125
 40
0.8125
 40
0.875
 40
0.875
 40
0.9375
 40
0.9375
 40
1.0
 40
1.0
 40
1.0
 40
1.0
 10
13.42136458039642
 20
-142.6679474909443
 30
0.0
 10
13.66885195381173
 20
-142.6679474909442
 30
0.0
 10
13.93585987467022
 20
-142.7130528424527
 30
0.0
 10
14.45286706628251
 20
-142.9177312749737
 30
0.0
 10
14.70126356771873
 20
-143.0779979972831
 30
0.0
 10
15.11131407405758
 20
-143.4880485036219
 30
0.0
 10
15.27158079636698
 20
-143.7364450050582
 30
0.0
 10
15.47625922888807
 20
-144.2534521966705
 30
0.0
 10
15.52136458039644
 20
-144.5204601175291
 30
0.0
 10
15.52136458039644
 20
-145.0154348643596
 30
0.0
 10
15.47625922888807
 20
-145.2824427852181
 30
0.0
 10
15.27158079636692
 20
-145.7994499768303
 30
0.0
 10
15.11131407405758
 20
-146.0478464782666
 30
0.0
 10
14.70126356771873
 20
-146.4578969846053
 30
0.0
 10
14.45286706628246
 20
-146.6181637069149
 30
0.0
 10
13.93585987467016
 20
-146.8228421394359
 30
0.0
 10
13.66885195381168
 20
-146.8679474909443
 30
0.0
 10
13.1738772069811
 20
-146.8679474909443
 30
0.0
 10
12.90686928612261
 20
-146.8228421394359
 30
0.0
 10
12.38986209451032
 20
-146.6181637069148
 30
0.0
 10
12.14146559307405
 20
-146.4578969846054
 30
0.0
 10
11.73141508673525
 20
-146.0478464782666
 30
0.0
 10
11.57114836442585
 20
-145.7994499768303
 30
0.0
 10
11.36646993190477
 20
-145.282442785218
 30
0.0
 10
11.3213645803964
 20
-145.0154348643595
 30
0.0
 10
11.3213645803964
 20
-144.520460117529
 30
0.0
 10
11.36646993190477
 20
-144.2534521966706
 30
0.0
 10
11.57114836442585
 20
-143.7364450050582
 30
0.0
 10
11.73141508673525
 20
-143.488048503622
 30
0.0
 10
12.14146559307411
 20
-143.0779979972831
 30
0.0
 10
12.38986209451032
 20
-142.9177312749738
 30
0.0
 10
12.90686928612267
 20
-142.7130528424527
 30
0.0
 10
13.1738772069811
 20
-142.6679474909443
 30
0.0
 10
13.42136458039642
 20
-142.6679474909443
 30
0.0
  0
SPLINE
  5
13B
330
1F
100
AcDbEntity
  8
0
  6
Continuous
 62
     7
370
    25
100
AcDbSpline
210
0.0
220
0.0
230
1.0
 70
    11
 71
     3
 72
    38
 73
    34
 74
     0
 42
0.000000001
 43
0.00000001
 40
0.0
 40
0.0
 40
0.0
 40
0.0
 40
0.0625
 40
0.0625
 40
0.125
 40
0.125
 40
0.1875
 40
0.1875
 40
0.25
 40
0.25
 40
0.3125
 40
0.3125
 40
0.375
 40
0.375
 40
0.4375
 40
0.4375
 40
0.5
 40
0.5
 40
0.5625
 40
0.5625
 40
0.625
 40
0.625
 40
0.6875
 40
0.6875
 40
0.75
 40
0.75
 40
0.8125
 40
0.8125
 40
0.875
 40
0.875
 40
0.9375
 40
0.9375
 40
1.0
 40
1.0
 40
1.0
 40
1.0
 10
247.5000000000001
 20
-661.6179474909443
 30
0.0
 10
247.765165042945
 20
-661.6179474909441
 30
0.0
 10
248.0512449581506
 20
-661.666274653275
 30
0.0
 10
248.605181234878
 20
-661.8855729738327
 30
0.0
 10
248.8713203435598
 20
-662.0572873191644
 30
0.0
 10
249.3106601717799
 20
-662.4966271473842
 30
0.0
 10
249.4823745171114
 20
-662.7627662560666
 30
0.0
 10
249.7016728376697
 20
-663.3167025327939
 30
0.0
 10
249.7500000000001
 20
-663.6027824479995
 30
0.0
 10
249.7500000000001
 20
-664.1331125338892
 30
0.0
 10
249.7016728376698
 20
-664.4191924490954
 30
0.0
 10
249.4823745171114
 20
-664.9731287258223
 30
0.0
 10
249.3106601717799
 20
-665.2392678345043
 30
0.0
 10
248.8713203435598
 20
-665.6786076627242
 30
0.0
 10
248.6051812348781
 20
-665.8503220080561
 30
0.0
 10
248.0512449581505
 20
-666.0696203286142
 30
0.0
 10
247.7651650429451
 20
-666.1179474909443
 30
0.0
 10
247.2348349570551
 20
-666.1179474909444
 30
0.0
 10
246.9487550418496
 20
-666.0696203286138
 30
0.0
 10
246.3948187651221
 20
-665.8503220080555
 30
0.0
 10
246.1286796564405
 20
-665.6786076627245
 30
0.0
 10
245.6893398282202
 20
-665.2392678345041
 30
0.0
 10
245.5176254828888
 20
-664.9731287258223
 30
0.0
 10
245.2983271623304
 20
-664.4191924490948
 30
0.0
 10
245.2500000000001
 20
-664.1331125338893
 30
0.0
 10
245.25
 20
-663.6027824479993
 30
0.0
 10
245.2983271623305
 20
-663.316702532794
 30
0.0
 10
245.5176254828888
 20
-662.7627662560661
 30
0.0
 10
245.6893398282203
 20
-662.4966271473847
 30
0.0
 10
246.1286796564404
 20
-662.0572873191644
 30
0.0
 10
246.3948187651222
 20
-661.8855729738332
 30
0.0
 10
246.9487550418497
 20
-661.666274653275
 30
0.0
 10
247.2348349570551
 20
-661.6179474909444
 30
0.0
 10
247.5000000000001
 20
-661.6179474909443
 30
0.0
  0
SPLINE
  5
13C
330
1F
100
AcDbEntity
  8
0
  6
Continuous
 62
     7
370
    25
100
AcDbSpline
210
0.0
220
0.0
230
1.0
 70
    11
 71
     3
 72
    38
 73
    34
 74
     0
 42
0.000000001
 43
0.00000001
 40
0.0
 40
0.0
 40
0.0
 40
0.0
 40
0.0625
 40
0.0625
 40
0.125
 40
0.125
 40
0.1875
 40
0.1875
 40
0.25
 40
0.25
 40
0.3125
 40
0.3125
 40
0.375
 40
0.375
 40
0.4375
 40
0.4375
 40
0.5
 40
0.5
 40
0.5625
 40
0.5625
 40
0.625
 40
0.625
 40
0.6875
 40
0.6875
 40
0.75
 40
0.75
 40
0.8125
 40
0.8125
 40
0.875
 40
0.875
 40
0.9375
 40
0.9375
 40
1.0
 40
1.0
 40
1.0
 40
1.0
 10
-26.57863541960359
 20
-142.6679474909443
 30
0.0
 10
-26.3311480461883
 20
-142.6679474909442
 30
0.0
 10
-26.06414012532981
 20
-142.7130528424526
 30
0.0
 10
-25.54713293371752
 20
-142.9177312749736
 30
0.0
 10
-25.29873643228126
 20
-143.0779979972831
 30
0.0
 10
-24.88868592594245
 20
-143.488048503622
 30
0.0
 10
-24.72841920363306
 20
-143.7364450050582
 30
0.0
 10
-24.52374077111197
 20
-144.2534521966705
 30
0.0
 10
-24.4786354196036
 20
-144.520460117529
 30
0.0
 10
-24.4786354196036
 20
-145.0154348643595
 30
0.0
 10
-24.52374077111191
 20
-145.2824427852181
 30
0.0
 10
-24.72841920363306
 20
-145.7994499768302
 30
0.0
 10
-24.88868592594245
 20
-146.0478464782665
 30
0.0
 10
-25.29873643228126
 20
-146.4578969846054
 30
0.0
 10
-25.54713293371746
 20
-146.6181637069147
 30
0.0
 10
-26.06414012532981
 20
-146.8228421394359
 30
0.0
 10
-26.3311480461883
 20
-146.8679474909443
 30
0.0
 10
-26.82612279301888
 20
-146.8679474909443
 30
0.0
 10
-27.09313071387737
 20
-146.8228421394361
 30
0.0
 10
-27.61013790548966
 20
-146.6181637069149
 30
0.0
 10
-27.85853440692593
 20
-146.4578969846054
 30
0.0
 10
-28.26858491326473
 20
-146.0478464782666
 30
0.0
 10
-28.42885163557413
 20
-145.7994499768305
 30
0.0
 10
-28.63353006809527
 20
-145.2824427852182
 30
0.0
 10
-28.67863541960358
 20
-145.0154348643596
 30
0.0
 10
-28.67863541960358
 20
-144.520460117529
 30
0.0
 10
-28.63353006809527
 20
-144.2534521966705
 30
0.0
 10
-28.42885163557418
 20
-143.7364450050581
 30
0.0
 10
-28.26858491326478
 20
-143.4880485036219
 30
0.0
 10
-27.85853440692593
 20
-143.077997997283
 30
0.0
 10
-27.61013790548972
 20
-142.9177312749737
 30
0.0
 10
-27.09313071387737
 20
-142.7130528424525
 30
0.0
 10
-26.82612279301888
 20
-142.6679474909443
 30
0.0
 10
-26.57863541960359
 20
-142.6679474909443
 30
0.0
  0
SPLINE
  5
13D
330
1F
100
AcDbEntity
  8
0
  6
Continuous
 62
     7
370
    25
100
AcDbSpline
210
0.0
220
0.0
230
1.0
 70
     8
 71
     3
 72
    22
 73
    18
 74
     0
 42
0.000000001
 43
0.00000001
 40
0.0
 40
0.0
 40
0.0
 40
0.0
 40
0.125
 40
0.125
 40
0.25
 40
0.25
 40
0.375
 40
0.375
 40
0.5
 40
0.5
 40
0.625
 40
0.625
 40
0.75
 40
0.75
 40
0.875
 40
0.875
 40
1.0
 40
1.0
 40
1.0
 40
1.0
 10
-268.8502402967151
 20
-151.1679474909443
 30
0.0
 10
-268.8502402967125
 20
-151.4154348643596
 30
0.0
 10
-268.895345648218
 20
-151.6824427852185
 30
0.0
 10
-269.1000240807336
 20
-152.1994499768329
 30
0.0
 10
-269.2602908030405
 20
-152.4478464782708
 30
0.0
 10
-269.670341309375
 20
-152.857896984614
 30
0.0
 10
-269.9187378108097
 20
-153.0181637069259
 30
0.0
 10
-270.4357450024198
 20
-153.2228421394526
 30
0.0
 10
-270.7027529232778
 20
-153.2679474909637
 30
0.0
 10
-271.1977276701084
 20
-153.2679474909689
 30
0.0
 10
-271.4647355909673
 20
-153.2228421394634
 30
0.0
 10
-271.9817427825818
 20
-153.0181637069477
 30
0.0
 10
-272.2301392840197
 20
-152.857896984641
 30
0.0
 10
-272.6401897903629
 20
-152.4478464783065
 30
0.0
 10
-272.8004565126747
 20
-152.1994499768718
 30
0.0
 10
-273.0051349452013
 20
-151.6824427852616
 30
0.0
 10
-273.0502402967124
 20
-151.4154348644036
 30
0.0
 10
-273.0502402967151
 20
-151.1679474909883
 30
0.0
  0
SPLINE
  5
142
330
1F
100
AcDbEntity
  8
0
  6
Continuous
 62
     7
370
    25
100
AcDbSpline
210
0.0
220
0.0
230
1.0
 70
     8
 71
     3
 72
    22
 73
    18
 74
     0
 42
0.000000001
 43
0.00000001
 40
0.0
 40
0.0
 40
0.0
 40
0.0
 40
0.125
 40
0.125
 40
0.25
 40
0.25
 40
0.375
 40
0.375
 40
0.5
 40
0.5
 40
0.625
 40
0.625
 40
0.75
 40
0.75
 40
0.875
 40
0.875
 40
1.0
 40
1.0
 40
1.0
 40
1.0
 10
275.747236380512
 20
-151.1679474909663
 30
0.0
 10
275.747236380512
 20
-151.3565092992826
 30
0.0
 10
275.7816023626137
 20
-151.5599439056511
 30
0.0
 10
275.9375478350107
 20
-151.9538541468795
 30
0.0
 10
276.0596558139131
 20
-152.1431086241643
 30
0.0
 10
276.3720752473141
 20
-152.4555280575652
 30
0.0
 10
276.5613297245988
 20
-152.5776360364677
 30
0.0
 10
276.9552399658273
 20
-152.7335815088647
 30
0.0
 10
277.1586745721957
 20
-152.7679474909664
 30
0.0
 10
277.5357981888284
 20
-152.7679474909664
 30
0.0
 10
277.7392327951969
 20
-152.7335815088647
 30
0.0
 10
278.1331430364252
 20
-152.5776360364676
 30
0.0
 10
278.32239751371
 20
-152.4555280575652
 30
0.0
 10
278.6348169471109
 20
-152.1431086241643
 30
0.0
 10
278.7569249260134
 20
-151.9538541468795
 30
0.0
 10
278.9128703984105
 20
-151.5599439056511
 30
0.0
 10
278.947236380512
 20
-151.3565092992827
 30
0.0
 10
278.947236380512
 20
-151.1679474909663
 30
0.0
  0
SPLINE
  5
143
330
1F
100
AcDbEntity
  8
0
  6
Continuous
 62
     7
370
    25
100
AcDbSpline
210
0.0
220
0.0
230
1.0
 70
     8
 71
     3
 72
    22
 73
    18
 74
     0
 42
0.000000001
 43
0.00000001
 40
0.0
 40
0.0
 40
0.0
 40
0.0
 40
0.125
 40
0.125
 40
0.25
 40
0.25
 40
0.375
 40
0.375
 40
0.5
 40
0.5
 40
0.625
 40
0.625
 40
0.75
 40
0.75
 40
0.875
 40
0.875
 40
1.0
 40
1.0
 40
1.0
 40
1.0
 10
-44.25276361948782
 20
-151.1679474909663
 30
0.0
 10
-44.25276361948782
 20
-151.3565092992826
 30
0.0
 10
-44.21839763738622
 20
-151.559943905651
 30
0.0
 10
-44.06245216498916
 20
-151.9538541468794
 30
0.0
 10
-43.94034418608678
 20
-152.1431086241641
 30
0.0
 10
-43.62792475268579
 20
-152.4555280575652
 30
0.0
 10
-43.43867027540099
 20
-152.5776360364675
 30
0.0
 10
-43.04476003417257
 20
-152.7335815088646
 30
0.0
 10
-42.84132542780416
 20
-152.7679474909664
 30
0.0
 10
-42.46420181117139
 20
-152.7679474909663
 30
0.0
 10
-42.26076720480304
 20
-152.7335815088647
 30
0.0
 10
-41.86685696357462
 20
-152.5776360364676
 30
0.0
 10
-41.67760248628988
 20
-152.4555280575651
 30
0.0
 10
-41.36518305288889
 20
-152.1431086241641
 30
0.0
 10
-41.2430750739865
 20
-151.9538541468793
 30
0.0
 10
-41.08712960158945
 20
-151.559943905651
 30
0.0
 10
-41.0527636194879
 20
-151.3565092992827
 30
0.0
 10
-41.0527636194879
 20
-151.1679474909663
 30
0.0
  0
SPLINE
  5
145
330
1F
100
AcDbEntity
  8
0
  6
Continuous
 62
   144
370
    18
100
AcDbSpline
210
0.0
220
0.0
230
1.0
 70
     8
 71
     3
 72
    10
 73
     6
 74
     0
 42
0.000000001
 43
0.00000001
 40
0.0
 40
0.0
 40
0.0
 40
0.0
 40
0.5
 40
0.5
 40
1.0
 40
1.0
 40
1.0
 40
1.0
 10
-293.1
 20
-708.9971270976943
 30
0.0
 10
-292.9936525134626
 20
-709.0288337922453
 30
0.0
 10
-292.8885190824676
 20
-709.0894789148155
 30
0.0
 10
-292.7215314238711
 20
-709.2564665734114
 30
0.0
 10
-292.6608863013013
 20
-709.3616000044067
 30
0.0
 10
-292.62917960675
 20
-709.4679474909443
 30
0.0
  0
SPLINE
  5
146
330
1F
100
AcDbEntity
  8
0
  6
Continuous
 62
   144
370
    18
100
AcDbSpline
210
0.0
220
0.0
230
1.0
 70
     8
 71
     3
 72
    10
 73
     6
 74
     0
 42
0.000000001
 43
0.00000001
 40
0.0
 40
0.0
 40
0.0
 40
0.0
 40
0.5
 40
0.5
 40
1.0
 40
1.0
 40
1.0
 40
1.0
 10
293.1000000000001
 20
-708.9971270976943
 30
0.0
 10
292.9936525134625
 20
-709.0288337922453
 30
0.0
 10
292.8885190824677
 20
-709.0894789148155
 30
0.0
 10
292.721531423871
 20
-709.2564665734114
 30
0.0
 10
292.6608863013013
 20
-709.3616000044067
 30
0.0
 10
292.62917960675
 20
-709.4679474909443
 30
0.0
  0
SPLINE
  5
147
330
1F
100
AcDbEntity
  8
0
  6
Continuous
 62
   144
370
    18
100
AcDbSpline
210
0.0
220
0.0
230
1.0
 70
     8
 71
     3
 72
    10
 73
     6
 74
     0
 42
0.000000001
 43
0.00000001
 40
0.0
 40
0.0
 40
0.0
 40
0.0
 40
0.5
 40
0.5
 40
1.0
 40
1.0
 40
1.0
 40
1.0
 10
292.62917960675
 20
-123.2679474909443
 30
0.0
 10
292.6608863013013
 20
-123.3742949774818
 30
0.0
 10
292.7215314238711
 20
-123.4794284084767
 30
0.0
 10
292.8885190824677
 20
-123.6464160670732
 30
0.0
 10
292.9936525134626
 20
-123.7070611896431
 30
0.0
 10
293.1000000000001
 20
-123.7387678841943
 30
0.0
  0
SPLINE
  5
148
330
1F
100
AcDbEntity
  8
0
  6
Continuous
 62
   144
370
    18
100
AcDbSpline
210
0.0
220
0.0
230
1.0
 70
     8
 71
     3
 72
    10
 73
     6
 74
     0
 42
0.000000001
 43
0.00000001
 40
0.0
 40
0.0
 40
0.0
 40
0.0
 40
0.5
 40
0.5
 40
1.0
 40
1.0
 40
1.0
 40
1.0
 10
-292.62917960675
 20
-123.2679474909443
 30
0.0
 10
-292.6608863013013
 20
-123.3742949774818
 30
0.0
 10
-292.7215314238711
 20
-123.4794284084767
 30
0.0
 10
-292.8885190824676
 20
-123.6464160670732
 30
0.0
 10
-292.9936525134626
 20
-123.7070611896431
 30
0.0
 10
-293.1
 20
-123.7387678841943
 30
0.0
  0
SPLINE
  5
14F
330
1F
100
AcDbEntity
  8
0
  6
Continuous
 62
   144
370
    18
100
AcDbSpline
210
0.0
220
0.0
230
1.0
 70
     8
 71
     3
 72
    22
 73
    18
 74
     0
 42
0.000000001
 43
0.00000001
 40
0.0
 40
0.0
 40
0.0
 40
0.0
 40
0.125
 40
0.125
 40
0.25
 40
0.25
 40
0.375
 40
0.375
 40
0.5
 40
0.5
 40
0.625
 40
0.625
 40
0.75
 40
0.75
 40
0.875
 40
0.875
 40
1.0
 40
1.0
 40
1.0
 40
1.0
 10
-40.5527636194879
 20
-151.1679474909443
 30
0.0
 10
-40.55276361948535
 20
-151.4154348643596
 30
0.0
 10
-40.59786897099088
 20
-151.6824427852186
 30
0.0
 10
-40.80254740350653
 20
-152.199449976833
 30
0.0
 10
-40.96281412581337
 20
-152.447846478271
 30
0.0
 10
-41.3728646321479
 20
-152.8578969846141
 30
0.0
 10
-41.62126113358244
 20
-153.0181637069261
 30
0.0
 10
-42.13826832519263
 20
-153.2228421394526
 30
0.0
 10
-42.40527624605062
 20
-153.2679474909637
 30
0.0
 10
-42.9002509928812
 20
-153.2679474909689
 30
0.0
 10
-43.16725891374013
 20
-153.2228421394634
 30
0.0
 10
-43.68426610535459
 20
-153.0181637069479
 30
0.0
 10
-43.93266260679246
 20
-152.857896984641
 30
0.0
 10
-44.34271311313559
 20
-152.4478464783065
 30
0.0
 10
-44.50297983544754
 20
-152.1994499768719
 30
0.0
 10
-44.70765826797407
 20
-151.6824427852616
 30
0.0
 10
-44.75276361948521
 20
-151.4154348644036
 30
0.0
 10
-44.75276361948782
 20
-151.1679474909883
 30
0.0
  0
SPLINE
  5
156
330
1F
100
AcDbEntity
  8
0
  6
Continuous
 62
   144
370
    18
100
AcDbSpline
210
0.0
220
0.0
230
1.0
 70
     8
 71
     3
 72
    22
 73
    18
 74
     0
 42
0.000000001
 43
0.00000001
 40
0.0
 40
0.0
 40
0.0
 40
0.0
 40
0.125
 40
0.125
 40
0.25
 40
0.25
 40
0.375
 40
0.375
 40
0.5
 40
0.5
 40
0.625
 40
0.625
 40
0.75
 40
0.75
 40
0.875
 40
0.875
 40
1.0
 40
1.0
 40
1.0
 40
1.0
 10
279.447236380512
 20
-151.1679474909443
 30
0.0
 10
279.4472363805147
 20
-151.4154348643596
 30
0.0
 10
279.4021310290092
 20
-151.6824427852185
 30
0.0
 10
279.1974525964935
 20
-152.1994499768329
 30
0.0
 10
279.0371858741867
 20
-152.4478464782708
 30
0.0
 10
278.6271353678522
 20
-152.857896984614
 30
0.0
 10
278.3787388664176
 20
-153.0181637069259
 30
0.0
 10
277.8617316748075
 20
-153.2228421394526
 30
0.0
 10
277.5947237539493
 20
-153.2679474909637
 30
0.0
 10
277.0997490071188
 20
-153.2679474909689
 30
0.0
 10
276.8327410862598
 20
-153.2228421394634
 30
0.0
 10
276.3157338946454
 20
-153.0181637069477
 30
0.0
 10
276.0673373932075
 20
-152.857896984641
 30
0.0
 10
275.6572868868645
 20
-152.4478464783065
 30
0.0
 10
275.4970201645525
 20
-152.1994499768718
 30
0.0
 10
275.2923417320259
 20
-151.6824427852616
 30
0.0
 10
275.2472363805148
 20
-151.4154348644036
 30
0.0
 10
275.247236380512
 20
-151.1679474909883
 30
0.0
  0
SPLINE
  5
159
330
1F
100
AcDbEntity
  8
0
  6
Continuous
 62
   144
370
    18
100
AcDbSpline
210
0.0
220
0.0
230
1.0
 70
     8
 71
     3
 72
    22
 73
    18
 74
     0
 42
0.000000001
 43
0.00000001
 40
0.0
 40
0.0
 40
0.0
 40
0.0
 40
0.125
 40
0.125
 40
0.25
 40
0.25
 40
0.375
 40
0.375
 40
0.5
 40
0.5
 40
0.625
 40
0.625
 40
0.75
 40
0.75
 40
0.875
 40
0.875
 40
1.0
 40
1.0
 40
1.0
 40
1.0
 10
-272.5502402967151
 20
-151.1679474909663
 30
0.0
 10
-272.5502402967149
 20
-151.3565092992826
 30
0.0
 10
-272.5158743146135
 20
-151.5599439056511
 30
0.0
 10
-272.3599288422164
 20
-151.9538541468795
 30
0.0
 10
-272.2378208633141
 20
-152.1431086241643
 30
0.0
 10
-271.9254014299129
 20
-152.4555280575652
 30
0.0
 10
-271.7361469526284
 20
-152.5776360364677
 30
0.0
 10
-271.3422367113999
 20
-152.7335815088647
 30
0.0
 10
-271.1388021050315
 20
-152.7679474909664
 30
0.0
 10
-270.7616784883986
 20
-152.7679474909664
 30
0.0
 10
-270.5582438820303
 20
-152.7335815088647
 30
0.0
 10
-270.1643336408019
 20
-152.5776360364676
 30
0.0
 10
-269.975079163517
 20
-152.4555280575652
 30
0.0
 10
-269.662659730116
 20
-152.1431086241643
 30
0.0
 10
-269.5405517512139
 20
-151.9538541468795
 30
0.0
 10
-269.3846062788166
 20
-151.5599439056511
 30
0.0
 10
-269.3502402967151
 20
-151.3565092992827
 30
0.0
 10
-269.3502402967151
 20
-151.1679474909663
 30
0.0
  0
SPLINE
  5
15A
330
1F
100
AcDbEntity
  8
0
  6
Continuous
 62
   144
370
    18
100
AcDbSpline
210
0.0
220
0.0
230
1.0
 70
    11
 71
     3
 72
    38
 73
    34
 74
     0
 42
0.000000001
 43
0.00000001
 40
0.0
 40
0.0
 40
0.0
 40
0.0
 40
0.0625
 40
0.0625
 40
0.125
 40
0.125
 40
0.1875
 40
0.1875
 40
0.25
 40
0.25
 40
0.3125
 40
0.3125
 40
0.375
 40
0.375
 40
0.4375
 40
0.4375
 40
0.5
 40
0.5
 40
0.5625
 40
0.5625
 40
0.625
 40
0.625
 40
0.6875
 40
0.6875
 40
0.75
 40
0.75
 40
0.8125
 40
0.8125
 40
0.875
 40
0.875
 40
0.9375
 40
0.9375
 40
1.0
 40
1.0
 40
1.0
 40
1.0
 10
-247.5000000000001
 20
-661.6179474909443
 30
0.0
 10
-247.2348349570551
 20
-661.6179474909441
 30
0.0
 10
-246.9487550418497
 20
-661.6662746532749
 30
0.0
 10
-246.394818765122
 20
-661.8855729738328
 30
0.0
 10
-246.1286796564405
 20
-662.0572873191647
 30
0.0
 10
-245.6893398282203
 20
-662.4966271473843
 30
0.0
 10
-245.5176254828888
 20
-662.7627662560666
 30
0.0
 10
-245.2983271623304
 20
-663.3167025327939
 30
0.0
 10
-245.2500000000001
 20
-663.6027824479994
 30
0.0
 10
-245.2500000000001
 20
-664.1331125338891
 30
0.0
 10
-245.2983271623305
 20
-664.419192449095
 30
0.0
 10
-245.5176254828887
 20
-664.9731287258223
 30
0.0
 10
-245.6893398282203
 20
-665.239267834504
 30
0.0
 10
-246.1286796564404
 20
-665.6786076627241
 30
0.0
 10
-246.3948187651223
 20
-665.8503220080559
 30
0.0
 10
-246.9487550418496
 20
-666.0696203286138
 30
0.0
 10
-247.2348349570551
 20
-666.1179474909443
 30
0.0
 10
-247.765165042945
 20
-666.1179474909443
 30
0.0
 10
-248.0512449581506
 20
-666.0696203286143
 30
0.0
 10
-248.6051812348781
 20
-665.8503220080555
 30
0.0
 10
-248.8713203435599
 20
-665.6786076627245
 30
0.0
 10
-249.3106601717799
 20
-665.2392678345041
 30
0.0
 10
-249.4823745171114
 20
-664.9731287258223
 30
0.0
 10
-249.7016728376697
 20
-664.4191924490949
 30
0.0
 10
-249.75
 20
-664.1331125338895
 30
0.0
 10
-249.75
 20
-663.6027824479993
 30
0.0
 10
-249.7016728376697
 20
-663.316702532794
 30
0.0
 10
-249.4823745171113
 20
-662.7627662560661
 30
0.0
 10
-249.3106601717799
 20
-662.4966271473847
 30
0.0
 10
-248.8713203435597
 20
-662.0572873191644
 30
0.0
 10
-248.6051812348782
 20
-661.8855729738332
 30
0.0
 10
-248.0512449581506
 20
-661.666274653275
 30
0.0
 10
-247.7651650429451
 20
-661.6179474909444
 30
0.0
 10
-247.5000000000001
 20
-661.6179474909443
 30
0.0
  0
SPLINE
  5
15B
330
1F
100
AcDbEntity
  8
0
  6
Continuous
 62
   144
370
    18
100
AcDbSpline
210
0.0
220
0.0
230
1.0
 70
    11
 71
     3
 72
    38
 73
    34
 74
     0
 42
0.000000001
 43
0.00000001
 40
0.0
 40
0.0
 40
0.0
 40
0.0
 40
0.0625
 40
0.0625
 40
0.125
 40
0.125
 40
0.1875
 40
0.1875
 40
0.25
 40
0.25
 40
0.3125
 40
0.3125
 40
0.375
 40
0.375
 40
0.4375
 40
0.4375
 40
0.5
 40
0.5
 40
0.5625
 40
0.5625
 40
0.625
 40
0.625
 40
0.6875
 40
0.6875
 40
0.75
 40
0.75
 40
0.8125
 40
0.8125
 40
0.875
 40
0.875
 40
0.9375
 40
0.9375
 40
1.0
 40
1.0
 40
1.0
 40
1.0
 10
247.5000000000001
 20
-166.6179474909443
 30
0.0
 10
247.765165042945
 20
-166.6179474909442
 30
0.0
 10
248.0512449581506
 20
-166.6662746532747
 30
0.0
 10
248.6051812348779
 20
-166.8855729738329
 30
0.0
 10
248.8713203435597
 20
-167.0572873191644
 30
0.0
 10
249.3106601717797
 20
-167.4966271473846
 30
0.0
 10
249.4823745171114
 20
-167.7627662560664
 30
0.0
 10
249.7016728376697
 20
-168.3167025327938
 30
0.0
 10
249.75
 20
-168.6027824479993
 30
0.0
 10
249.75
 20
-169.1331125338893
 30
0.0
 10
249.7016728376698
 20
-169.4191924490948
 30
0.0
 10
249.4823745171113
 20
-169.9731287258223
 30
0.0
 10
249.31066017178
 20
-170.2392678345039
 30
0.0
 10
248.8713203435598
 20
-170.6786076627242
 30
0.0
 10
248.6051812348781
 20
-170.8503220080556
 30
0.0
 10
248.0512449581505
 20
-171.069620328614
 30
0.0
 10
247.7651650429451
 20
-171.1179474909444
 30
0.0
 10
247.2348349570551
 20
-171.1179474909443
 30
0.0
 10
246.9487550418495
 20
-171.069620328614
 30
0.0
 10
246.3948187651221
 20
-170.8503220080556
 30
0.0
 10
246.1286796564405
 20
-170.6786076627241
 30
0.0
 10
245.6893398282204
 20
-170.239267834504
 30
0.0
 10
245.5176254828888
 20
-169.9731287258222
 30
0.0
 10
245.2983271623304
 20
-169.4191924490948
 30
0.0
 10
245.2500000000002
 20
-169.1331125338893
 30
0.0
 10
245.2500000000001
 20
-168.6027824479993
 30
0.0
 10
245.2983271623304
 20
-168.3167025327938
 30
0.0
 10
245.5176254828888
 20
-167.7627662560663
 30
0.0
 10
245.6893398282202
 20
-167.4966271473846
 30
0.0
 10
246.1286796564404
 20
-167.0572873191644
 30
0.0
 10
246.3948187651221
 20
-166.8855729738329
 30
0.0
 10
246.9487550418495
 20
-166.6662746532746
 30
0.0
 10
247.2348349570552
 20
-166.6179474909443
 30
0.0
 10
247.5000000000001
 20
-166.6179474909443
 30
0.0
  0
SPLINE
  5
15C
330
1F
100
AcDbEntity
  8
0
  6
Continuous
 62
   144
370
    18
100
AcDbSpline
210
0.0
220
0.0
230
1.0
 70
    11
 71
     3
 72
    38
 73
    34
 74
     0
 42
0.000000001
 43
0.00000001
 40
0.0
 40
0.0
 40
0.0
 40
0.0
 40
0.0625
 40
0.0625
 40
0.125
 40
0.125
 40
0.1875
 40
0.1875
 40
0.25
 40
0.25
 40
0.3125
 40
0.3125
 40
0.375
 40
0.375
 40
0.4375
 40
0.4375
 40
0.5
 40
0.5
 40
0.5625
 40
0.5625
 40
0.625
 40
0.625
 40
0.6875
 40
0.6875
 40
0.75
 40
0.75
 40
0.8125
 40
0.8125
 40
0.875
 40
0.875
 40
0.9375
 40
0.9375
 40
1.0
 40
1.0
 40
1.0
 40
1.0
 10
-247.5000000000001
 20
-166.6179474909443
 30
0.0
 10
-247.234834957055
 20
-166.6179474909443
 30
0.0
 10
-246.9487550418496
 20
-166.6662746532747
 30
0.0
 10
-246.3948187651218
 20
-166.8855729738329
 30
0.0
 10
-246.1286796564403
 20
-167.0572873191644
 30
0.0
 10
-245.6893398282199
 20
-167.4966271473846
 30
0.0
 10
-245.5176254828887
 20
-167.7627662560663
 30
0.0
 10
-245.2983271623304
 20
-168.3167025327937
 30
0.0
 10
-245.2500000000001
 20
-168.6027824479993
 30
0.0
 10
-245.2499999999999
 20
-169.1331125338893
 30
0.0
 10
-245.2983271623303
 20
-169.4191924490949
 30
0.0
 10
-245.5176254828886
 20
-169.9731287258224
 30
0.0
 10
-245.6893398282202
 20
-170.2392678345041
 30
0.0
 10
-246.1286796564403
 20
-170.6786076627242
 30
0.0
 10
-246.394818765122
 20
-170.8503220080557
 30
0.0
 10
-246.9487550418496
 20
-171.0696203286141
 30
0.0
 10
-247.234834957055
 20
-171.1179474909443
 30
0.0
 10
-247.765165042945
 20
-171.1179474909444
 30
0.0
 10
-248.0512449581506
 20
-171.069620328614
 30
0.0
 10
-248.6051812348781
 20
-170.8503220080557
 30
0.0
 10
-248.8713203435599
 20
-170.6786076627242
 30
0.0
 10
-249.3106601717799
 20
-170.2392678345041
 30
0.0
 10
-249.4823745171114
 20
-169.9731287258224
 30
0.0
 10
-249.7016728376697
 20
-169.4191924490949
 30
0.0
 10
-249.75
 20
-169.1331125338893
 30
0.0
 10
-249.75
 20
-168.6027824479993
 30
0.0
 10
-249.7016728376697
 20
-168.3167025327938
 30
0.0
 10
-249.4823745171114
 20
-167.7627662560663
 30
0.0
 10
-249.3106601717801
 20
-167.4966271473845
 30
0.0
 10
-248.8713203435597
 20
-167.0572873191644
 30
0.0
 10
-248.6051812348781
 20
-166.885572973833
 30
0.0
 10
-248.0512449581506
 20
-166.6662746532747
 30
0.0
 10
-247.7651650429451
 20
-166.6179474909443
 30
0.0
 10
-247.5000000000001
 20
-166.6179474909443
 30
0.0
  0
SPLINE
  5
15D
330
1F
100
AcDbEntity
  8
0
  6
Continuous
 62
   144
370
    18
100
AcDbSpline
210
0.0
220
0.0
230
1.0
 70
    11
 71
     3
 72
    54
 73
    50
 74
     0
 42
0.000000001
 43
0.00000001
 40
0.0
 40
0.0
 40
0.0
 40
0.0
 40
0.0624999999999961
 40
0.0624999999999961
 40
0.0937499999999947
 40
0.0937499999999947
 40
0.1249999999999933
 40
0.1249999999999933
 40
0.156249999999992
 40
0.156249999999992
 40
0.1874999999999906
 40
0.1874999999999906
 40
0.2499999999999903
 40
0.2499999999999903
 40
0.3124999999999901
 40
0.3124999999999901
 40
0.3437499999999901
 40
0.3437499999999901
 40
0.3749999999999902
 40
0.3749999999999902
 40
0.4062499999999903
 40
0.4062499999999903
 40
0.4374999999999904
 40
0.4374999999999904
 40
0.4999999999999906
 40
0.4999999999999906
 40
0.5624999999999907
 40
0.5624999999999907
 40
0.5937499999999913
 40
0.5937499999999913
 40
0.6249999999999919
 40
0.6249999999999919
 40
0.6562499999999925
 40
0.6562499999999925
 40
0.687499999999993
 40
0.687499999999993
 40
0.7499999999999947
 40
0.7499999999999947
 40
0.8124999999999962
 40
0.8124999999999962
 40
0.8437499999999971
 40
0.8437499999999971
 40
0.8749999999999979
 40
0.8749999999999979
 40
0.9062499999999987
 40
0.9062499999999987
 40
0.9374999999999994
 40
0.9374999999999994
 40
1.0
 40
1.0
 40
1.0
 40
1.0
 10
-119.178515778439
 20
-147.2672592915693
 30
0.0
 10
-118.5892601274502
 20
-147.2672592915693
 30
0.0
 10
-117.9535269825492
 20
-147.3746529856367
 30
0.0
 10
-117.0302998546701
 20
-147.7401501865673
 30
0.0
 10
-116.7283141953889
 20
-147.8954009638377
 30
0.0
 10
-116.1566198276379
 20
-148.2691625071144
 30
0.0
 10
-115.8870595548509
 20
-148.4876477032921
 30
0.0
 10
-115.3989041901618
 20
-148.9758030679811
 30
0.0
 10
-115.1804189939841
 20
-149.2453633407681
 30
0.0
 10
-114.8066574507075
 20
-149.8170577085191
 30
0.0
 10
-114.6514066734371
 20
-150.1190433678002
 30
0.0
 10
-114.2859094725065
 20
-151.0422704956793
 30
0.0
 10
-114.1785157784391
 20
-151.6780036405806
 30
0.0
 10
-114.178515778439
 20
-152.856514942558
 30
0.0
 10
-114.2859094725065
 20
-153.4922480874592
 30
0.0
 10
-114.6514066734371
 20
-154.4154752153383
 30
0.0
 10
-114.8066574507074
 20
-154.7174608746194
 30
0.0
 10
-115.1804189939841
 20
-155.2891552423705
 30
0.0
 10
-115.3989041901617
 20
-155.5587155151575
 30
0.0
 10
-115.8870595548509
 20
-156.0468708798466
 30
0.0
 10
-116.1566198276378
 20
-156.2653560760242
 30
0.0
 10
-116.7283141953888
 20
-156.6391176193007
 30
0.0
 10
-117.0302998546699
 20
-156.7943683965713
 30
0.0
 10
-117.9535269825491
 20
-157.1598655975018
 30
0.0
 10
-118.5892601274503
 20
-157.2672592915693
 30
0.0
 10
-119.7677714294279
 20
-157.2672592915693
 30
0.0
 10
-120.4035045743291
 20
-157.1598655975019
 30
0.0
 10
-121.3267317022081
 20
-156.7943683965713
 30
0.0
 10
-121.6287173614893
 20
-156.6391176193009
 30
0.0
 10
-122.2004117292402
 20
-156.2653560760243
 30
0.0
 10
-122.4699720020272
 20
-156.0468708798466
 30
0.0
 10
-122.9581273667164
 20
-155.5587155151574
 30
0.0
 10
-123.176612562894
 20
-155.2891552423706
 30
0.0
 10
-123.5503741061707
 20
-154.7174608746196
 30
0.0
 10
-123.7056248834409
 20
-154.4154752153384
 30
0.0
 10
-124.0711220843716
 20
-153.4922480874593
 30
0.0
 10
-124.178515778439
 20
-152.8565149425581
 30
0.0
 10
-124.178515778439
 20
-151.6780036405805
 30
0.0
 10
-124.0711220843716
 20
-151.0422704956794
 30
0.0
 10
-123.705624883441
 20
-150.1190433678002
 30
0.0
 10
-123.5503741061707
 20
-149.817057708519
 30
0.0
 10
-123.176612562894
 20
-149.2453633407681
 30
0.0
 10
-122.9581273667163
 20
-148.9758030679811
 30
0.0
 10
-122.4699720020271
 20
-148.4876477032919
 30
0.0
 10
-122.2004117292402
 20
-148.2691625071143
 30
0.0
 10
-121.6287173614892
 20
-147.8954009638377
 30
0.0
 10
-121.3267317022081
 20
-147.7401501865673
 30
0.0
 10
-120.403504574329
 20
-147.3746529856368
 30
0.0
 10
-119.7677714294279
 20
-147.2672592915693
 30
0.0
 10
-119.178515778439
 20
-147.2672592915693
 30
0.0
  0
SPLINE
  5
15E
330
1F
100
AcDbEntity
  8
0
  6
Continuous
 62
   144
370
    18
100
AcDbSpline
210
0.0
220
0.0
230
1.0
 70
    11
 71
     3
 72
    38
 73
    34
 74
     0
 42
0.000000001
 43
0.00000001
 40
0.0
 40
0.0
 40
0.0
 40
0.0
 40
0.0625
 40
0.0625
 40
0.125
 40
0.125
 40
0.1875
 40
0.1875
 40
0.25
 40
0.25
 40
0.3125
 40
0.3125
 40
0.375
 40
0.375
 40
0.4375
 40
0.4375
 40
0.5
 40
0.5
 40
0.5625
 40
0.5625
 40
0.625
 40
0.625
 40
0.6875
 40
0.6875
 40
0.75
 40
0.75
 40
0.8125
 40
0.8125
 40
0.875
 40
0.875
 40
0.9375
 40
0.9375
 40
1.0
 40
1.0
 40
1.0
 40
1.0
 10
253.421364580396
 20
-142.6679474909443
 30
0.0
 10
253.6688519538112
 20
-142.6679474909442
 30
0.0
 10
253.9358598746698
 20
-142.7130528424525
 30
0.0
 10
254.452867066282
 20
-142.9177312749736
 30
0.0
 10
254.7012635677184
 20
-143.077997997283
 30
0.0
 10
255.1113140740571
 20
-143.4880485036218
 30
0.0
 10
255.2715807963666
 20
-143.7364450050582
 30
0.0
 10
255.4762592288877
 20
-144.2534521966704
 30
0.0
 10
255.5213645803961
 20
-144.5204601175291
 30
0.0
 10
255.5213645803959
 20
-145.0154348643595
 30
0.0
 10
255.4762592288878
 20
-145.2824427852181
 30
0.0
 10
255.2715807963666
 20
-145.7994499768303
 30
0.0
 10
255.1113140740573
 20
-146.0478464782665
 30
0.0
 10
254.7012635677184
 20
-146.4578969846054
 30
0.0
 10
254.4528670662821
 20
-146.6181637069147
 30
0.0
 10
253.9358598746698
 20
-146.8228421394359
 30
0.0
 10
253.6688519538115
 20
-146.8679474909443
 30
0.0
 10
253.1738772069807
 20
-146.8679474909442
 30
0.0
 10
252.9068692861223
 20
-146.8228421394358
 30
0.0
 10
252.38986209451
 20
-146.6181637069147
 30
0.0
 10
252.1414655930737
 20
-146.4578969846053
 30
0.0
 10
251.7314150867348
 20
-146.0478464782664
 30
0.0
 10
251.5711483644255
 20
-145.7994499768302
 30
0.0
 10
251.3664699319045
 20
-145.282442785218
 30
0.0
 10
251.3213645803961
 20
-145.0154348643596
 30
0.0
 10
251.3213645803959
 20
-144.520460117529
 30
0.0
 10
251.3664699319044
 20
-144.2534521966704
 30
0.0
 10
251.5711483644256
 20
-143.736445005058
 30
0.0
 10
251.7314150867349
 20
-143.4880485036218
 30
0.0
 10
252.1414655930737
 20
-143.077997997283
 30
0.0
 10
252.38986209451
 20
-142.9177312749736
 30
0.0
 10
252.9068692861223
 20
-142.7130528424526
 30
0.0
 10
253.1738772069809
 20
-142.6679474909443
 30
0.0
 10
253.421364580396
 20
-142.6679474909443
 30
0.0
  0
SPLINE
  5
15F
330
1F
100
AcDbEntity
  8
0
  6
Continuous
 62
   144
370
    18
100
AcDbSpline
210
0.0
220
0.0
230
1.0
 70
    11
 71
     3
 72
    38
 73
    34
 74
     0
 42
0.000000001
 43
0.00000001
 40
0.0
 40
0.0
 40
0.0
 40
0.0
 40
0.0625
 40
0.0625
 40
0.125
 40
0.125
 40
0.1875
 40
0.1875
 40
0.25
 40
0.25
 40
0.3125
 40
0.3125
 40
0.375
 40
0.375
 40
0.4375
 40
0.4375
 40
0.5
 40
0.5
 40
0.5625
 40
0.5625
 40
0.625
 40
0.625
 40
0.6875
 40
0.6875
 40
0.75
 40
0.75
 40
0.8125
 40
0.8125
 40
0.875
 40
0.875
 40
0.9375
 40
0.9375
 40
1.0
 40
1.0
 40
1.0
 40
1.0
 10
-81.17851577843902
 20
-160.3672592915693
 30
0.0
 10
-80.95459863106325
 20
-160.3672592915692
 30
0.0
 10
-80.71302003600084
 20
-160.408068895315
 30
0.0
 10
-80.24525162454205
 20
-160.5932541437864
 30
0.0
 10
-80.02051193276644
 20
-160.7382573687331
 30
0.0
 10
-79.6495138556027
 20
-161.1092554458967
 30
0.0
 10
-79.50451063065611
 20
-161.3339951376725
 30
0.0
 10
-79.31932538218456
 20
-161.8017635491312
 30
0.0
 10
-79.27851577843892
 20
-162.0433421441936
 30
0.0
 10
-79.27851577843892
 20
-162.491176438945
 30
0.0
 10
-79.31932538218456
 20
-162.7327550340075
 30
0.0
 10
-79.504510630656
 20
-163.2005234454662
 30
0.0
 10
-79.64951385560265
 20
-163.4252631372418
 30
0.0
 10
-80.02051193276627
 20
-163.7962612144055
 30
0.0
 10
-80.24525162454194
 20
-163.9412644393522
 30
0.0
 10
-80.71302003600067
 20
-164.1264496878236
 30
0.0
 10
-80.95459863106302
 20
-164.1672592915693
 30
0.0
 10
-81.40243292581451
 20
-164.1672592915693
 30
0.0
 10
-81.64401152087697
 20
-164.1264496878237
 30
0.0
 10
-82.11177993233576
 20
-163.9412644393523
 30
0.0
 10
-82.33651962411143
 20
-163.7962612144056
 30
0.0
 10
-82.70751770127505
 20
-163.4252631372419
 30
0.0
 10
-82.8525209262217
 20
-163.2005234454663
 30
0.0
 10
-83.03770617469326
 20
-162.7327550340075
 30
0.0
 10
-83.07851577843888
 20
-162.491176438945
 30
0.0
 10
-83.07851577843888
 20
-162.0433421441936
 30
0.0
 10
-83.0377061746933
 20
-161.801763549131
 30
0.0
 10
-82.85252092622186
 20
-161.3339951376722
 30
0.0
 10
-82.70751770127526
 20
-161.1092554458967
 30
0.0
 10
-82.33651962411159
 20
-160.7382573687329
 30
0.0
 10
-82.11177993233598
 20
-160.5932541437863
 30
0.0
 10
-81.64401152087719
 20
-160.4080688953148
 30
0.0
 10
-81.40243292581478
 20
-160.3672592915694
 30
0.0
 10
-81.17851577843902
 20
-160.3672592915693
 30
0.0
  0
SPLINE
  5
160
330
1F
100
AcDbEntity
  8
0
  6
Continuous
 62
   144
370
    18
100
AcDbSpline
210
0.0
220
0.0
230
1.0
 70
    11
 71
     3
 72
    38
 73
    34
 74
     0
 42
0.000000001
 43
0.00000001
 40
0.0
 40
0.0
 40
0.0
 40
0.0
 40
0.0625
 40
0.0625
 40
0.125
 40
0.125
 40
0.1875
 40
0.1875
 40
0.25
 40
0.25
 40
0.3125
 40
0.3125
 40
0.375
 40
0.375
 40
0.4375
 40
0.4375
 40
0.5
 40
0.5
 40
0.5625
 40
0.5625
 40
0.625
 40
0.625
 40
0.6875
 40
0.6875
 40
0.75
 40
0.75
 40
0.8125
 40
0.8125
 40
0.875
 40
0.875
 40
0.9375
 40
0.9375
 40
1.0
 40
1.0
 40
1.0
 40
1.0
 10
-81.17851577843902
 20
-140.3672592915693
 30
0.0
 10
-80.95459863106325
 20
-140.3672592915692
 30
0.0
 10
-80.71302003600084
 20
-140.4080688953149
 30
0.0
 10
-80.2452516245421
 20
-140.5932541437862
 30
0.0
 10
-80.0205119327665
 20
-140.7382573687328
 30
0.0
 10
-79.6495138556027
 20
-141.1092554458965
 30
0.0
 10
-79.50451063065623
 20
-141.3339951376722
 30
0.0
 10
-79.31932538218467
 20
-141.801763549131
 30
0.0
 10
-79.27851577843903
 20
-142.0433421441935
 30
0.0
 10
-79.27851577843897
 20
-142.491176438945
 30
0.0
 10
-79.31932538218467
 20
-142.7327550340076
 30
0.0
 10
-79.50451063065611
 20
-143.2005234454663
 30
0.0
 10
-79.64951385560276
 20
-143.425263137242
 30
0.0
 10
-80.02051193276638
 20
-143.7962612144057
 30
0.0
 10
-80.24525162454205
 20
-143.9412644393522
 30
0.0
 10
-80.71302003600078
 20
-144.1264496878237
 30
0.0
 10
-80.95459863106325
 20
-144.1672592915693
 30
0.0
 10
-81.40243292581472
 20
-144.1672592915693
 30
0.0
 10
-81.64401152087719
 20
-144.1264496878237
 30
0.0
 10
-82.11177993233592
 20
-143.9412644393522
 30
0.0
 10
-82.33651962411159
 20
-143.7962612144057
 30
0.0
 10
-82.70751770127526
 20
-143.425263137242
 30
0.0
 10
-82.85252092622186
 20
-143.2005234454663
 30
0.0
 10
-83.03770617469335
 20
-142.7327550340075
 30
0.0
 10
-83.07851577843905
 20
-142.4911764389451
 30
0.0
 10
-83.078515778439
 20
-142.0433421441936
 30
0.0
 10
-83.03770617469335
 20
-141.8017635491311
 30
0.0
 10
-82.85252092622186
 20
-141.3339951376723
 30
0.0
 10
-82.70751770127532
 20
-141.1092554458967
 30
0.0
 10
-82.33651962411165
 20
-140.738257368733
 30
0.0
 10
-82.11177993233598
 20
-140.5932541437865
 30
0.0
 10
-81.64401152087719
 20
-140.4080688953149
 30
0.0
 10
-81.40243292581478
 20
-140.3672592915694
 30
0.0
 10
-81.17851577843902
 20
-140.3672592915693
 30
0.0
  0
SPLINE
  5
161
330
1F
100
AcDbEntity
  8
0
  6
Continuous
 62
   144
370
    18
100
AcDbSpline
210
0.0
220
0.0
230
1.0
 70
    11
 71
     3
 72
    38
 73
    34
 74
     0
 42
0.000000001
 43
0.00000001
 40
0.0
 40
0.0
 40
0.0
 40
0.0
 40
0.0625
 40
0.0625
 40
0.125
 40
0.125
 40
0.1875
 40
0.1875
 40
0.2500000000000001
 40
0.2500000000000001
 40
0.3125000000000001
 40
0.3125000000000001
 40
0.3750000000000001
 40
0.3750000000000001
 40
0.4375000000000001
 40
0.4375000000000001
 40
0.5000000000000001
 40
0.5000000000000001
 40
0.5625000000000001
 40
0.5625000000000001
 40
0.6250000000000001
 40
0.6250000000000001
 40
0.6875000000000001
 40
0.6875000000000001
 40
0.7500000000000001
 40
0.7500000000000001
 40
0.8125000000000001
 40
0.8125000000000001
 40
0.8750000000000001
 40
0.8750000000000001
 40
0.9375000000000001
 40
0.9375000000000001
 40
1.0
 40
1.0
 40
1.0
 40
1.0
 10
0.0000000000000276
 20
-615.7679474909444
 30
0.0
 10
0.1885618083164453
 20
-615.7679474909444
 30
0.0
 10
0.3919964146848476
 20
-615.8023134730461
 30
0.0
 10
0.785906655913271
 20
-615.9582589454429
 30
0.0
 10
0.9751611331980103
 20
-616.0803669243455
 30
0.0
 10
1.287580566599
 20
-616.3927863577464
 30
0.0
 10
1.409688545501386
 20
-616.5820408350314
 30
0.0
 10
1.565634017898443
 20
-616.9759510762597
 30
0.0
 10
1.600000000000046
 20
-617.1793856826278
 30
0.0
 10
1.600000000000046
 20
-617.5565092992606
 30
0.0
 10
1.565634017898443
 20
-617.7599439056291
 30
0.0
 10
1.409688545501442
 20
-618.1538541468574
 30
0.0
 10
1.287580566599056
 20
-618.3431086241425
 30
0.0
 10
0.9751611331980103
 20
-618.6555280575432
 30
0.0
 10
0.785906655913271
 20
-618.7776360364458
 30
0.0
 10
0.3919964146848476
 20
-618.9335815088427
 30
0.0
 10
0.1885618083165008
 20
-618.9679474909444
 30
0.0
 10
-0.1885618083163343
 20
-618.9679474909443
 30
0.0
 10
-0.3919964146847366
 20
-618.933581508843
 30
0.0
 10
-0.78590665591316
 20
-618.7776360364461
 30
0.0
 10
-0.9751611331978993
 20
-618.6555280575434
 30
0.0
 10
-1.287580566598945
 20
-618.3431086241422
 30
0.0
 10
-1.409688545501331
 20
-618.1538541468577
 30
0.0
 10
-1.565634017898387
 20
-617.759943905629
 30
0.0
 10
-1.599999999999935
 20
-617.5565092992609
 30
0.0
 10
-1.599999999999935
 20
-617.179385682628
 30
0.0
 10
-1.565634017898387
 20
-616.9759510762597
 30
0.0
 10
-1.409688545501331
 20
-616.5820408350309
 30
0.0
 10
-1.287580566598945
 20
-616.392786357746
 30
0.0
 10
-0.9751611331979548
 20
-616.0803669243453
 30
0.0
 10
-0.78590665591316
 20
-615.9582589454429
 30
0.0
 10
-0.3919964146847366
 20
-615.8023134730456
 30
0.0
 10
-0.1885618083163898
 20
-615.7679474909445
 30
0.0
 10
0.0000000000000276
 20
-615.7679474909444
 30
0.0
  0
SPLINE
  5
162
330
1F
100
AcDbEntity
  8
0
  6
Continuous
 62
   144
370
    18
100
AcDbSpline
210
0.0
220
0.0
230
1.0
 70
    11
 71
     3
 72
    38
 73
    34
 74
     0
 42
0.000000001
 43
0.00000001
 40
0.0
 40
0.0
 40
0.0
 40
0.0
 40
0.0625
 40
0.0625
 40
0.125
 40
0.125
 40
0.1875
 40
0.1875
 40
0.25
 40
0.25
 40
0.3125
 40
0.3125
 40
0.375
 40
0.375
 40
0.4375
 40
0.4375
 40
0.5
 40
0.5
 40
0.5625
 40
0.5625
 40
0.625
 40
0.625
 40
0.6875
 40
0.6875
 40
0.75
 40
0.75
 40
0.8125
 40
0.8125
 40
0.875
 40
0.875
 40
0.9375
 40
0.9375
 40
1.0
 40
1.0
 40
1.0
 40
1.0
 10
235.0000000000001
 20
-213.7679474909443
 30
0.0
 10
235.1885618083165
 20
-213.7679474909442
 30
0.0
 10
235.3919964146849
 20
-213.8023134730459
 30
0.0
 10
235.7859066559133
 20
-213.9582589454429
 30
0.0
 10
235.9751611331981
 20
-214.0803669243454
 30
0.0
 10
236.287580566599
 20
-214.3927863577463
 30
0.0
 10
236.4096885455015
 20
-214.5820408350312
 30
0.0
 10
236.5656340178984
 20
-214.9759510762595
 30
0.0
 10
236.6000000000001
 20
-215.1793856826279
 30
0.0
 10
236.6000000000001
 20
-215.5565092992607
 30
0.0
 10
236.5656340178986
 20
-215.759943905629
 30
0.0
 10
236.4096885455015
 20
-216.1538541468575
 30
0.0
 10
236.2875805665991
 20
-216.3431086241424
 30
0.0
 10
235.9751611331981
 20
-216.6555280575433
 30
0.0
 10
235.7859066559134
 20
-216.7776360364457
 30
0.0
 10
235.3919964146848
 20
-216.9335815088427
 30
0.0
 10
235.1885618083164
 20
-216.9679474909442
 30
0.0
 10
234.8114381916837
 20
-216.9679474909443
 30
0.0
 10
234.6080035853153
 20
-216.9335815088427
 30
0.0
 10
234.2140933440869
 20
-216.7776360364457
 30
0.0
 10
234.0248388668022
 20
-216.6555280575432
 30
0.0
 10
233.7124194334011
 20
-216.3431086241423
 30
0.0
 10
233.5903114544986
 20
-216.1538541468575
 30
0.0
 10
233.4343659821017
 20
-215.7599439056291
 30
0.0
 10
233.4000000000001
 20
-215.5565092992607
 30
0.0
 10
233.4000000000001
 20
-215.1793856826278
 30
0.0
 10
233.4343659821017
 20
-214.9759510762595
 30
0.0
 10
233.5903114544988
 20
-214.5820408350311
 30
0.0
 10
233.7124194334012
 20
-214.3927863577464
 30
0.0
 10
234.0248388668022
 20
-214.0803669243454
 30
0.0
 10
234.2140933440869
 20
-213.9582589454429
 30
0.0
 10
234.6080035853153
 20
-213.802313473046
 30
0.0
 10
234.8114381916837
 20
-213.7679474909444
 30
0.0
 10
235.0000000000001
 20
-213.7679474909443
 30
0.0
  0
SPLINE
  5
163
330
1F
100
AcDbEntity
  8
0
  6
Continuous
 62
   144
370
    18
100
AcDbSpline
210
0.0
220
0.0
230
1.0
 70
    11
 71
     3
 72
    38
 73
    34
 74
     0
 42
0.000000001
 43
0.00000001
 40
0.0
 40
0.0
 40
0.0
 40
0.0
 40
0.0625
 40
0.0625
 40
0.125
 40
0.125
 40
0.1875
 40
0.1875
 40
0.25
 40
0.25
 40
0.3125
 40
0.3125
 40
0.375
 40
0.375
 40
0.4375
 40
0.4375
 40
0.5
 40
0.5
 40
0.5625
 40
0.5625
 40
0.625
 40
0.625
 40
0.6875
 40
0.6875
 40
0.75
 40
0.75
 40
0.8125
 40
0.8125
 40
0.875
 40
0.875
 40
0.9375
 40
0.9375
 40
1.0
 40
1.0
 40
1.0
 40
1.0
 10
235.0000000000001
 20
-189.7679474909443
 30
0.0
 10
235.1885618083164
 20
-189.7679474909442
 30
0.0
 10
235.3919964146848
 20
-189.8023134730459
 30
0.0
 10
235.7859066559131
 20
-189.9582589454428
 30
0.0
 10
235.975161133198
 20
-190.0803669243453
 30
0.0
 10
236.287580566599
 20
-190.3927863577462
 30
0.0
 10
236.4096885455014
 20
-190.5820408350309
 30
0.0
 10
236.5656340178983
 20
-190.9759510762593
 30
0.0
 10
236.6000000000001
 20
-191.1793856826279
 30
0.0
 10
236.6
 20
-191.5565092992607
 30
0.0
 10
236.5656340178984
 20
-191.7599439056291
 30
0.0
 10
236.4096885455013
 20
-192.1538541468575
 30
0.0
 10
236.287580566599
 20
-192.3431086241424
 30
0.0
 10
235.9751611331979
 20
-192.6555280575433
 30
0.0
 10
235.7859066559132
 20
-192.7776360364457
 30
0.0
 10
235.3919964146847
 20
-192.9335815088426
 30
0.0
 10
235.1885618083164
 20
-192.9679474909443
 30
0.0
 10
234.8114381916836
 20
-192.9679474909443
 30
0.0
 10
234.6080035853151
 20
-192.9335815088426
 30
0.0
 10
234.2140933440867
 20
-192.7776360364456
 30
0.0
 10
234.024838866802
 20
-192.6555280575432
 30
0.0
 10
233.712419433401
 20
-192.3431086241422
 30
0.0
 10
233.5903114544985
 20
-192.1538541468575
 30
0.0
 10
233.4343659821016
 20
-191.759943905629
 30
0.0
 10
233.4000000000001
 20
-191.5565092992607
 30
0.0
 10
233.4
 20
-191.1793856826279
 30
0.0
 10
233.4343659821016
 20
-190.9759510762595
 30
0.0
 10
233.5903114544986
 20
-190.5820408350311
 30
0.0
 10
233.712419433401
 20
-190.3927863577463
 30
0.0
 10
234.024838866802
 20
-190.0803669243452
 30
0.0
 10
234.2140933440868
 20
-189.9582589454429
 30
0.0
 10
234.6080035853152
 20
-189.8023134730459
 30
0.0
 10
234.8114381916838
 20
-189.7679474909444
 30
0.0
 10
235.0000000000001
 20
-189.7679474909443
 30
0.0
  0
SPLINE
  5
164
330
1F
100
AcDbEntity
  8
0
  6
Continuous
 62
   144
370
    18
100
AcDbSpline
210
0.0
220
0.0
230
1.0
 70
    11
 71
     3
 72
    38
 73
    34
 74
     0
 42
0.000000001
 43
0.00000001
 40
0.0
 40
0.0
 40
0.0
 40
0.0
 40
0.0625
 40
0.0625
 40
0.125
 40
0.125
 40
0.1875
 40
0.1875
 40
0.25
 40
0.25
 40
0.3125
 40
0.3125
 40
0.375
 40
0.375
 40
0.4375
 40
0.4375
 40
0.5
 40
0.5
 40
0.5625
 40
0.5625
 40
0.625
 40
0.625
 40
0.6875
 40
0.6875
 40
0.75
 40
0.75
 40
0.8125
 40
0.8125
 40
0.875
 40
0.875
 40
0.9375
 40
0.9375
 40
1.0
 40
1.0
 40
1.0
 40
1.0
 10
-235.0000000000001
 20
-189.7679474909443
 30
0.0
 10
-234.8114381916836
 20
-189.7679474909442
 30
0.0
 10
-234.6080035853152
 20
-189.8023134730459
 30
0.0
 10
-234.2140933440866
 20
-189.9582589454428
 30
0.0
 10
-234.0248388668022
 20
-190.0803669243452
 30
0.0
 10
-233.7124194334009
 20
-190.3927863577462
 30
0.0
 10
-233.5903114544987
 20
-190.5820408350311
 30
0.0
 10
-233.4343659821014
 20
-190.9759510762594
 30
0.0
 10
-233.4000000000002
 20
-191.1793856826279
 30
0.0
 10
-233.4000000000001
 20
-191.5565092992607
 30
0.0
 10
-233.4343659821017
 20
-191.7599439056291
 30
0.0
 10
-233.5903114544986
 20
-192.1538541468574
 30
0.0
 10
-233.7124194334009
 20
-192.3431086241423
 30
0.0
 10
-234.0248388668019
 20
-192.6555280575432
 30
0.0
 10
-234.2140933440867
 20
-192.7776360364457
 30
0.0
 10
-234.6080035853152
 20
-192.9335815088427
 30
0.0
 10
-234.8114381916837
 20
-192.9679474909444
 30
0.0
 10
-235.1885618083164
 20
-192.9679474909443
 30
0.0
 10
-235.3919964146848
 20
-192.9335815088427
 30
0.0
 10
-235.7859066559132
 20
-192.7776360364457
 30
0.0
 10
-235.975161133198
 20
-192.6555280575433
 30
0.0
 10
-236.287580566599
 20
-192.3431086241422
 30
0.0
 10
-236.4096885455013
 20
-192.1538541468575
 30
0.0
 10
-236.5656340178984
 20
-191.759943905629
 30
0.0
 10
-236.6000000000001
 20
-191.5565092992607
 30
0.0
 10
-236.6
 20
-191.1793856826279
 30
0.0
 10
-236.5656340178984
 20
-190.9759510762595
 30
0.0
 10
-236.4096885455014
 20
-190.5820408350311
 30
0.0
 10
-236.2875805665989
 20
-190.3927863577463
 30
0.0
 10
-235.9751611331979
 20
-190.0803669243452
 30
0.0
 10
-235.7859066559133
 20
-189.9582589454429
 30
0.0
 10
-235.3919964146849
 20
-189.8023134730459
 30
0.0
 10
-235.1885618083165
 20
-189.7679474909444
 30
0.0
 10
-235.0000000000001
 20
-189.7679474909443
 30
0.0
  0
SPLINE
  5
165
330
1F
100
AcDbEntity
  8
0
  6
Continuous
 62
   144
370
    18
100
AcDbSpline
210
0.0
220
0.0
230
1.0
 70
    11
 71
     3
 72
    38
 73
    34
 74
     0
 42
0.000000001
 43
0.00000001
 40
0.0
 40
0.0
 40
0.0
 40
0.0
 40
0.0625
 40
0.0625
 40
0.125
 40
0.125
 40
0.1875
 40
0.1875
 40
0.25
 40
0.25
 40
0.3125
 40
0.3125
 40
0.375
 40
0.375
 40
0.4375
 40
0.4375
 40
0.5
 40
0.5
 40
0.5625
 40
0.5625
 40
0.625
 40
0.625
 40
0.6875
 40
0.6875
 40
0.75
 40
0.75
 40
0.8125
 40
0.8125
 40
0.875
 40
0.875
 40
0.9375
 40
0.9375
 40
1.0
 40
1.0
 40
1.0
 40
1.0
 10
0.0000000000000278
 20
-239.7679474909443
 30
0.0
 10
0.1885618083164453
 20
-239.7679474909443
 30
0.0
 10
0.3919964146848476
 20
-239.8023134730459
 30
0.0
 10
0.7859066559132155
 20
-239.9582589454429
 30
0.0
 10
0.9751611331980103
 20
-240.0803669243453
 30
0.0
 10
1.287580566599
 20
-240.3927863577463
 30
0.0
 10
1.409688545501386
 20
-240.5820408350311
 30
0.0
 10
1.565634017898443
 20
-240.9759510762595
 30
0.0
 10
1.59999999999999
 20
-241.1793856826279
 30
0.0
 10
1.59999999999999
 20
-241.5565092992606
 30
0.0
 10
1.565634017898387
 20
-241.7599439056291
 30
0.0
 10
1.409688545501331
 20
-242.1538541468575
 30
0.0
 10
1.287580566598945
 20
-242.3431086241423
 30
0.0
 10
0.9751611331979548
 20
-242.6555280575432
 30
0.0
 10
0.78590665591316
 20
-242.7776360364457
 30
0.0
 10
0.3919964146847366
 20
-242.9335815088427
 30
0.0
 10
0.1885618083163898
 20
-242.9679474909443
 30
0.0
 10
-0.1885618083164453
 20
-242.9679474909444
 30
0.0
 10
-0.3919964146847921
 20
-242.9335815088426
 30
0.0
 10
-0.7859066559132155
 20
-242.7776360364456
 30
0.0
 10
-0.9751611331980103
 20
-242.6555280575433
 30
0.0
 10
-1.287580566599
 20
-242.3431086241422
 30
0.0
 10
-1.409688545501386
 20
-242.1538541468574
 30
0.0
 10
-1.565634017898387
 20
-241.7599439056291
 30
0.0
 10
-1.59999999999999
 20
-241.5565092992607
 30
0.0
 10
-1.59999999999999
 20
-241.1793856826279
 30
0.0
 10
-1.565634017898387
 20
-240.9759510762595
 30
0.0
 10
-1.409688545501331
 20
-240.5820408350311
 30
0.0
 10
-1.287580566598945
 20
-240.3927863577464
 30
0.0
 10
-0.9751611331979548
 20
-240.0803669243454
 30
0.0
 10
-0.7859066559132155
 20
-239.9582589454429
 30
0.0
 10
-0.3919964146847366
 20
-239.8023134730458
 30
0.0
 10
-0.1885618083163898
 20
-239.7679474909443
 30
0.0
 10
0.0000000000000278
 20
-239.7679474909443
 30
0.0
  0
SPLINE
  5
166
330
1F
100
AcDbEntity
  8
0
  6
Continuous
 62
   144
370
    18
100
AcDbSpline
210
0.0
220
0.0
230
1.0
 70
    11
 71
     3
 72
    38
 73
    34
 74
     0
 42
0.000000001
 43
0.00000001
 40
0.0
 40
0.0
 40
0.0
 40
0.0
 40
0.0625
 40
0.0625
 40
0.125
 40
0.125
 40
0.1875
 40
0.1875
 40
0.25
 40
0.25
 40
0.3125
 40
0.3125
 40
0.375
 40
0.375
 40
0.4375
 40
0.4375
 40
0.5
 40
0.5
 40
0.5625
 40
0.5625
 40
0.625
 40
0.625
 40
0.6875
 40
0.6875
 40
0.75
 40
0.75
 40
0.8125
 40
0.8125
 40
0.875
 40
0.875
 40
0.9375
 40
0.9375
 40
1.0
 40
1.0
 40
1.0
 40
1.0
 10
235.0000000000001
 20
-239.7679474909443
 30
0.0
 10
235.1885618083165
 20
-239.7679474909443
 30
0.0
 10
235.3919964146849
 20
-239.8023134730459
 30
0.0
 10
235.7859066559133
 20
-239.9582589454429
 30
0.0
 10
235.9751611331981
 20
-240.0803669243454
 30
0.0
 10
236.287580566599
 20
-240.3927863577463
 30
0.0
 10
236.4096885455015
 20
-240.5820408350313
 30
0.0
 10
236.5656340178984
 20
-240.9759510762594
 30
0.0
 10
236.6000000000001
 20
-241.1793856826278
 30
0.0
 10
236.6000000000001
 20
-241.5565092992608
 30
0.0
 10
236.5656340178986
 20
-241.7599439056291
 30
0.0
 10
236.4096885455015
 20
-242.1538541468576
 30
0.0
 10
236.2875805665991
 20
-242.3431086241423
 30
0.0
 10
235.9751611331981
 20
-242.6555280575433
 30
0.0
 10
235.7859066559134
 20
-242.7776360364457
 30
0.0
 10
235.3919964146848
 20
-242.9335815088427
 30
0.0
 10
235.1885618083164
 20
-242.9679474909443
 30
0.0
 10
234.8114381916837
 20
-242.9679474909443
 30
0.0
 10
234.6080035853153
 20
-242.9335815088427
 30
0.0
 10
234.2140933440869
 20
-242.7776360364457
 30
0.0
 10
234.0248388668022
 20
-242.6555280575434
 30
0.0
 10
233.7124194334011
 20
-242.3431086241423
 30
0.0
 10
233.5903114544986
 20
-242.1538541468575
 30
0.0
 10
233.4343659821017
 20
-241.7599439056292
 30
0.0
 10
233.4000000000001
 20
-241.5565092992607
 30
0.0
 10
233.4000000000001
 20
-241.1793856826279
 30
0.0
 10
233.4343659821017
 20
-240.9759510762595
 30
0.0
 10
233.5903114544988
 20
-240.5820408350312
 30
0.0
 10
233.7124194334012
 20
-240.3927863577464
 30
0.0
 10
234.0248388668022
 20
-240.0803669243454
 30
0.0
 10
234.2140933440869
 20
-239.958258945443
 30
0.0
 10
234.6080035853153
 20
-239.802313473046
 30
0.0
 10
234.8114381916837
 20
-239.7679474909443
 30
0.0
 10
235.0000000000001
 20
-239.7679474909443
 30
0.0
  0
SPLINE
  5
167
330
1F
100
AcDbEntity
  8
0
  6
Continuous
 62
   144
370
    18
100
AcDbSpline
210
0.0
220
0.0
230
1.0
 70
    11
 71
     3
 72
    38
 73
    34
 74
     0
 42
0.000000001
 43
0.00000001
 40
0.0
 40
0.0
 40
0.0
 40
0.0
 40
0.0625
 40
0.0625
 40
0.125
 40
0.125
 40
0.1875
 40
0.1875
 40
0.25
 40
0.25
 40
0.3125
 40
0.3125
 40
0.375
 40
0.375
 40
0.4375
 40
0.4375
 40
0.5
 40
0.5
 40
0.5625
 40
0.5625
 40
0.625
 40
0.625
 40
0.6875
 40
0.6875
 40
0.75
 40
0.75
 40
0.8125
 40
0.8125
 40
0.875
 40
0.875
 40
0.9375
 40
0.9375
 40
1.0
 40
1.0
 40
1.0
 40
1.0
 10
235.0000000000001
 20
-289.7679474909443
 30
0.0
 10
235.1885618083164
 20
-289.7679474909442
 30
0.0
 10
235.3919964146848
 20
-289.8023134730459
 30
0.0
 10
235.7859066559131
 20
-289.9582589454429
 30
0.0
 10
235.975161133198
 20
-290.0803669243453
 30
0.0
 10
236.287580566599
 20
-290.3927863577462
 30
0.0
 10
236.4096885455015
 20
-290.5820408350311
 30
0.0
 10
236.5656340178984
 20
-290.9759510762594
 30
0.0
 10
236.6000000000001
 20
-291.179385682628
 30
0.0
 10
236.6
 20
-291.5565092992607
 30
0.0
 10
236.5656340178984
 20
-291.7599439056293
 30
0.0
 10
236.4096885455014
 20
-292.1538541468574
 30
0.0
 10
236.287580566599
 20
-292.3431086241423
 30
0.0
 10
235.975161133198
 20
-292.6555280575433
 30
0.0
 10
235.7859066559133
 20
-292.7776360364459
 30
0.0
 10
235.3919964146848
 20
-292.9335815088427
 30
0.0
 10
235.1885618083165
 20
-292.9679474909441
 30
0.0
 10
234.8114381916836
 20
-292.9679474909443
 30
0.0
 10
234.6080035853153
 20
-292.9335815088427
 30
0.0
 10
234.2140933440869
 20
-292.7776360364456
 30
0.0
 10
234.0248388668021
 20
-292.6555280575432
 30
0.0
 10
233.7124194334011
 20
-292.3431086241423
 30
0.0
 10
233.5903114544986
 20
-292.1538541468574
 30
0.0
 10
233.4343659821017
 20
-291.759943905629
 30
0.0
 10
233.4000000000001
 20
-291.5565092992608
 30
0.0
 10
233.4
 20
-291.1793856826278
 30
0.0
 10
233.4343659821017
 20
-290.9759510762596
 30
0.0
 10
233.5903114544987
 20
-290.582040835031
 30
0.0
 10
233.712419433401
 20
-290.3927863577463
 30
0.0
 10
234.0248388668021
 20
-290.0803669243452
 30
0.0
 10
234.2140933440868
 20
-289.958258945443
 30
0.0
 10
234.6080035853153
 20
-289.8023134730458
 30
0.0
 10
234.8114381916837
 20
-289.7679474909443
 30
0.0
 10
235.0000000000001
 20
-289.7679474909443
 30
0.0
  0
SPLINE
  5
168
330
1F
100
AcDbEntity
  8
0
  6
Continuous
 62
   144
370
    18
100
AcDbSpline
210
0.0
220
0.0
230
1.0
 70
    11
 71
     3
 72
    38
 73
    34
 74
     0
 42
0.000000001
 43
0.00000001
 40
0.0
 40
0.0
 40
0.0
 40
0.0
 40
0.0625
 40
0.0625
 40
0.125
 40
0.125
 40
0.1875
 40
0.1875
 40
0.25
 40
0.25
 40
0.3125
 40
0.3125
 40
0.375
 40
0.375
 40
0.4375
 40
0.4375
 40
0.4999999999999999
 40
0.4999999999999999
 40
0.5624999999999999
 40
0.5624999999999999
 40
0.6249999999999999
 40
0.6249999999999999
 40
0.6874999999999999
 40
0.6874999999999999
 40
0.7499999999999999
 40
0.7499999999999999
 40
0.8125
 40
0.8125
 40
0.875
 40
0.875
 40
0.9375
 40
0.9375
 40
1.0
 40
1.0
 40
1.0
 40
1.0
 10
0.0000000000000277
 20
-339.7679474909445
 30
0.0
 10
0.1885618083164453
 20
-339.7679474909444
 30
0.0
 10
0.3919964146848476
 20
-339.8023134730459
 30
0.0
 10
0.785906655913271
 20
-339.958258945443
 30
0.0
 10
0.9751611331980103
 20
-340.0803669243452
 30
0.0
 10
1.287580566599
 20
-340.3927863577462
 30
0.0
 10
1.409688545501386
 20
-340.5820408350313
 30
0.0
 10
1.565634017898443
 20
-340.9759510762595
 30
0.0
 10
1.600000000000046
 20
-341.179385682628
 30
0.0
 10
1.600000000000046
 20
-341.5565092992607
 30
0.0
 10
1.565634017898443
 20
-341.7599439056291
 30
0.0
 10
1.409688545501442
 20
-342.1538541468577
 30
0.0
 10
1.287580566599056
 20
-342.3431086241423
 30
0.0
 10
0.9751611331980103
 20
-342.6555280575433
 30
0.0
 10
0.785906655913271
 20
-342.7776360364457
 30
0.0
 10
0.3919964146848476
 20
-342.9335815088426
 30
0.0
 10
0.1885618083165008
 20
-342.9679474909443
 30
0.0
 10
-0.1885618083163343
 20
-342.9679474909443
 30
0.0
 10
-0.3919964146847366
 20
-342.9335815088427
 30
0.0
 10
-0.7859066559131045
 20
-342.7776360364456
 30
0.0
 10
-0.9751611331978993
 20
-342.6555280575432
 30
0.0
 10
-1.287580566598889
 20
-342.3431086241423
 30
0.0
 10
-1.409688545501275
 20
-342.1538541468576
 30
0.0
 10
-1.565634017898332
 20
-341.7599439056292
 30
0.0
 10
-1.599999999999935
 20
-341.5565092992608
 30
0.0
 10
-1.599999999999935
 20
-341.179385682628
 30
0.0
 10
-1.565634017898332
 20
-340.9759510762595
 30
0.0
 10
-1.409688545501331
 20
-340.582040835031
 30
0.0
 10
-1.287580566598945
 20
-340.3927863577466
 30
0.0
 10
-0.9751611331978993
 20
-340.0803669243453
 30
0.0
 10
-0.78590665591316
 20
-339.958258945443
 30
0.0
 10
-0.3919964146847366
 20
-339.8023134730459
 30
0.0
 10
-0.1885618083163898
 20
-339.7679474909445
 30
0.0
 10
0.0000000000000278
 20
-339.7679474909445
 30
0.0
  0
SPLINE
  5
169
330
1F
100
AcDbEntity
  8
0
  6
Continuous
 62
   144
370
    18
100
AcDbSpline
210
0.0
220
0.0
230
1.0
 70
    11
 71
     3
 72
    38
 73
    34
 74
     0
 42
0.000000001
 43
0.00000001
 40
0.0
 40
0.0
 40
0.0
 40
0.0
 40
0.0625
 40
0.0625
 40
0.125
 40
0.125
 40
0.1875
 40
0.1875
 40
0.25
 40
0.25
 40
0.3125
 40
0.3125
 40
0.375
 40
0.375
 40
0.4375
 40
0.4375
 40
0.5
 40
0.5
 40
0.5625
 40
0.5625
 40
0.625
 40
0.625
 40
0.6875
 40
0.6875
 40
0.75
 40
0.75
 40
0.8125
 40
0.8125
 40
0.875
 40
0.875
 40
0.9375
 40
0.9375
 40
1.0
 40
1.0
 40
1.0
 40
1.0
 10
-235.0000000000001
 20
-339.7679474909444
 30
0.0
 10
-234.8114381916836
 20
-339.7679474909443
 30
0.0
 10
-234.6080035853152
 20
-339.8023134730459
 30
0.0
 10
-234.2140933440867
 20
-339.9582589454429
 30
0.0
 10
-234.0248388668022
 20
-340.0803669243454
 30
0.0
 10
-233.7124194334009
 20
-340.3927863577462
 30
0.0
 10
-233.5903114544987
 20
-340.5820408350314
 30
0.0
 10
-233.4343659821016
 20
-340.9759510762594
 30
0.0
 10
-233.4000000000002
 20
-341.1793856826279
 30
0.0
 10
-233.4000000000001
 20
-341.5565092992608
 30
0.0
 10
-233.4343659821016
 20
-341.7599439056291
 30
0.0
 10
-233.5903114544987
 20
-342.1538541468577
 30
0.0
 10
-233.7124194334009
 20
-342.3431086241424
 30
0.0
 10
-234.0248388668019
 20
-342.6555280575432
 30
0.0
 10
-234.2140933440867
 20
-342.7776360364456
 30
0.0
 10
-234.6080035853152
 20
-342.9335815088427
 30
0.0
 10
-234.8114381916836
 20
-342.9679474909443
 30
0.0
 10
-235.1885618083164
 20
-342.9679474909444
 30
0.0
 10
-235.3919964146849
 20
-342.9335815088426
 30
0.0
 10
-235.7859066559133
 20
-342.7776360364458
 30
0.0
 10
-235.9751611331982
 20
-342.6555280575433
 30
0.0
 10
-236.287580566599
 20
-342.3431086241423
 30
0.0
 10
-236.4096885455015
 20
-342.1538541468574
 30
0.0
 10
-236.5656340178984
 20
-341.759943905629
 30
0.0
 10
-236.6000000000001
 20
-341.5565092992606
 30
0.0
 10
-236.6
 20
-341.1793856826279
 30
0.0
 10
-236.5656340178985
 20
-340.9759510762595
 30
0.0
 10
-236.4096885455013
 20
-340.5820408350313
 30
0.0
 10
-236.287580566599
 20
-340.3927863577463
 30
0.0
 10
-235.9751611331979
 20
-340.0803669243453
 30
0.0
 10
-235.7859066559132
 20
-339.958258945443
 30
0.0
 10
-235.3919964146848
 20
-339.802313473046
 30
0.0
 10
-235.1885618083165
 20
-339.7679474909444
 30
0.0
 10
-235.0000000000001
 20
-339.7679474909444
 30
0.0
  0
SPLINE
  5
16A
330
1F
100
AcDbEntity
  8
0
  6
Continuous
 62
   144
370
    18
100
AcDbSpline
210
0.0
220
0.0
230
1.0
 70
    11
 71
     3
 72
    38
 73
    34
 74
     0
 42
0.000000001
 43
0.00000001
 40
0.0
 40
0.0
 40
0.0
 40
0.0
 40
0.0625
 40
0.0625
 40
0.125
 40
0.125
 40
0.1875
 40
0.1875
 40
0.25
 40
0.25
 40
0.3125
 40
0.3125
 40
0.375
 40
0.375
 40
0.4375
 40
0.4375
 40
0.5
 40
0.5
 40
0.5625
 40
0.5625
 40
0.625
 40
0.625
 40
0.6875
 40
0.6875
 40
0.75
 40
0.75
 40
0.8125
 40
0.8125
 40
0.875
 40
0.875
 40
0.9375
 40
0.9375
 40
1.0
 40
1.0
 40
1.0
 40
1.0
 10
235.0000000000001
 20
-389.7679474909444
 30
0.0
 10
235.1885618083164
 20
-389.7679474909442
 30
0.0
 10
235.3919964146848
 20
-389.8023134730459
 30
0.0
 10
235.7859066559132
 20
-389.9582589454428
 30
0.0
 10
235.975161133198
 20
-390.0803669243454
 30
0.0
 10
236.287580566599
 20
-390.3927863577462
 30
0.0
 10
236.4096885455015
 20
-390.5820408350311
 30
0.0
 10
236.5656340178984
 20
-390.9759510762594
 30
0.0
 10
236.6000000000001
 20
-391.179385682628
 30
0.0
 10
236.6
 20
-391.5565092992607
 30
0.0
 10
236.5656340178983
 20
-391.7599439056291
 30
0.0
 10
236.4096885455013
 20
-392.1538541468575
 30
0.0
 10
236.287580566599
 20
-392.3431086241424
 30
0.0
 10
235.9751611331979
 20
-392.6555280575433
 30
0.0
 10
235.7859066559132
 20
-392.7776360364459
 30
0.0
 10
235.3919964146848
 20
-392.9335815088428
 30
0.0
 10
235.1885618083165
 20
-392.9679474909443
 30
0.0
 10
234.8114381916836
 20
-392.9679474909443
 30
0.0
 10
234.6080035853153
 20
-392.9335815088427
 30
0.0
 10
234.2140933440869
 20
-392.7776360364457
 30
0.0
 10
234.0248388668022
 20
-392.6555280575433
 30
0.0
 10
233.7124194334012
 20
-392.3431086241422
 30
0.0
 10
233.5903114544987
 20
-392.1538541468574
 30
0.0
 10
233.4343659821017
 20
-391.759943905629
 30
0.0
 10
233.3999999999999
 20
-391.5565092992608
 30
0.0
 10
233.4000000000001
 20
-391.1793856826278
 30
0.0
 10
233.4343659821018
 20
-390.9759510762596
 30
0.0
 10
233.5903114544989
 20
-390.5820408350312
 30
0.0
 10
233.7124194334012
 20
-390.3927863577464
 30
0.0
 10
234.0248388668022
 20
-390.0803669243455
 30
0.0
 10
234.214093344087
 20
-389.958258945443
 30
0.0
 10
234.6080035853154
 20
-389.802313473046
 30
0.0
 10
234.8114381916837
 20
-389.7679474909446
 30
0.0
 10
235.0000000000001
 20
-389.7679474909444
 30
0.0
  0
SPLINE
  5
16B
330
1F
100
AcDbEntity
  8
0
  6
Continuous
 62
   144
370
    18
100
AcDbSpline
210
0.0
220
0.0
230
1.0
 70
    11
 71
     3
 72
    38
 73
    34
 74
     0
 42
0.000000001
 43
0.00000001
 40
0.0
 40
0.0
 40
0.0
 40
0.0
 40
0.0625
 40
0.0625
 40
0.125
 40
0.125
 40
0.1875
 40
0.1875
 40
0.25
 40
0.25
 40
0.3125
 40
0.3125
 40
0.375
 40
0.375
 40
0.4375
 40
0.4375
 40
0.5
 40
0.5
 40
0.5625
 40
0.5625
 40
0.625
 40
0.625
 40
0.6875
 40
0.6875
 40
0.75
 40
0.75
 40
0.8125
 40
0.8125
 40
0.875
 40
0.875
 40
0.9375
 40
0.9375
 40
1.0
 40
1.0
 40
1.0
 40
1.0
 10
235.0000000000001
 20
-439.7679474909444
 30
0.0
 10
235.1885618083164
 20
-439.7679474909443
 30
0.0
 10
235.3919964146848
 20
-439.802313473046
 30
0.0
 10
235.7859066559132
 20
-439.9582589454429
 30
0.0
 10
235.975161133198
 20
-440.0803669243455
 30
0.0
 10
236.287580566599
 20
-440.3927863577463
 30
0.0
 10
236.4096885455015
 20
-440.5820408350311
 30
0.0
 10
236.5656340178984
 20
-440.9759510762593
 30
0.0
 10
236.6000000000001
 20
-441.1793856826279
 30
0.0
 10
236.6
 20
-441.5565092992608
 30
0.0
 10
236.5656340178983
 20
-441.7599439056291
 30
0.0
 10
236.4096885455013
 20
-442.1538541468575
 30
0.0
 10
236.287580566599
 20
-442.3431086241424
 30
0.0
 10
235.9751611331979
 20
-442.6555280575432
 30
0.0
 10
235.7859066559132
 20
-442.7776360364456
 30
0.0
 10
235.3919964146848
 20
-442.9335815088426
 30
0.0
 10
235.1885618083165
 20
-442.9679474909446
 30
0.0
 10
234.8114381916836
 20
-442.9679474909443
 30
0.0
 10
234.6080035853153
 20
-442.9335815088426
 30
0.0
 10
234.2140933440869
 20
-442.7776360364455
 30
0.0
 10
234.0248388668022
 20
-442.6555280575435
 30
0.0
 10
233.7124194334012
 20
-442.3431086241424
 30
0.0
 10
233.5903114544987
 20
-442.1538541468574
 30
0.0
 10
233.4343659821017
 20
-441.7599439056291
 30
0.0
 10
233.3999999999999
 20
-441.5565092992608
 30
0.0
 10
233.4000000000001
 20
-441.1793856826278
 30
0.0
 10
233.4343659821018
 20
-440.9759510762595
 30
0.0
 10
233.5903114544989
 20
-440.5820408350311
 30
0.0
 10
233.7124194334012
 20
-440.3927863577463
 30
0.0
 10
234.0248388668022
 20
-440.0803669243452
 30
0.0
 10
234.214093344087
 20
-439.9582589454429
 30
0.0
 10
234.6080035853154
 20
-439.8023134730458
 30
0.0
 10
234.8114381916837
 20
-439.7679474909445
 30
0.0
 10
235.0000000000001
 20
-439.7679474909444
 30
0.0
  0
SPLINE
  5
16C
330
1F
100
AcDbEntity
  8
0
  6
Continuous
 62
   144
370
    18
100
AcDbSpline
210
0.0
220
0.0
230
1.0
 70
    11
 71
     3
 72
    38
 73
    34
 74
     0
 42
0.000000001
 43
0.00000001
 40
0.0
 40
0.0
 40
0.0
 40
0.0
 40
0.0625
 40
0.0625
 40
0.125
 40
0.125
 40
0.1875
 40
0.1875
 40
0.25
 40
0.25
 40
0.3125
 40
0.3125
 40
0.375
 40
0.375
 40
0.4375
 40
0.4375
 40
0.5
 40
0.5
 40
0.5625
 40
0.5625
 40
0.625
 40
0.625
 40
0.6875
 40
0.6875
 40
0.75
 40
0.75
 40
0.8125
 40
0.8125
 40
0.875
 40
0.875
 40
0.9375
 40
0.9375
 40
1.0
 40
1.0
 40
1.0
 40
1.0
 10
0.0000000000000278
 20
-489.7679474909443
 30
0.0
 10
0.1885618083164453
 20
-489.7679474909441
 30
0.0
 10
0.3919964146847921
 20
-489.8023134730462
 30
0.0
 10
0.7859066559132155
 20
-489.9582589454427
 30
0.0
 10
0.9751611331980103
 20
-490.0803669243453
 30
0.0
 10
1.287580566599
 20
-490.3927863577462
 30
0.0
 10
1.409688545501386
 20
-490.582040835031
 30
0.0
 10
1.565634017898443
 20
-490.9759510762594
 30
0.0
 10
1.600000000000046
 20
-491.179385682628
 30
0.0
 10
1.600000000000046
 20
-491.5565092992607
 30
0.0
 10
1.565634017898443
 20
-491.7599439056291
 30
0.0
 10
1.409688545501386
 20
-492.1538541468575
 30
0.0
 10
1.287580566599
 20
-492.3431086241425
 30
0.0
 10
0.9751611331980103
 20
-492.6555280575432
 30
0.0
 10
0.7859066559132155
 20
-492.7776360364459
 30
0.0
 10
0.3919964146847921
 20
-492.9335815088428
 30
0.0
 10
0.1885618083164453
 20
-492.9679474909443
 30
0.0
 10
-0.1885618083163898
 20
-492.9679474909442
 30
0.0
 10
-0.3919964146847366
 20
-492.9335815088427
 30
0.0
 10
-0.78590665591316
 20
-492.7776360364456
 30
0.0
 10
-0.9751611331979548
 20
-492.6555280575432
 30
0.0
 10
-1.287580566598945
 20
-492.3431086241421
 30
0.0
 10
-1.409688545501331
 20
-492.1538541468576
 30
0.0
 10
-1.565634017898387
 20
-491.7599439056287
 30
0.0
 10
-1.599999999999935
 20
-491.5565092992607
 30
0.0
 10
-1.599999999999935
 20
-491.1793856826278
 30
0.0
 10
-1.565634017898387
 20
-490.9759510762597
 30
0.0
 10
-1.409688545501331
 20
-490.5820408350311
 30
0.0
 10
-1.287580566598945
 20
-490.3927863577464
 30
0.0
 10
-0.9751611331979548
 20
-490.0803669243451
 30
0.0
 10
-0.78590665591316
 20
-489.958258945443
 30
0.0
 10
-0.3919964146847366
 20
-489.8023134730457
 30
0.0
 10
-0.1885618083163898
 20
-489.7679474909444
 30
0.0
 10
0.0000000000000278
 20
-489.7679474909443
 30
0.0
  0
SPLINE
  5
16D
330
1F
100
AcDbEntity
  8
0
  6
Continuous
 62
   144
370
    18
100
AcDbSpline
210
0.0
220
0.0
230
1.0
 70
    11
 71
     3
 72
    38
 73
    34
 74
     0
 42
0.000000001
 43
0.00000001
 40
0.0
 40
0.0
 40
0.0
 40
0.0
 40
0.0625
 40
0.0625
 40
0.125
 40
0.125
 40
0.1875000000000001
 40
0.1875000000000001
 40
0.2500000000000001
 40
0.2500000000000001
 40
0.3125000000000001
 40
0.3125000000000001
 40
0.3750000000000001
 40
0.3750000000000001
 40
0.4375000000000001
 40
0.4375000000000001
 40
0.5
 40
0.5
 40
0.5625
 40
0.5625
 40
0.625
 40
0.625
 40
0.6875
 40
0.6875
 40
0.75
 40
0.75
 40
0.8125000000000001
 40
0.8125000000000001
 40
0.8750000000000001
 40
0.8750000000000001
 40
0.9375000000000001
 40
0.9375000000000001
 40
1.0
 40
1.0
 40
1.0
 40
1.0
 10
0.0000000000000276
 20
-539.7679474909444
 30
0.0
 10
0.1885618083164453
 20
-539.7679474909442
 30
0.0
 10
0.3919964146848476
 20
-539.8023134730461
 30
0.0
 10
0.785906655913271
 20
-539.9582589454429
 30
0.0
 10
0.9751611331980103
 20
-540.0803669243455
 30
0.0
 10
1.287580566599
 20
-540.3927863577464
 30
0.0
 10
1.409688545501386
 20
-540.5820408350313
 30
0.0
 10
1.565634017898443
 20
-540.9759510762595
 30
0.0
 10
1.600000000000046
 20
-541.1793856826278
 30
0.0
 10
1.600000000000046
 20
-541.5565092992608
 30
0.0
 10
1.565634017898443
 20
-541.7599439056293
 30
0.0
 10
1.409688545501386
 20
-542.1538541468576
 30
0.0
 10
1.287580566599
 20
-542.3431086241426
 30
0.0
 10
0.9751611331980103
 20
-542.6555280575434
 30
0.0
 10
0.785906655913271
 20
-542.7776360364456
 30
0.0
 10
0.3919964146848476
 20
-542.9335815088424
 30
0.0
 10
0.1885618083164453
 20
-542.9679474909443
 30
0.0
 10
-0.1885618083163898
 20
-542.9679474909443
 30
0.0
 10
-0.3919964146847366
 20
-542.9335815088427
 30
0.0
 10
-0.78590665591316
 20
-542.7776360364456
 30
0.0
 10
-0.9751611331979548
 20
-542.6555280575434
 30
0.0
 10
-1.287580566598945
 20
-542.3431086241421
 30
0.0
 10
-1.409688545501331
 20
-542.1538541468575
 30
0.0
 10
-1.565634017898387
 20
-541.7599439056289
 30
0.0
 10
-1.599999999999935
 20
-541.5565092992609
 30
0.0
 10
-1.59999999999999
 20
-541.179385682628
 30
0.0
 10
-1.565634017898387
 20
-540.9759510762598
 30
0.0
 10
-1.409688545501331
 20
-540.5820408350313
 30
0.0
 10
-1.287580566598945
 20
-540.3927863577463
 30
0.0
 10
-0.9751611331979548
 20
-540.0803669243452
 30
0.0
 10
-0.78590665591316
 20
-539.9582589454432
 30
0.0
 10
-0.3919964146847366
 20
-539.802313473046
 30
0.0
 10
-0.1885618083163898
 20
-539.7679474909445
 30
0.0
 10
0.0000000000000276
 20
-539.7679474909444
 30
0.0
  0
SPLINE
  5
16E
330
1F
100
AcDbEntity
  8
0
  6
Continuous
 62
   144
370
    18
100
AcDbSpline
210
0.0
220
0.0
230
1.0
 70
    11
 71
     3
 72
    38
 73
    34
 74
     0
 42
0.000000001
 43
0.00000001
 40
0.0
 40
0.0
 40
0.0
 40
0.0
 40
0.0625
 40
0.0625
 40
0.125
 40
0.125
 40
0.1875
 40
0.1875
 40
0.25
 40
0.25
 40
0.3125
 40
0.3125
 40
0.375
 40
0.375
 40
0.4375
 40
0.4375
 40
0.5
 40
0.5
 40
0.5625
 40
0.5625
 40
0.625
 40
0.625
 40
0.6875
 40
0.6875
 40
0.75
 40
0.75
 40
0.8125
 40
0.8125
 40
0.875
 40
0.875
 40
0.9375
 40
0.9375
 40
1.0
 40
1.0
 40
1.0
 40
1.0
 10
235.0
 20
-539.7679474909444
 30
0.0
 10
235.1885618083164
 20
-539.767947490944
 30
0.0
 10
235.3919964146849
 20
-539.8023134730458
 30
0.0
 10
235.7859066559132
 20
-539.9582589454429
 30
0.0
 10
235.9751611331981
 20
-540.0803669243454
 30
0.0
 10
236.287580566599
 20
-540.392786357746
 30
0.0
 10
236.4096885455016
 20
-540.5820408350311
 30
0.0
 10
236.5656340178984
 20
-540.9759510762595
 30
0.0
 10
236.6000000000001
 20
-541.179385682628
 30
0.0
 10
236.6000000000001
 20
-541.5565092992607
 30
0.0
 10
236.5656340178986
 20
-541.7599439056291
 30
0.0
 10
236.4096885455015
 20
-542.1538541468575
 30
0.0
 10
236.2875805665991
 20
-542.343108624142
 30
0.0
 10
235.9751611331981
 20
-542.6555280575433
 30
0.0
 10
235.7859066559135
 20
-542.7776360364458
 30
0.0
 10
235.3919964146849
 20
-542.9335815088428
 30
0.0
 10
235.1885618083165
 20
-542.9679474909442
 30
0.0
 10
234.8114381916836
 20
-542.9679474909445
 30
0.0
 10
234.6080035853153
 20
-542.9335815088428
 30
0.0
 10
234.214093344087
 20
-542.7776360364458
 30
0.0
 10
234.0248388668022
 20
-542.6555280575435
 30
0.0
 10
233.7124194334011
 20
-542.3431086241425
 30
0.0
 10
233.5903114544987
 20
-542.1538541468575
 30
0.0
 10
233.4343659821017
 20
-541.7599439056291
 30
0.0
 10
233.4000000000001
 20
-541.5565092992606
 30
0.0
 10
233.4000000000001
 20
-541.1793856826278
 30
0.0
 10
233.4343659821017
 20
-540.9759510762597
 30
0.0
 10
233.5903114544988
 20
-540.5820408350312
 30
0.0
 10
233.7124194334012
 20
-540.3927863577462
 30
0.0
 10
234.0248388668022
 20
-540.0803669243452
 30
0.0
 10
234.2140933440869
 20
-539.9582589454429
 30
0.0
 10
234.6080035853153
 20
-539.8023134730457
 30
0.0
 10
234.8114381916836
 20
-539.7679474909446
 30
0.0
 10
235.0
 20
-539.7679474909444
 30
0.0
  0
SPLINE
  5
16F
330
1F
100
AcDbEntity
  8
0
  6
Continuous
 62
   144
370
    18
100
AcDbSpline
210
0.0
220
0.0
230
1.0
 70
    11
 71
     3
 72
    38
 73
    34
 74
     0
 42
0.000000001
 43
0.00000001
 40
0.0
 40
0.0
 40
0.0
 40
0.0
 40
0.0625
 40
0.0625
 40
0.125
 40
0.125
 40
0.1875
 40
0.1875
 40
0.25
 40
0.25
 40
0.3125000000000001
 40
0.3125000000000001
 40
0.375
 40
0.375
 40
0.4375
 40
0.4375
 40
0.5
 40
0.5
 40
0.5625
 40
0.5625
 40
0.625
 40
0.625
 40
0.6875
 40
0.6875
 40
0.7499999999999999
 40
0.7499999999999999
 40
0.8124999999999999
 40
0.8124999999999999
 40
0.8749999999999999
 40
0.8749999999999999
 40
0.9375
 40
0.9375
 40
1.0
 40
1.0
 40
1.0
 40
1.0
 10
0.0000000000000278
 20
-589.7679474909444
 30
0.0
 10
0.1885618083164453
 20
-589.7679474909443
 30
0.0
 10
0.3919964146848476
 20
-589.8023134730462
 30
0.0
 10
0.785906655913271
 20
-589.958258945443
 30
0.0
 10
0.9751611331980103
 20
-590.0803669243451
 30
0.0
 10
1.287580566599
 20
-590.3927863577464
 30
0.0
 10
1.409688545501386
 20
-590.582040835031
 30
0.0
 10
1.565634017898443
 20
-590.9759510762594
 30
0.0
 10
1.600000000000046
 20
-591.1793856826279
 30
0.0
 10
1.600000000000046
 20
-591.5565092992605
 30
0.0
 10
1.565634017898443
 20
-591.7599439056291
 30
0.0
 10
1.409688545501442
 20
-592.1538541468576
 30
0.0
 10
1.287580566599056
 20
-592.3431086241425
 30
0.0
 10
0.9751611331980103
 20
-592.6555280575434
 30
0.0
 10
0.785906655913271
 20
-592.777636036446
 30
0.0
 10
0.3919964146848476
 20
-592.9335815088426
 30
0.0
 10
0.1885618083165008
 20
-592.9679474909445
 30
0.0
 10
-0.1885618083163343
 20
-592.9679474909443
 30
0.0
 10
-0.3919964146847366
 20
-592.933581508843
 30
0.0
 10
-0.78590665591316
 20
-592.7776360364458
 30
0.0
 10
-0.9751611331978993
 20
-592.6555280575432
 30
0.0
 10
-1.287580566598945
 20
-592.3431086241422
 30
0.0
 10
-1.409688545501331
 20
-592.1538541468574
 30
0.0
 10
-1.565634017898332
 20
-591.7599439056288
 30
0.0
 10
-1.599999999999935
 20
-591.5565092992609
 30
0.0
 10
-1.599999999999935
 20
-591.179385682628
 30
0.0
 10
-1.565634017898387
 20
-590.9759510762594
 30
0.0
 10
-1.409688545501331
 20
-590.582040835031
 30
0.0
 10
-1.287580566598945
 20
-590.3927863577463
 30
0.0
 10
-0.9751611331979548
 20
-590.0803669243453
 30
0.0
 10
-0.78590665591316
 20
-589.9582589454429
 30
0.0
 10
-0.3919964146847366
 20
-589.8023134730461
 30
0.0
 10
-0.1885618083163898
 20
-589.7679474909445
 30
0.0
 10
0.0000000000000278
 20
-589.7679474909444
 30
0.0
  0
SPLINE
  5
170
330
1F
100
AcDbEntity
  8
0
  6
Continuous
 62
   144
370
    18
100
AcDbSpline
210
0.0
220
0.0
230
1.0
 70
     8
 71
     3
 72
    22
 73
    18
 74
     0
 42
0.000000001
 43
0.00000001
 40
0.0
 40
0.0
 40
0.0
 40
0.0
 40
0.125
 40
0.125
 40
0.25
 40
0.25
 40
0.375
 40
0.375
 40
0.5
 40
0.5
 40
0.625
 40
0.625
 40
0.75
 40
0.75
 40
0.875
 40
0.875
 40
1.0
 40
1.0
 40
1.0
 40
1.0
 10
-140.552763619488
 20
-151.1679474909443
 30
0.0
 10
-140.5527636194854
 20
-151.4154348643596
 30
0.0
 10
-140.597868970991
 20
-151.6824427852185
 30
0.0
 10
-140.8025474035066
 20
-152.1994499768329
 30
0.0
 10
-140.9628141258135
 20
-152.4478464782708
 30
0.0
 10
-141.372864632148
 20
-152.857896984614
 30
0.0
 10
-141.6212611335826
 20
-153.0181637069259
 30
0.0
 10
-142.1382683251928
 20
-153.2228421394526
 30
0.0
 10
-142.4052762460508
 20
-153.2679474909638
 30
0.0
 10
-142.9002509928814
 20
-153.2679474909689
 30
0.0
 10
-143.1672589137404
 20
-153.2228421394633
 30
0.0
 10
-143.6842661053547
 20
-153.0181637069475
 30
0.0
 10
-143.9326626067926
 20
-152.8578969846408
 30
0.0
 10
-144.3427131131357
 20
-152.4478464783062
 30
0.0
 10
-144.5029798354478
 20
-152.1994499768717
 30
0.0
 10
-144.7076582679743
 20
-151.6824427852615
 30
0.0
 10
-144.7527636194854
 20
-151.4154348644035
 30
0.0
 10
-144.752763619488
 20
-151.1679474909883
 30
0.0
  0
SPLINE
  5
174
330
1F
100
AcDbEntity
  8
0
  6
Continuous
 62
   144
370
    18
100
AcDbSpline
210
0.0
220
0.0
230
1.0
 70
     8
 71
     3
 72
    22
 73
    18
 74
     0
 42
0.000000001
 43
0.00000001
 40
0.0
 40
0.0
 40
0.0
 40
0.0
 40
0.125
 40
0.125
 40
0.25
 40
0.25
 40
0.375
 40
0.375
 40
0.5
 40
0.5
 40
0.625
 40
0.625
 40
0.75
 40
0.75
 40
0.875
 40
0.875
 40
1.0
 40
1.0
 40
1.0
 40
1.0
 10
-144.252763619488
 20
-151.1679474909663
 30
0.0
 10
-144.252763619488
 20
-151.3565092992826
 30
0.0
 10
-144.2183976373865
 20
-151.5599439056511
 30
0.0
 10
-144.0624521649894
 20
-151.9538541468795
 30
0.0
 10
-143.940344186087
 20
-152.1431086241643
 30
0.0
 10
-143.6279247526861
 20
-152.4555280575652
 30
0.0
 10
-143.4386702754013
 20
-152.5776360364677
 30
0.0
 10
-143.0447600341729
 20
-152.7335815088647
 30
0.0
 10
-142.8413254278045
 20
-152.7679474909664
 30
0.0
 10
-142.4642018111716
 20
-152.7679474909664
 30
0.0
 10
-142.2607672048032
 20
-152.7335815088647
 30
0.0
 10
-141.8668569635748
 20
-152.5776360364676
 30
0.0
 10
-141.6776024862901
 20
-152.4555280575652
 30
0.0
 10
-141.365183052889
 20
-152.1431086241643
 30
0.0
 10
-141.2430750739867
 20
-151.9538541468795
 30
0.0
 10
-141.0871296015895
 20
-151.5599439056511
 30
0.0
 10
-141.052763619488
 20
-151.3565092992827
 30
0.0
 10
-141.052763619488
 20
-151.1679474909663
 30
0.0
  0
SPLINE
  5
179
330
1F
100
AcDbEntity
  8
0
  6
Continuous
 62
   144
370
    18
100
AcDbSpline
210
0.0
220
0.0
230
1.0
 70
    24
 71
     3
 72
    14
 73
    10
 74
     0
 42
0.000000001
 43
0.00000001
 40
0.0
 40
0.0
 40
0.0
 40
0.0
 40
0.25
 40
0.25
 40
0.5
 40
0.5
 40
0.75
 40
0.75
 40
1.0
 40
1.0
 40
1.0
 40
1.0
 10
292.6000000000001
 20
-123.0679474909443
 30
0.0
 10
292.6000000000001
 20
-122.9767449622811
 30
0.0
 10
292.6000000000001
 20
-122.8836031704443
 30
0.0
 10
292.6
 20
-122.7099938810112
 30
0.0
 10
292.6
 20
-122.6298643389795
 30
0.0
 10
292.6
 20
-122.4989059149619
 30
0.0
 10
292.6
 20
-122.4483083031525
 30
0.0
 10
292.6000000000001
 20
-122.3828869086879
 30
0.0
 10
292.6000000000001
 20
-122.3679474909443
 30
0.0
 10
292.6000000000001
 20
-122.3679474909443
 30
0.0
  0
SPLINE
  5
17A
330
1F
100
AcDbEntity
  8
0
  6
Continuous
 62
   144
370
    18
100
AcDbSpline
210
0.0
220
0.0
230
1.0
 70
    24
 71
     3
 72
    14
 73
    10
 74
     0
 42
0.000000001
 43
0.00000001
 40
0.0
 40
0.0
 40
0.0
 40
0.0
 40
0.25
 40
0.25
 40
0.5
 40
0.5
 40
0.75
 40
0.75
 40
1.0
 40
1.0
 40
1.0
 40
1.0
 10
-292.6000000000001
 20
-122.3679474909443
 30
0.0
 10
-292.6000000000001
 20
-122.3679474909443
 30
0.0
 10
-292.6000000000001
 20
-122.3828869086878
 30
0.0
 10
-292.6
 20
-122.4483083031525
 30
0.0
 10
-292.6
 20
-122.4989059149619
 30
0.0
 10
-292.6
 20
-122.6298643389795
 30
0.0
 10
-292.6000000000001
 20
-122.7099938810112
 30
0.0
 10
-292.6000000000001
 20
-122.8836031704443
 30
0.0
 10
-292.6000000000001
 20
-122.9767449622811
 30
0.0
 10
-292.6000000000001
 20
-123.0679474909443
 30
0.0
  0
SPLINE
  5
17B
330
1F
100
AcDbEntity
  8
0
  6
Continuous
 62
   144
370
    18
100
AcDbSpline
210
0.0
220
0.0
230
1.0
 70
     8
 71
     3
 72
    10
 73
     6
 74
     0
 42
0.000000001
 43
0.00000001
 40
0.0
 40
0.0
 40
0.0
 40
0.0
 40
0.3351938552373632
 40
0.6677411770730068
 40
1.0
 40
1.0
 40
1.0
 40
1.0
 10
-292.6000000000003
 20
-123.0679474909442
 30
0.0
 10
-292.6006414491219
 20
-123.0903309311791
 30
0.0
 10
-292.6019192827839
 20
-123.1349210825075
 30
0.0
 10
-292.6116650058038
 20
-123.2022784567118
 30
0.0
 10
-292.6233430957071
 20
-123.2460641466047
 30
0.0
 10
-292.62917960675
 20
-123.2679474909443
 30
0.0
  0
SPLINE
  5
17C
330
1F
100
AcDbEntity
  8
0
  6
Continuous
 62
   144
370
    18
100
AcDbSpline
210
0.0
220
0.0
230
1.0
 70
     8
 71
     3
 72
    10
 73
     6
 74
     0
 42
0.000000001
 43
0.00000001
 40
0.0
 40
0.0
 40
0.0
 40
0.0
 40
0.3322588229275573
 40
0.6648061447632697
 40
1.0
 40
1.0
 40
1.0
 40
1.0
 10
292.62917960675
 20
-123.2679474909443
 30
0.0
 10
292.6233430957071
 20
-123.2460641466047
 30
0.0
 10
292.6116650058038
 20
-123.2022784567117
 30
0.0
 10
292.6019192827833
 20
-123.1349210825074
 30
0.0
 10
292.6006414491214
 20
-123.0903309311791
 30
0.0
 10
292.5999999999999
 20
-123.0679474909442
 30
0.0
  0
LWPOLYLINE
  5
17D
330
1F
100
AcDbEntity
  8
0
  6
Continuous
 62
   144
370
    18
100
AcDbPolyline
 90
        2
 70
   128
 43
0.0
 10
-292.6
 20
-710.3679474909
 10
-292.6
 20
-710.3679474909
  0
LWPOLYLINE
  5
17F
330
1F
100
AcDbEntity
  8
0
  6
Continuous
 62
   144
370
    18
100
AcDbPolyline
 90
        2
 70
   128
 43
0.0
 10
293.5
 20
-710.3679474909
 10
293.5
 20
-710.3679474909
  0
LWPOLYLINE
  5
181
330
1F
100
AcDbEntity
  8
0
  6
Continuous
 62
   144
370
    18
100
AcDbPolyline
 90
        2
 70
   128
 43
0.0
 10
292.6
 20
-710.3679474909
 10
292.6
 20
-710.3679474909
  0
LWPOLYLINE
  5
182
330
1F
100
AcDbEntity
  8
0
  6
Continuous
 62
   144
370
    18
100
AcDbPolyline
 90
        2
 70
   128
 43
0.0
 10
293.55
 20
-123.7679474909
 10
293.55
 20
-123.7679474909
  0
LWPOLYLINE
  5
184
330
1F
100
AcDbEntity
  8
0
  6
Continuous
 62
   144
370
    18
100
AcDbPolyline
 90
        2
 70
   128
 43
0.0
 10
293.55
 20
-122.8679474909
 10
293.55
 20
-122.8679474909
  0
LWPOLYLINE
  5
186
330
1F
100
AcDbEntity
  8
0
  6
Continuous
 62
   144
370
    18
100
AcDbPolyline
 90
        2
 70
   128
 43
0.0
 10
293.55
 20
-708.9679474909
 10
293.55
 20
-708.9679474909
  0
LWPOLYLINE
  5
187
330
1F
100
AcDbEntity
  8
0
  6
Continuous
 62
   144
370
    18
100
AcDbPolyline
 90
        2
 70
   128
 43
0.0
 10
-294.0
 20
-123.7679474909
 10
-294.0
 20
-123.7679474909
  0
LWPOLYLINE
  5
189
330
1F
100
AcDbEntity
  8
0
  6
Continuous
 62
   144
370
    18
100
AcDbPolyline
 90
        2
 70
   128
 43
0.0
 10
-294.0
 20
-122.8679474909
 10
-294.0
 20
-122.8679474909
  0
LWPOLYLINE
  5
18B
330
1F
100
AcDbEntity
  8
0
  6
Continuous
 62
   144
370
    18
100
AcDbPolyline
 90
        2
 70
   128
 43
0.0
 10
-294.0
 20
-708.9679474909
 10
-294.0
 20
-708.9679474909
  0
LWPOLYLINE
  5
18C
330
1F
100
AcDbEntity
  8
0
  6
Continuous
 62
   144
370
    18
100
AcDbPolyline
 90
        2
 70
   128
 43
0.0
 10
292.6
 20
-709.9179474909
 10
292.6
 20
-709.9179474909
  0
LWPOLYLINE
  5
18E
330
1F
100
AcDbEntity
  8
0
  6
Continuous
 62
   144
370
    18
100
AcDbPolyline
 90
        2
 70
   128
 43
0.0
 10
293.5
 20
-709.9179474909
 10
293.5
 20
-709.9179474909
  0
LWPOLYLINE
  5
190
330
1F
100
AcDbEntity
  8
0
  6
Continuous
 62
   144
370
    18
100
AcDbPolyline
 90
        2
 70
   128
 43
0.0
 10
-292.6
 20
-709.9179474909
 10
-292.6
 20
-709.9179474909
  0
LWPOLYLINE
  5
191
330
1F
100
AcDbEntity
  8
0
  6
Continuous
 62
   144
370
    18
100
AcDbPolyline
 90
        2
 70
   128
 43
0.0
 10
-293.55
 20
-708.9679474909
 10
-293.55
 20
-708.9679474909
  0
LWPOLYLINE
  5
193
330
1F
100
AcDbEntity
  8
0
  6
Continuous
 62
   144
370
    18
100
AcDbPolyline
 90
        2
 70
   128
 43
0.0
 10
-293.55
 20
-122.8679474909
 10
-293.55
 20
-122.8679474909
  0
LWPOLYLINE
  5
195
330
1F
100
AcDbEntity
  8
0
  6
Continuous
 62
   144
370
    18
100
AcDbPolyline
 90
        2
 70
   128
 43
0.0
 10
-293.55
 20
-123.7679474909
 10
-293.55
 20
-123.7679474909
  0
LWPOLYLINE
  5
196
330
1F
100
AcDbEntity
  8
0
  6
Continuous
 62
   144
370
    18
100
AcDbPolyline
 90
        2
 70
   128
 43
0.0
 10
294.0
 20
-708.9679474909
 10
294.0
 20
-708.9679474909
  0
LWPOLYLINE
  5
198
330
1F
100
AcDbEntity
  8
0
  6
Continuous
 62
   144
370
    18
100
AcDbPolyline
 90
        2
 70
   128
 43
0.0
 10
294.0
 20
-122.8679474909
 10
294.0
 20
-122.8679474909
  0
LWPOLYLINE
  5
19A
330
1F
100
AcDbEntity
  8
0
  6
Continuous
 62
   144
370
    18
100
AcDbPolyline
 90
        2
 70
   128
 43
0.0
 10
294.0
 20
-123.7679474909
 10
294.0
 20
-123.7679474909
  0
LWPOLYLINE
  5
19B
330
1F
100
AcDbEntity
  8
0
  6
Continuous
 62
   144
370
    18
100
AcDbPolyline
 90
        2
 70
   128
 43
0.0
 10
-292.6
 20
-122.8179474909
 10
-292.6
 20
-122.8179474909
  0
LWPOLYLINE
  5
19D
330
1F
100
AcDbEntity
  8
0
  6
Continuous
 62
   144
370
    18
100
AcDbPolyline
 90
        2
 70
   128
 43
0.0
 10
-292.9085786438
 20
-122.8179474909
 10
-292.9085786438
 20
-122.8179474909
  0
LWPOLYLINE
  5
19E
330
1F
100
AcDbEntity
  8
0
  6
Continuous
 62
   144
370
    18
100
AcDbPolyline
 90
        2
 70
   128
 43
0.0
 10
292.9085786438
 20
-122.8179474909
 10
292.9085786438
 20
-122.8179474909
  0
LWPOLYLINE
  5
1A0
330
1F
100
AcDbEntity
  8
0
  6
Continuous
 62
   144
370
    18
100
AcDbPolyline
 90
        2
 70
   128
 43
0.0
 10
292.6
 20
-122.8179474909
 10
292.6
 20
-122.8179474909
  0
LWPOLYLINE
  5
1A1
330
1F
100
AcDbEntity
  8
0
  6
Continuous
 62
   144
370
    18
100
AcDbPolyline
 90
        2
 70
   128
 43
0.0
 10
292.6
 20
-122.3679474909
 10
292.6
 20
-122.3679474909
  0
LWPOLYLINE
  5
1A2
330
1F
100
AcDbEntity
  8
0
  6
Continuous
 62
   144
370
    18
100
AcDbPolyline
 90
        2
 70
   128
 43
0.0
 10
292.6
 20
-122.3679474909
 10
292.6
 20
-122.3679474909
  0
LWPOLYLINE
  5
1A4
330
1F
100
AcDbEntity
  8
0
  6
Continuous
 62
   144
370
    18
100
AcDbPolyline
 90
        2
 70
   128
 43
0.0
 10
292.9085786438
 20
-122.3679474909
 10
292.9085786438
 20
-122.3679474909
  0
LWPOLYLINE
  5
1A5
330
1F
100
AcDbEntity
  8
0
  6
Continuous
 62
   144
370
    18
100
AcDbPolyline
 90
        2
 70
   128
 43
0.0
 10
-292.9085786438
 20
-122.3679474909
 10
-292.9085786438
 20
-122.3679474909
  0
LWPOLYLINE
  5
1A6
330
1F
100
AcDbEntity
  8
0
  6
Continuous
 62
   144
370
    18
100
AcDbPolyline
 90
        2
 70
   128
 43
0.0
 10
-292.6
 20
-122.3679474909
 10
-292.6
 20
-122.3679474909
  0
SPLINE
  5
1A9
330
1F
100
AcDbEntity
  8
0
  6
Continuous
 62
   144
370
    18
100
AcDbSpline
210
0.0
220
0.0
230
1.0
 70
    24
 71
     3
 72
    14
 73
    10
 74
     0
 42
0.000000001
 43
0.00000001
 40
0.0
 40
0.0
 40
0.0
 40
0.0
 40
0.25
 40
0.25
 40
0.5
 40
0.5
 40
0.75
 40
0.75
 40
1.0
 40
1.0
 40
1.0
 40
1.0
 10
-293.5500000000001
 20
-709.8679474909443
 30
0.0
 10
-293.5500000000001
 20
-709.8679474909443
 30
0.0
 10
-293.5403345675342
 20
-709.8679474909443
 30
0.0
 10
-293.4964749034224
 20
-709.8679474909441
 30
0.0
 10
-293.4621320343561
 20
-709.8679474909444
 30
0.0
 10
-293.3742640687121
 20
-709.8679474909445
 30
0.0
 10
-293.3210362469757
 20
-709.8679474909445
 30
0.0
 10
-293.2102489916302
 20
-709.8679474909444
 30
0.0
 10
-293.1530330085891
 20
-709.8679474909444
 30
0.0
 10
-293.1
 20
-709.8679474909443
 30
0.0
  0
SPLINE
  5
1AC
330
1F
100
AcDbEntity
  8
0
  6
Continuous
 62
   144
370
    18
100
AcDbSpline
210
0.0
220
0.0
230
1.0
 70
    24
 71
     3
 72
    14
 73
    10
 74
     0
 42
0.000000001
 43
0.00000001
 40
0.0
 40
0.0
 40
0.0
 40
0.0
 40
0.25
 40
0.25
 40
0.5
 40
0.5
 40
0.75
 40
0.75
 40
1.0
 40
1.0
 40
1.0
 40
1.0
 10
293.55
 20
-709.8679474909443
 30
0.0
 10
293.55
 20
-709.8679474909443
 30
0.0
 10
293.5403345675342
 20
-709.8679474909443
 30
0.0
 10
293.4964749034224
 20
-709.8679474909441
 30
0.0
 10
293.4621320343562
 20
-709.8679474909444
 30
0.0
 10
293.3742640687121
 20
-709.8679474909445
 30
0.0
 10
293.3210362469758
 20
-709.8679474909445
 30
0.0
 10
293.2102489916302
 20
-709.8679474909444
 30
0.0
 10
293.1530330085891
 20
-709.8679474909444
 30
0.0
 10
293.1000000000001
 20
-709.8679474909443
 30
0.0
  0
SPLINE
  5
1B0
330
1F
100
AcDbEntity
  8
0
  6
Continuous
 62
   144
370
    18
100
AcDbSpline
210
0.0
220
0.0
230
1.0
 70
     8
 71
     3
 72
    14
 73
    10
 74
     0
 42
0.000000001
 43
0.00000001
 40
0.0
 40
0.0
 40
0.0
 40
0.0
 40
0.25
 40
0.25
 40
0.5
 40
0.5
 40
0.75
 40
0.75
 40
1.0
 40
1.0
 40
1.0
 40
1.0
 10
-293.5
 20
-123.2679474909443
 30
0.0
 10
-293.5
 20
-123.1618814737663
 30
0.0
 10
-293.4806691350679
 20
-123.0474495076841
 30
0.0
 10
-293.3929498068445
 20
-122.8258749969931
 30
0.0
 10
-293.3242640687118
 20
-122.7194193535204
 30
0.0
 10
-293.1485281374237
 20
-122.5436834222324
 30
0.0
 10
-293.0420724939511
 20
-122.4749976840997
 30
0.0
 10
-292.8204979832602
 20
-122.3872783558765
 30
0.0
 10
-292.7060660171781
 20
-122.3679474909443
 30
0.0
 10
-292.6000000000001
 20
-122.3679474909443
 30
0.0
  0
LWPOLYLINE
  5
1B1
330
1F
100
AcDbEntity
  8
0
  6
Continuous
 62
   144
370
    18
100
AcDbPolyline
 90
        2
 70
   128
 43
0.0
 10
-293.5
 20
-123.2679474909
 10
-293.5
 20
-123.2679474909
  0
SPLINE
  5
1B2
330
1F
100
AcDbEntity
  8
0
  6
Continuous
 62
   144
370
    18
100
AcDbSpline
210
0.0
220
0.0
230
1.0
 70
     8
 71
     3
 72
    14
 73
    10
 74
     0
 42
0.000000001
 43
0.00000001
 40
0.0
 40
0.0
 40
0.0
 40
0.0
 40
0.25
 40
0.25
 40
0.5
 40
0.5
 40
0.75
 40
0.75
 40
1.0
 40
1.0
 40
1.0
 40
1.0
 10
-292.6000000000001
 20
-122.8179474909443
 30
0.0
 10
-292.6530330085891
 20
-122.8179474909443
 30
0.0
 10
-292.7102489916301
 20
-122.8276129234104
 30
0.0
 10
-292.8210362469754
 20
-122.871472587522
 30
0.0
 10
-292.874264068712
 20
-122.9058154565884
 30
0.0
 10
-292.9621320343559
 20
-122.9936834222323
 30
0.0
 10
-292.9964749034223
 20
-123.0469112439687
 30
0.0
 10
-293.040334567534
 20
-123.1576984993142
 30
0.0
 10
-293.05
 20
-123.2149144823553
 30
0.0
 10
-293.05
 20
-123.2679474909443
 30
0.0
  0
SPLINE
  5
1B3
330
1F
100
AcDbEntity
  8
0
  6
Continuous
 62
   144
370
    18
100
AcDbSpline
210
0.0
220
0.0
230
1.0
 70
     8
 71
     3
 72
    14
 73
    10
 74
     0
 42
0.000000001
 43
0.00000001
 40
0.0
 40
0.0
 40
0.0
 40
0.0
 40
0.25
 40
0.25
 40
0.5
 40
0.5
 40
0.75
 40
0.75
 40
1.0
 40
1.0
 40
1.0
 40
1.0
 10
292.6000000000001
 20
-122.8179474909443
 30
0.0
 10
292.6530330085891
 20
-122.8179474909443
 30
0.0
 10
292.7102489916301
 20
-122.8276129234104
 30
0.0
 10
292.8210362469754
 20
-122.871472587522
 30
0.0
 10
292.874264068712
 20
-122.9058154565884
 30
0.0
 10
292.962132034356
 20
-122.9936834222323
 30
0.0
 10
292.9964749034223
 20
-123.0469112439687
 30
0.0
 10
293.040334567534
 20
-123.1576984993142
 30
0.0
 10
293.05
 20
-123.2149144823553
 30
0.0
 10
293.05
 20
-123.2679474909443
 30
0.0
  0
SPLINE
  5
1B5
330
1F
100
AcDbEntity
  8
0
  6
Continuous
 62
   144
370
    18
100
AcDbSpline
210
0.0
220
0.0
230
1.0
 70
    24
 71
     3
 72
    14
 73
    10
 74
     0
 42
0.000000001
 43
0.00000001
 40
0.0
 40
0.0
 40
0.0
 40
0.0
 40
0.25
 40
0.25
 40
0.5
 40
0.5
 40
0.75
 40
0.75
 40
1.0
 40
1.0
 40
1.0
 40
1.0
 10
-292.908578643763
 20
-123.2679474909443
 30
0.0
 10
-292.908578643763
 20
-123.1618814737663
 30
0.0
 10
-292.9085786437631
 20
-123.0474495076841
 30
0.0
 10
-292.9085786437631
 20
-122.8258749969931
 30
0.0
 10
-292.9085786437631
 20
-122.7194193535205
 30
0.0
 10
-292.9085786437631
 20
-122.5436834222324
 30
0.0
 10
-292.908578643763
 20
-122.4749976840998
 30
0.0
 10
-292.908578643763
 20
-122.3872783558765
 30
0.0
 10
-292.908578643763
 20
-122.3679474909443
 30
0.0
 10
-292.908578643763
 20
-122.3679474909443
 30
0.0
  0
SPLINE
  5
1B6
330
1F
100
AcDbEntity
  8
0
  6
Continuous
 62
   144
370
    18
100
AcDbSpline
210
0.0
220
0.0
230
1.0
 70
    24
 71
     3
 72
    14
 73
    10
 74
     0
 42
0.000000001
 43
0.00000001
 40
0.0
 40
0.0
 40
0.0
 40
0.0
 40
0.25
 40
0.25
 40
0.5
 40
0.5
 40
0.75
 40
0.75
 40
1.0
 40
1.0
 40
1.0
 40
1.0
 10
292.908578643763
 20
-123.2679474909443
 30
0.0
 10
292.908578643763
 20
-123.1618814737663
 30
0.0
 10
292.9085786437631
 20
-123.0474495076841
 30
0.0
 10
292.9085786437631
 20
-122.8258749969931
 30
0.0
 10
292.9085786437631
 20
-122.7194193535205
 30
0.0
 10
292.9085786437631
 20
-122.5436834222324
 30
0.0
 10
292.908578643763
 20
-122.4749976840998
 30
0.0
 10
292.908578643763
 20
-122.3872783558765
 30
0.0
 10
292.908578643763
 20
-122.3679474909443
 30
0.0
 10
292.908578643763
 20
-122.3679474909443
 30
0.0
  0
SPLINE
  5
1B7
330
1F
100
AcDbEntity
  8
0
  6
Continuous
 62
   144
370
    18
100
AcDbSpline
210
0.0
220
0.0
230
1.0
 70
    24
 71
     3
 72
    14
 73
    10
 74
     0
 42
0.000000001
 43
0.00000001
 40
0.0
 40
0.0
 40
0.0
 40
0.0
 40
0.25
 40
0.25
 40
0.5
 40
0.5
 40
0.75
 40
0.75
 40
1.0
 40
1.0
 40
1.0
 40
1.0
 10
294.0000000000001
 20
-123.4593688471813
 30
0.0
 10
294.0000000000001
 20
-123.4593688471813
 30
0.0
 10
293.980669135068
 20
-123.4593688471813
 30
0.0
 10
293.8929498068445
 20
-123.4593688471812
 30
0.0
 10
293.824264068712
 20
-123.4593688471812
 30
0.0
 10
293.6485281374239
 20
-123.4593688471812
 30
0.0
 10
293.5420724939513
 20
-123.4593688471812
 30
0.0
 10
293.3204979832602
 20
-123.4593688471812
 30
0.0
 10
293.206066017178
 20
-123.4593688471813
 30
0.0
 10
293.1000000000001
 20
-123.4593688471813
 30
0.0
  0
SPLINE
  5
1C2
330
1F
100
AcDbEntity
  8
0
  6
Continuous
 62
   144
370
    18
100
AcDbSpline
210
0.0
220
0.0
230
1.0
 70
     8
 71
     3
 72
    18
 73
    14
 74
     0
 42
0.000000001
 43
0.00000001
 40
0.0
 40
0.0
 40
0.0
 40
0.0
 40
0.0614812603713809
 40
0.1260521731232602
 40
0.1938360385133834
 40
0.2648425646594512
 40
0.3389538294793394
 40
0.4159158084256538
 40
0.4953381535829666
 40
0.6278970732696408
 40
0.7577453528489462
 40
0.8824073808543483
 40
1.0
 40
1.0
 40
1.0
 40
1.0
 10
-292.649999999994
 20
-709.9180780032993
 30
0.0
 10
-292.6778332748236
 20
-709.9173361801033
 30
0.0
 10
-292.7348985457078
 20
-709.9158152544526
 30
0.0
 10
-292.8235533842555
 20
-709.9026855972172
 30
0.0
 10
-292.9155482824643
 20
-709.8798772565298
 30
0.0
 10
-293.0094429012663
 20
-709.8452973960889
 30
0.0
 10
-293.1031382928404
 20
-709.798142097822
 30
0.0
 10
-293.1942204787924
 20
-709.7377657083532
 30
0.0
 10
-293.2983886630537
 20
-709.6484367674763
 30
0.0
 10
-293.4030805366478
 20
-709.5228664519113
 30
0.0
 10
-293.4889372956638
 20
-709.3594149323364
 30
0.0
 10
-293.5407650404744
 20
-709.1888895452746
 30
0.0
 10
-293.5469821555446
 20
-709.0738966199237
 30
0.0
 10
-293.5500000000041
 20
-709.0180780032973
 30
0.0
  0
SPLINE
  5
1C3
330
1F
100
AcDbEntity
  8
0
  6
Continuous
 62
   144
370
    18
100
AcDbSpline
210
0.0
220
0.0
230
1.0
 70
     8
 71
     3
 72
    18
 73
    14
 74
     0
 42
0.000000001
 43
0.00000001
 40
0.0
 40
0.0
 40
0.0
 40
0.0
 40
0.0662704668631644
 40
0.1350912051914618
 40
0.2061824733145218
 40
0.2791889271190127
 40
0.3536853450333729
 40
0.4291881477909137
 40
0.5051723135053686
 40
0.6277711265799949
 40
0.7521983688572452
 40
0.8767569183651934
 40
1.0
 40
1.0
 40
1.0
 40
1.0
 10
293.55
 20
-709.0180780032983
 30
0.0
 10
293.5490439745902
 20
-709.0495390211333
 30
0.0
 10
293.5470951332598
 20
-709.1136717640741
 30
0.0
 10
293.5309515050063
 20
-709.2104623907961
 30
0.0
 10
293.5041087877156
 20
-709.308041194661
 30
0.0
 10
293.4651098941708
 20
-709.4044275027443
 30
0.0
 10
293.4142018845142
 20
-709.4974674506939
 30
0.0
 10
293.3517787885472
 20
-709.5849925245303
 30
0.0
 10
293.26397869894
 20
-709.6812829019218
 30
0.0
 10
293.1433504882459
 20
-709.777767757473
 30
0.0
 10
292.9867733980903
 20
-709.8585159029209
 30
0.0
 10
292.8187885402728
 20
-709.9090692820361
 30
0.0
 10
292.7060633776242
 20
-709.9150857424421
 30
0.0
 10
292.6500000000001
 20
-709.9180780032984
 30
0.0
  0
SPLINE
  5
1C4
330
1F
100
AcDbEntity
  8
0
  6
Continuous
 62
   144
370
    18
100
AcDbSpline
210
0.0
220
0.0
230
1.0
 70
     8
 71
     3
 72
    10
 73
     6
 74
     0
 42
0.000000001
 43
0.00000001
 40
0.0
 40
0.0
 40
0.0
 40
0.0
 40
0.5
 40
0.5
 40
1.0
 40
1.0
 40
1.0
 40
1.0
 10
292.6500000000001
 20
-709.4680780032983
 30
0.0
 10
292.7603739861501
 20
-709.4680780033045
 30
0.0
 10
292.8784904465904
 20
-709.423549346022
 30
0.0
 10
293.0488758134161
 20
-709.2579059497597
 30
0.0
 10
293.1000000000001
 20
-709.1368609100052
 30
0.0
 10
293.1000000000001
 20
-709.0180780033003
 30
0.0
  0
LINE
  5
1CB
330
1F
100
AcDbEntity
  8
0
  6
Continuous
 62
     7
370
    25
100
AcDbLine
 10
-292.6
 20
-0.9
 30
0.0
 11
292.6
 21
-0.9
 31
0.0
  0
LINE
  5
1CC
330
1F
100
AcDbEntity
  8
0
  6
Continuous
 62
     7
370
    25
100
AcDbLine
 10
292.6291796068
 20
0.0
 30
0.0
 11
-292.6291796068
 21
0.0
 31
0.0
  0
LINE
  5
1CD
330
1F
100
AcDbEntity
  8
0
  6
Continuous
 62
     7
370
    25
100
AcDbLine
 10
293.5
 20
-0.95
 30
0.0
 11
293.5
 21
-16.0
 31
0.0
  0
LINE
  5
1CE
330
1F
100
AcDbEntity
  8
0
  6
Continuous
 62
     7
370
    25
100
AcDbLine
 10
-293.5
 20
-16.0
 30
0.0
 11
293.5
 21
-16.0
 31
0.0
  0
LINE
  5
1CF
330
1F
100
AcDbEntity
  8
0
  6
Continuous
 62
   144
370
    18
100
AcDbLine
 10
-292.6
 20
-0.95
 30
0.0
 11
-292.6
 21
-0.9
 31
0.0
  0
LINE
  5
1D0
330
1F
100
AcDbEntity
  8
0
  6
Continuous
 62
   144
370
    18
100
AcDbLine
 10
-292.6
 20
-0.95
 30
0.0
 11
-293.5
 21
-0.95
 31
0.0
  0
LINE
  5
1D1
330
1F
100
AcDbEntity
  8
0
  6
Continuous
 62
   144
370
    18
100
AcDbLine
 10
-293.5
 20
-0.95
 30
0.0
 11
-293.5
 21
-16.0
 31
0.0
  0
LINE
  5
1D2
330
1F
100
AcDbEntity
  8
0
  6
Continuous
 62
   144
370
    18
100
AcDbLine
 10
292.6
 20
-0.95
 30
0.0
 11
293.5
 21
-0.95
 31
0.0
  0
LINE
  5
1D3
330
1F
100
AcDbEntity
  8
0
  6
Continuous
 62
   144
370
    18
100
AcDbLine
 10
292.6
 20
-0.9
 30
0.0
 11
292.6
 21
-0.95
 31
0.0
  0
LINE
  5
1D4
330
1F
100
AcDbEntity
  8
0
  6
Continuous
 62
     7
370
    25
100
AcDbLine
 10
-294.0
 20
-44.1
 30
0.0
 11
-294.0
 21
-0.9
 31
0.0
  0
LINE
  5
1D5
330
1F
100
AcDbEntity
  8
0
  6
Continuous
 62
     7
370
    25
100
AcDbLine
 10
293.55
 20
-16.01207716
 30
0.0
 11
293.55
 21
-44.1
 31
0.0
  0
LINE
  5
1D6
330
1F
100
AcDbEntity
  8
0
  6
Continuous
 62
   144
370
    18
100
AcDbLine
 10
293.55
 20
-0.9
 30
0.0
 11
293.55
 21
-0.95
 31
0.0
  0
LINE
  5
1D7
330
1F
100
AcDbEntity
  8
0
  6
Continuous
 62
     7
370
    25
100
AcDbLine
 10
293.1
 20
-44.55
 30
0.0
 11
292.2126583599
 21
-44.55
 31
0.0
  0
LINE
  5
1D8
330
1F
100
AcDbEntity
  8
0
  6
Continuous
 62
     7
370
    25
100
AcDbLine
 10
-293.1
 20
-44.55
 30
0.0
 11
-292.2126583599
 21
-44.55
 31
0.0
  0
LINE
  5
1D9
330
1F
100
AcDbEntity
  8
0
  6
Continuous
 62
     7
370
    25
100
AcDbLine
 10
-292.0996889266
 20
-45.0
 30
0.0
 11
-293.1
 21
-45.0
 31
0.0
  0
LINE
  5
1DA
330
1F
100
AcDbEntity
  8
0
  6
Continuous
 62
     7
370
    25
100
AcDbLine
 10
294.0
 20
-44.1
 30
0.0
 11
294.0
 21
-0.9
 31
0.0
  0
LINE
  5
1DB
330
1F
100
AcDbEntity
  8
0
  6
Continuous
 62
     7
370
    25
100
AcDbLine
 10
292.0996889265
 20
-45.0
 30
0.0
 11
293.1
 21
-45.0
 31
0.0
  0
LINE
  5
1DC
330
1F
100
AcDbEntity
  8
0
  6
Continuous
 62
   144
370
    18
100
AcDbLine
 10
292.321569075
 20
-44.55
 30
0.0
 11
292.321569075
 21
-45.0
 31
0.0
  0
LINE
  5
1DD
330
1F
100
AcDbEntity
  8
0
  6
Continuous
 62
   144
370
    18
100
AcDbLine
 10
293.55
 20
-0.95
 30
0.0
 11
294.0
 21
-0.95
 31
0.0
  0
LINE
  5
1DE
330
1F
100
AcDbEntity
  8
0
  6
Continuous
 62
     7
370
    25
100
AcDbLine
 10
-293.55
 20
-16.01207716
 30
0.0
 11
-293.55
 21
-44.1
 31
0.0
  0
LINE
  5
1DF
330
1F
100
AcDbEntity
  8
0
  6
Continuous
 62
   144
370
    18
100
AcDbLine
 10
-292.321569075
 20
-45.0
 30
0.0
 11
-292.321569075
 21
-44.55
 31
0.0
  0
LINE
  5
1E0
330
1F
100
AcDbEntity
  8
0
  6
Continuous
 62
   144
370
    18
100
AcDbLine
 10
-293.55
 20
-0.95
 30
0.0
 11
-294.0
 21
-0.95
 31
0.0
  0
LINE
  5
1E1
330
1F
100
AcDbEntity
  8
0
  6
Continuous
 62
   144
370
    18
100
AcDbLine
 10
-293.5
 20
-42.2834697342
 30
0.0
 11
-293.5
 21
-28.4996870132
 31
0.0
  0
LINE
  5
1E2
330
1F
100
AcDbEntity
  8
0
  6
Continuous
 62
   144
370
    18
100
AcDbLine
 10
-293.5
 20
-26.4996870132
 30
0.0
 11
-293.5
 21
-16.17502
 31
0.0
  0
LINE
  5
1E3
330
1F
100
AcDbEntity
  8
0
  6
Continuous
 62
   144
370
    18
100
AcDbLine
 10
-292.65
 20
-42.7834697342
 30
0.0
 11
-292.9085786438
 21
-42.7834697342
 31
0.0
  0
LINE
  5
1E4
330
1F
100
AcDbEntity
  8
0
  6
Continuous
 62
   144
370
    18
100
AcDbLine
 10
-292.9085786438
 20
-42.7834697342
 30
0.0
 11
-292.9085786438
 21
-43.65
 31
0.0
  0
LINE
  5
1E5
330
1F
100
AcDbEntity
  8
0
  6
Continuous
 62
   144
370
    18
100
AcDbLine
 10
-292.65
 20
-43.65
 30
0.0
 11
-292.9085786438
 21
-43.65
 31
0.0
  0
LINE
  5
1E6
330
1F
100
AcDbEntity
  8
0
  6
Continuous
 62
     7
370
    25
100
AcDbLine
 10
292.206971445
 20
-44.5496870132
 30
0.0
 11
-292.206971445
 21
-44.5496870132
 31
0.0
  0
LINE
  5
1E7
330
1F
100
AcDbEntity
  8
0
  6
Continuous
 62
   144
370
    18
100
AcDbLine
 10
-292.65
 20
-44.1066584582
 30
0.0
 11
-292.65
 21
-16.0
 31
0.0
  0
LINE
  5
1E8
330
1F
100
AcDbEntity
  8
0
  6
Continuous
 62
     7
370
    25
100
AcDbLine
 10
292.1
 20
-45.4496870132
 30
0.0
 11
-292.1
 21
-45.4496870132
 31
0.0
  0
LINE
  5
1E9
330
1F
100
AcDbEntity
  8
0
  6
Continuous
 62
   144
370
    18
100
AcDbLine
 10
-293.55
 20
-28.4996870132
 30
0.0
 11
-293.1
 21
-28.4996870132
 31
0.0
  0
LINE
  5
1EA
330
1F
100
AcDbEntity
  8
0
  6
Continuous
 62
   144
370
    18
100
AcDbLine
 10
-293.1
 20
-28.4996870132
 30
0.0
 11
-293.1
 21
-26.4996870132
 31
0.0
  0
LINE
  5
1EB
330
1F
100
AcDbEntity
  8
0
  6
Continuous
 62
   144
370
    18
100
AcDbLine
 10
-293.55
 20
-26.4996870132
 30
0.0
 11
-293.1
 21
-26.4996870132
 31
0.0
  0
LINE
  5
1EC
330
1F
100
AcDbEntity
  8
0
  6
Continuous
 62
   144
370
    18
100
AcDbLine
 10
-293.1
 20
-39.85
 30
0.0
 11
-293.1
 21
-28.5282400096
 31
0.0
  0
LINE
  5
1ED
330
1F
100
AcDbEntity
  8
0
  6
Continuous
 62
   144
370
    18
100
AcDbLine
 10
-293.1
 20
-26.4711340168
 30
0.0
 11
-293.1
 21
-16.0
 31
0.0
  0
LINE
  5
1EE
330
1F
100
AcDbEntity
  8
0
  6
Continuous
 62
     7
370
    25
100
AcDbLine
 10
391.1417772882
 20
-0.9
 30
0.0
 11
976.3417772882
 21
-0.9
 31
0.0
  0
LINE
  5
1EF
330
1F
100
AcDbEntity
  8
0
  6
Continuous
 62
     7
370
    25
100
AcDbLine
 10
976.370956895
 20
0.0
 30
0.0
 11
391.1125976815
 21
0.0
 31
0.0
  0
LINE
  5
1F0
330
1F
100
AcDbEntity
  8
0
  6
Continuous
 62
     7
370
    25
100
AcDbLine
 10
977.2417772882
 20
-44.1
 30
0.0
 11
977.2417772882
 21
-0.95
 31
0.0
  0
LINE
  5
1F1
330
1F
100
AcDbEntity
  8
0
  6
Continuous
 62
     7
370
    25
100
AcDbLine
 10
977.2417772882
 20
-44.1
 30
0.0
 11
390.8331986445
 21
-44.1
 31
0.0
  0
LINE
  5
1F2
330
1F
100
AcDbEntity
  8
0
  6
Continuous
 62
     7
370
    25
100
AcDbLine
 10
390.8331986445
 20
-45.0
 30
0.0
 11
977.2417772882
 21
-45.0
 31
0.0
  0
LINE
  5
1F3
330
1F
100
AcDbEntity
  8
0
  6
Continuous
 62
   144
370
    18
100
AcDbLine
 10
391.1417772882
 20
-0.9
 30
0.0
 11
391.1417772882
 21
-0.95
 31
0.0
  0
LINE
  5
1F4
330
1F
100
AcDbEntity
  8
0
  6
Continuous
 62
   144
370
    18
100
AcDbLine
 10
391.1417772882
 20
-0.95
 30
0.0
 11
390.2417772882
 21
-0.95
 31
0.0
  0
LINE
  5
1F5
330
1F
100
AcDbEntity
  8
0
  6
Continuous
 62
   144
370
    18
100
AcDbLine
 10
390.2417772882
 20
-0.95
 30
0.0
 11
390.2417772882
 21
-43.7334697342
 31
0.0
  0
LINE
  5
1F6
330
1F
100
AcDbEntity
  8
0
  6
Continuous
 62
   144
370
    18
100
AcDbLine
 10
390.2417772882
 20
-43.7334697342
 30
0.0
 11
390.8331986445
 21
-43.7334697342
 31
0.0
  0
LINE
  5
1F7
330
1F
100
AcDbEntity
  8
0
  6
Continuous
 62
   144
370
    18
100
AcDbLine
 10
390.8331986445
 20
-43.7334697342
 30
0.0
 11
390.8331986445
 21
-44.1
 31
0.0
  0
LINE
  5
1F8
330
1F
100
AcDbEntity
  8
0
  6
Continuous
 62
   144
370
    18
100
AcDbLine
 10
977.2417772882
 20
-0.95
 30
0.0
 11
976.3417772882
 21
-0.95
 31
0.0
  0
LINE
  5
1F9
330
1F
100
AcDbEntity
  8
0
  6
Continuous
 62
   144
370
    18
100
AcDbLine
 10
976.3417772882
 20
-0.95
 30
0.0
 11
976.3417772882
 21
-0.9
 31
0.0
  0
LINE
  5
1FA
330
1F
100
AcDbEntity
  8
0
  6
Continuous
 62
     7
370
    25
100
AcDbLine
 10
977.7417772882
 20
-0.95
 30
0.0
 11
977.7417772882
 21
-16.0
 31
0.0
  0
LINE
  5
1FB
330
1F
100
AcDbEntity
  8
0
  6
Continuous
 62
     7
370
    25
100
AcDbLine
 10
977.7417772882
 20
-16.0
 30
0.0
 11
977.2917772882
 21
-16.0
 31
0.0
  0
LINE
  5
1FC
330
1F
100
AcDbEntity
  8
0
  6
Continuous
 62
     7
370
    25
100
AcDbLine
 10
977.2917772882
 20
-16.0
 30
0.0
 11
977.2917772882
 21
-0.9
 31
0.0
  0
LINE
  5
1FD
330
1F
100
AcDbEntity
  8
0
  6
Continuous
 62
   144
370
    18
100
AcDbLine
 10
977.7417772882
 20
-0.95
 30
0.0
 11
977.2917772882
 21
-0.95
 31
0.0
  0
LINE
  5
1FE
330
1F
100
AcDbEntity
  8
0
  6
Continuous
 62
     7
370
    25
100
AcDbLine
 10
389.7417772882
 20
-43.65
 30
0.0
 11
389.7417772882
 21
-0.9
 31
0.0
  0
LINE
  5
1FF
330
1F
100
AcDbEntity
  8
0
  6
Continuous
 62
     7
370
    25
100
AcDbLine
 10
390.1917772882
 20
-42.2834697342
 30
0.0
 11
390.1917772882
 21
-43.65
 31
0.0
  0
LINE
  5
200
330
1F
100
AcDbEntity
  8
0
  6
Continuous
 62
     7
370
    25
100
AcDbLine
 10
390.6417772882
 20
-44.1
 30
0.0
 11
390.8331586445
 21
-44.1
 31
0.0
  0
LINE
  5
201
330
1F
100
AcDbEntity
  8
0
  6
Continuous
 62
     7
370
    25
100
AcDbLine
 10
390.6917772882
 20
-44.55
 30
0.0
 11
390.6417772882
 21
-44.55
 31
0.0
  0
LINE
  5
202
330
1F
100
AcDbEntity
  8
0
  6
Continuous
 62
   144
370
    18
100
AcDbLine
 10
389.7417772882
 20
-42.7834697342
 30
0.0
 11
390.1917772882
 21
-42.7834697342
 31
0.0
  0
LINE
  5
203
330
1F
100
AcDbEntity
  8
0
  6
Continuous
 62
     7
370
    25
100
AcDbLine
 10
390.1917772882
 20
-0.9
 30
0.0
 11
390.1917772882
 21
-1.65
 31
0.0
  0
LINE
  5
204
330
1F
100
AcDbEntity
  8
0
  6
Continuous
 62
   144
370
    18
100
AcDbLine
 10
390.4417772882
 20
-0.4968871126
 30
0.0
 11
390.4417772882
 21
-0.0225035613
 31
0.0
  0
LINE
  5
205
330
1F
100
AcDbEntity
  8
0
  6
Continuous
 62
     7
370
    25
100
AcDbLine
 10
977.2919078006
 20
-44.1066584582
 30
0.0
 11
977.2919078006
 21
-16.0363770437
 31
0.0
  0
LINE
  5
206
330
1F
100
AcDbEntity
  8
0
  6
Continuous
 62
   144
370
    18
100
AcDbLine
 10
977.2919078006
 20
-44.1066584582
 30
0.0
 11
976.987433528
 21
-44.1066584582
 31
0.0
  0
LINE
  5
207
330
1F
100
AcDbEntity
  8
0
  6
Continuous
 62
     7
370
    25
100
AcDbLine
 10
974.5566790742
 20
-45.4496870132
 30
0.0
 11
964.8419078006
 21
-45.4496870132
 31
0.0
  0
LINE
  5
208
330
1F
100
AcDbEntity
  8
0
  6
Continuous
 62
   144
370
    18
100
AcDbLine
 10
976.3919078006
 20
-45.4496870132
 30
0.0
 11
975.2256438058
 21
-45.4496870132
 31
0.0
  0
LINE
  5
209
330
1F
100
AcDbEntity
  8
0
  6
Continuous
 62
     7
370
    25
100
AcDbLine
 10
964.8419078006
 20
-45.4496870132
 30
0.0
 11
964.8419078006
 21
-44.9996870132
 31
0.0
  0
LINE
  5
20A
330
1F
100
AcDbEntity
  8
0
  6
Continuous
 62
   144
370
    18
100
AcDbLine
 10
974.5566790742
 20
-45.4496870132
 30
0.0
 11
974.5566790742
 21
-44.9996870132
 31
0.0
  0
LINE
  5
20B
330
1F
100
AcDbEntity
  8
0
  6
Continuous
 62
     7
370
    25
100
AcDbLine
 10
-293.5
 20
-710.3679474909
 30
0.0
 11
293.5
 21
-710.3679474909
 31
0.0
  0
LINE
  5
20C
330
1F
100
AcDbEntity
  8
0
  6
Continuous
 62
     7
370
    25
100
AcDbLine
 10
292.6291796068
 20
-709.4679474909
 30
0.0
 11
-292.6291796068
 21
-709.4679474909
 31
0.0
  0
LINE
  5
20D
330
1F
100
AcDbEntity
  8
0
  6
Continuous
 62
     7
370
    25
100
AcDbLine
 10
-294.0
 20
-122.8679474909
 30
0.0
 11
-294.0
 21
-709.8679474909
 31
0.0
  0
LINE
  5
20E
330
1F
100
AcDbEntity
  8
0
  6
Continuous
 62
     7
370
    25
100
AcDbLine
 10
-293.1
 20
-708.9971270977
 30
0.0
 11
-293.1
 21
-123.7387678842
 31
0.0
  0
LINE
  5
20F
330
1F
100
AcDbEntity
  8
0
  6
Continuous
 62
     7
370
    25
100
AcDbLine
 10
294.0
 20
-709.8679474909
 30
0.0
 11
294.0
 21
-122.8679474909
 31
0.0
  0
LINE
  5
210
330
1F
100
AcDbEntity
  8
0
  6
Continuous
 62
     7
370
    25
100
AcDbLine
 10
293.1
 20
-123.4593688472
 30
0.0
 11
293.1
 21
-708.9971270977
 31
0.0
  0
LINE
  5
211
330
1F
100
AcDbEntity
  8
0
  6
Continuous
 62
     7
370
    25
100
AcDbLine
 10
-268.8502402967
 20
-135.167947491
 30
0.0
 11
-268.8502402967
 21
-151.1679474909
 31
0.0
  0
LINE
  5
212
330
1F
100
AcDbEntity
  8
0
  6
Continuous
 62
     7
370
    25
100
AcDbLine
 10
-269.3502402967
 20
-135.167947491
 30
0.0
 11
-268.8502402967
 21
-135.167947491
 31
0.0
  0
LINE
  5
213
330
1F
100
AcDbEntity
  8
0
  6
Continuous
 62
     7
370
    25
100
AcDbLine
 10
-269.3502402967
 20
-151.167947491
 30
0.0
 11
-269.3502402967
 21
-135.167947491
 31
0.0
  0
LINE
  5
214
330
1F
100
AcDbEntity
  8
0
  6
Continuous
 62
     7
370
    25
100
AcDbLine
 10
-273.0502402967
 20
-151.167947491
 30
0.0
 11
-273.0502402967
 21
-135.167947491
 31
0.0
  0
LINE
  5
215
330
1F
100
AcDbEntity
  8
0
  6
Continuous
 62
     7
370
    25
100
AcDbLine
 10
-292.9085786438
 20
-123.2679474909
 30
0.0
 11
292.9085786438
 21
-123.2679474909
 31
0.0
  0
LINE
  5
216
330
1F
100
AcDbEntity
  8
0
  6
Continuous
 62
   144
370
    18
100
AcDbLine
 10
-44.7527636195
 20
-151.167947491
 30
0.0
 11
-44.7527636195
 21
-135.167947491
 31
0.0
  0
LINE
  5
217
330
1F
100
AcDbEntity
  8
0
  6
Continuous
 62
   144
370
    18
100
AcDbLine
 10
-44.7527636195
 20
-135.167947491
 30
0.0
 11
-44.2527636195
 21
-135.167947491
 31
0.0
  0
LINE
  5
218
330
1F
100
AcDbEntity
  8
0
  6
Continuous
 62
   144
370
    18
100
AcDbLine
 10
-44.2527636195
 20
-135.167947491
 30
0.0
 11
-44.2527636195
 21
-151.167947491
 31
0.0
  0
LINE
  5
219
330
1F
100
AcDbEntity
  8
0
  6
Continuous
 62
   144
370
    18
100
AcDbLine
 10
-41.0527636195
 20
-151.167947491
 30
0.0
 11
-41.0527636195
 21
-135.167947491
 31
0.0
  0
LINE
  5
21A
330
1F
100
AcDbEntity
  8
0
  6
Continuous
 62
   144
370
    18
100
AcDbLine
 10
-41.0527636195
 20
-135.167947491
 30
0.0
 11
-40.5527636195
 21
-135.167947491
 31
0.0
  0
LINE
  5
21B
330
1F
100
AcDbEntity
  8
0
  6
Continuous
 62
   144
370
    18
100
AcDbLine
 10
-40.5527636195
 20
-135.167947491
 30
0.0
 11
-40.5527636195
 21
-151.1679474909
 31
0.0
  0
LINE
  5
21C
330
1F
100
AcDbEntity
  8
0
  6
Continuous
 62
   144
370
    18
100
AcDbLine
 10
275.2472363805
 20
-151.167947491
 30
0.0
 11
275.2472363805
 21
-135.167947491
 31
0.0
  0
LINE
  5
21D
330
1F
100
AcDbEntity
  8
0
  6
Continuous
 62
   144
370
    18
100
AcDbLine
 10
275.2472363805
 20
-135.167947491
 30
0.0
 11
275.7472363805
 21
-135.167947491
 31
0.0
  0
LINE
  5
21E
330
1F
100
AcDbEntity
  8
0
  6
Continuous
 62
   144
370
    18
100
AcDbLine
 10
275.7472363805
 20
-135.167947491
 30
0.0
 11
275.7472363805
 21
-151.167947491
 31
0.0
  0
LINE
  5
21F
330
1F
100
AcDbEntity
  8
0
  6
Continuous
 62
   144
370
    18
100
AcDbLine
 10
278.9472363805
 20
-151.167947491
 30
0.0
 11
278.9472363805
 21
-135.167947491
 31
0.0
  0
LINE
  5
220
330
1F
100
AcDbEntity
  8
0
  6
Continuous
 62
   144
370
    18
100
AcDbLine
 10
278.9472363805
 20
-135.167947491
 30
0.0
 11
279.4472363805
 21
-135.167947491
 31
0.0
  0
LINE
  5
221
330
1F
100
AcDbEntity
  8
0
  6
Continuous
 62
   144
370
    18
100
AcDbLine
 10
279.4472363805
 20
-135.167947491
 30
0.0
 11
279.4472363805
 21
-151.1679474909
 31
0.0
  0
LINE
  5
222
330
1F
100
AcDbEntity
  8
0
  6
Continuous
 62
   144
370
    18
100
AcDbLine
 10
-273.0502402967
 20
-135.167947491
 30
0.0
 11
-272.5502402967
 21
-135.167947491
 31
0.0
  0
LINE
  5
223
330
1F
100
AcDbEntity
  8
0
  6
Continuous
 62
   144
370
    18
100
AcDbLine
 10
-272.5502402967
 20
-135.167947491
 30
0.0
 11
-272.5502402967
 21
-151.167947491
 31
0.0
  0
LINE
  5
224
330
1F
100
AcDbEntity
  8
0
  6
Continuous
 62
   144
370
    18
100
AcDbLine
 10
-144.7527636195
 20
-151.167947491
 30
0.0
 11
-144.7527636195
 21
-135.167947491
 31
0.0
  0
LINE
  5
225
330
1F
100
AcDbEntity
  8
0
  6
Continuous
 62
   144
370
    18
100
AcDbLine
 10
-144.7527636195
 20
-135.167947491
 30
0.0
 11
-144.2527636195
 21
-135.167947491
 31
0.0
  0
LINE
  5
226
330
1F
100
AcDbEntity
  8
0
  6
Continuous
 62
   144
370
    18
100
AcDbLine
 10
-144.2527636195
 20
-135.167947491
 30
0.0
 11
-144.2527636195
 21
-151.167947491
 31
0.0
  0
LINE
  5
227
330
1F
100
AcDbEntity
  8
0
  6
Continuous
 62
   144
370
    18
100
AcDbLine
 10
-141.0527636195
 20
-151.167947491
 30
0.0
 11
-141.0527636195
 21
-135.167947491
 31
0.0
  0
LINE
  5
228
330
1F
100
AcDbEntity
  8
0
  6
Continuous
 62
   144
370
    18
100
AcDbLine
 10
-141.0527636195
 20
-135.167947491
 30
0.0
 11
-140.5527636195
 21
-135.167947491
 31
0.0
  0
LINE
  5
229
330
1F
100
AcDbEntity
  8
0
  6
Continuous
 62
   144
370
    18
100
AcDbLine
 10
-140.5527636195
 20
-135.167947491
 30
0.0
 11
-140.5527636195
 21
-151.1679474909
 31
0.0
  0
LINE
  5
22A
330
1F
100
AcDbEntity
  8
0
  6
Continuous
 62
     7
370
    25
100
AcDbLine
 10
292.6
 20
-122.3679474909
 30
0.0
 11
-292.6
 21
-122.3679474909
 31
0.0
  0
LINE
  5
22B
330
1F
100
AcDbEntity
  8
0
  6
Continuous
 62
   144
370
    18
100
AcDbLine
 10
293.55
 20
-122.8679474909
 30
0.0
 11
293.55
 21
-123.7679474909
 31
0.0
  0
LINE
  5
22C
330
1F
100
AcDbEntity
  8
0
  6
Continuous
 62
   144
370
    18
100
AcDbLine
 10
293.55
 20
-708.9679474909
 30
0.0
 11
293.55
 21
-709.8679474909
 31
0.0
  0
LINE
  5
22D
330
1F
100
AcDbEntity
  8
0
  6
Continuous
 62
   144
370
    18
100
AcDbLine
 10
293.5
 20
-709.9179474909
 30
0.0
 11
292.6
 21
-709.9179474909
 31
0.0
  0
LINE
  5
22E
330
1F
100
AcDbEntity
  8
0
  6
Continuous
 62
   144
370
    18
100
AcDbLine
 10
-293.5
 20
-709.9179474909
 30
0.0
 11
-292.6
 21
-709.9179474909
 31
0.0
  0
LINE
  5
22F
330
1F
100
AcDbEntity
  8
0
  6
Continuous
 62
   144
370
    18
100
AcDbLine
 10
-293.55
 20
-708.9679474909
 30
0.0
 11
-293.55
 21
-709.8679474909
 31
0.0
  0
LINE
  5
230
330
1F
100
AcDbEntity
  8
0
  6
Continuous
 62
   144
370
    18
100
AcDbLine
 10
-293.55
 20
-122.8679474909
 30
0.0
 11
-293.55
 21
-123.7679474909
 31
0.0
  0
LINE
  5
231
330
1F
100
AcDbEntity
  8
0
  6
Continuous
 62
   144
370
    18
100
AcDbLine
 10
-292.60004
 20
-122.8179474909
 30
0.0
 11
-292.9085786438
 21
-122.8179474909
 31
0.0
  0
LINE
  5
232
330
1F
100
AcDbEntity
  8
0
  6
Continuous
 62
   144
370
    18
100
AcDbLine
 10
292.60004
 20
-122.8179474909
 30
0.0
 11
292.9085786438
 21
-122.8179474909
 31
0.0
  0
LINE
  5
233
330
1F
100
AcDbEntity
  8
0
  6
Continuous
 62
   144
370
    18
100
AcDbLine
 10
292.9085786438
 20
-122.3679474909
 30
0.0
 11
292.60004
 21
-122.3679474909
 31
0.0
  0
LINE
  5
234
330
1F
100
AcDbEntity
  8
0
  6
Continuous
 62
   144
370
    18
100
AcDbLine
 10
-293.5
 20
-710.3679474909
 30
0.0
 11
-293.5
 21
-709.9179474909
 31
0.0
  0
LINE
  5
235
330
1F
100
AcDbEntity
  8
0
  6
Continuous
 62
   144
370
    18
100
AcDbLine
 10
-293.1
 20
-709.8679474909
 30
0.0
 11
-292.6
 21
-709.8679474909
 31
0.0
  0
LINE
  5
236
330
1F
100
AcDbEntity
  8
0
  6
Continuous
 62
   144
370
    18
100
AcDbLine
 10
-293.55
 20
-709.8679474909
 30
0.0
 11
-294.0
 21
-709.8679474909
 31
0.0
  0
LINE
  5
237
330
1F
100
AcDbEntity
  8
0
  6
Continuous
 62
   144
370
    18
100
AcDbLine
 10
293.55
 20
-709.8679474909
 30
0.0
 11
294.0
 21
-709.8679474909
 31
0.0
  0
LINE
  5
238
330
1F
100
AcDbEntity
  8
0
  6
Continuous
 62
   144
370
    18
100
AcDbLine
 10
293.1
 20
-709.8679474909
 30
0.0
 11
292.65
 21
-709.8679474909
 31
0.0
  0
LINE
  5
239
330
1F
100
AcDbEntity
  8
0
  6
Continuous
 62
   144
370
    18
100
AcDbLine
 10
293.05
 20
-123.2679474909
 30
0.0
 11
293.05
 21
-123.71098207
 31
0.0
  0
LINE
  5
23A
330
1F
100
AcDbEntity
  8
0
  6
Continuous
 62
   144
370
    18
100
AcDbLine
 10
-293.05
 20
-123.2679474909
 30
0.0
 11
-293.05
 21
-123.71098207
 31
0.0
  0
LINE
  5
23B
330
1F
100
AcDbEntity
  8
0
  6
Continuous
 62
   144
370
    18
100
AcDbLine
 10
293.5
 20
-710.3679474909
 30
0.0
 11
293.5
 21
-709.9179474909
 31
0.0
  0
LINE
  5
23C
330
1F
100
AcDbEntity
  8
0
  6
Continuous
 62
   144
370
    18
100
AcDbLine
 10
-292.9085786438
 20
-123.3179474909
 30
0.0
 11
-292.8372471967
 21
-123.5841600757
 31
0.0
  0
LINE
  5
23D
330
1F
100
AcDbEntity
  8
0
  6
Continuous
 62
   144
370
    18
100
AcDbLine
 10
-292.9085786438
 20
-123.3179474909
 30
0.0
 11
-292.9085786438
 21
-123.2679474909
 31
0.0
  0
LINE
  5
23E
330
1F
100
AcDbEntity
  8
0
  6
Continuous
 62
   144
370
    18
100
AcDbLine
 10
292.9085786438
 20
-123.3179474909
 30
0.0
 11
292.9085786438
 21
-123.2679474909
 31
0.0
  0
LINE
  5
23F
330
1F
100
AcDbEntity
  8
0
  6
Continuous
 62
   144
370
    18
100
AcDbLine
 10
292.9085786438
 20
-123.3179474909
 30
0.0
 11
292.8372471967
 21
-123.5841600757
 31
0.0
  0
LINE
  5
240
330
1F
100
AcDbEntity
  8
0
  6
Continuous
 62
   144
370
    18
100
AcDbLine
 10
-293.1
 20
-123.4593688472
 30
0.0
 11
-293.1
 21
-123.7382678842
 31
0.0
  0
LINE
  5
241
330
1F
100
AcDbEntity
  8
0
  6
Continuous
 62
   144
370
    18
100
AcDbLine
 10
-293.1
 20
-709.0181180033
 30
0.0
 11
-293.1
 21
-709.8679474909
 31
0.0
  0
LINE
  5
242
330
1F
100
AcDbEntity
  8
0
  6
Continuous
 62
   144
370
    18
100
AcDbLine
 10
-293.1
 20
-123.4593688472
 30
0.0
 11
-293.05
 21
-123.4593688472
 31
0.0
  0
LINE
  5
243
330
1F
100
AcDbEntity
  8
0
  6
Continuous
 62
   144
370
    18
100
AcDbLine
 10
-292.8882653537
 20
-123.6211034935
 30
0.0
 11
-293.05
 21
-123.4593688472
 31
0.0
  0
LINE
  5
244
330
1F
100
AcDbEntity
  8
0
  6
Continuous
 62
   144
370
    18
100
AcDbLine
 10
292.9305465547
 20
-123.5788222924
 30
0.0
 11
293.05
 21
-123.4593688472
 31
0.0
  0
LINE
  5
245
330
1F
100
AcDbEntity
  8
0
  6
Continuous
 62
   144
370
    18
100
AcDbLine
 10
293.1
 20
-123.4593688472
 30
0.0
 11
293.05
 21
-123.4593688472
 31
0.0
  0
LINE
  5
246
330
1F
100
AcDbEntity
  8
0
  6
Continuous
 62
   144
370
    18
100
AcDbLine
 10
292.65
 20
-709.6136037307
 30
0.0
 11
292.65
 21
-709.4680780033
 31
0.0
  0
LINE
  5
247
330
1F
100
AcDbEntity
  8
0
  6
Continuous
 62
     8
370
    25
100
AcDbLine
 10
292.65
 20
-16.0
 30
0.0
 11
292.65
 21
-44.1066584582
 31
0.0
  0
LINE
  5
248
330
1F
100
AcDbEntity
  8
0
  6
Continuous
 62
     8
370
    25
100
AcDbLine
 10
293.1
 20
-709.0181180033
 30
0.0
 11
293.1
 21
-709.8679474909
 31
0.0
  0
ENDSEC
  0
SECTION
  2
OBJECTS
  0
DICTIONARY
  5
C
330
0
100
AcDbDictionary
281
     1
  3
ACAD_GROUP
350
D
  3
ACAD_LAYOUT
350
1A
  3
ACAD_MLINESTYLE
350
17
  3
ACAD_PLOTSETTINGS
350
19
  3
ACAD_PLOTSTYLENAME
350
E
  3
ACAD_SCALELIST
350
47
  0
DICTIONARY
  5
D
102
{ACAD_REACTORS
330
C
102
}
330
C
100
AcDbDictionary
281
     1
  0
DICTIONARY
  5
1A
102
{ACAD_REACTORS
330
C
102
}
330
C
100
AcDbDictionary
281
     1
  3
Layout1
350
1E
  3
Layout2
350
26
  3
Model
350
22
  0
DICTIONARY
  5
17
102
{ACAD_REACTORS
330
C
102
}
330
C
100
AcDbDictionary
281
     1
  3
Standard
350
18
  0
DICTIONARY
  5
19
102
{ACAD_REACTORS
330
C
102
}
330
C
100
AcDbDictionary
281
     1
  0
ACDBDICTIONARYWDFLT
  5
E
102
{ACAD_REACTORS
330
C
102
}
330
C
100
AcDbDictionary
281
     1
  3
Normal
350
F
100
AcDbDictionaryWithDefault
340
F
  0
DICTIONARY
  5
47
102
{ACAD_REACTORS
330
C
102
}
330
C
100
AcDbDictionary
281
     1
  3
A0
350
48
  3
A1
350
49
  3
A2
350
4A
  3
A3
350
4B
  3
A4
350
4C
  3
A5
350
4D
  3
A6
350
4E
  3
A7
350
4F
  3
A8
350
50
  3
A9
350
51
  3
B0
350
52
  3
B1
350
53
  3
B2
350
54
  3
B3
350
55
  3
B4
350
56
  3
B5
350
57
  3
B6
350
58
  3
B7
350
59
  3
B8
350
5A
  3
B9
350
5B
  3
C0
350
5C
  3
C1
350
5D
  3
C2
350
5E
  3
C3
350
5F
  3
C4
350
60
  3
C5
350
61
  3
C6
350
62
  3
C7
350
63
  3
C8
350
64
  3
C9
350
65
  3
D0
350
66
  3
D1
350
67
  3
D2
350
68
  0
LAYOUT
  5
1E
102
{ACAD_REACTORS
330
1A
102
}
330
1A
100
AcDbPlotSettings
  1

  2
none_device
  4

  6

 40
0.0
 41
0.0
 42
0.0
 43
0.0
 44
0.0
 45
0.0
 46
0.0
 47
0.0
 48
0.0
 49
0.0
140
0.0
141
0.0
142
1.0
143
1.0
 70
   688
 72
     1
 73
     0
 74
     5
  7

 75
    16
147
1.0
148
0.0
149
0.0
100
AcDbLayout
  1
Layout1
 70
     1
 71
     1
 10
0.0
 20
0.0
 11
420.0
 21
297.0
 12
0.0
 22
0.0
 32
0.0
 14
1.0000000000E+20
 24
1.0000000000E+20
 34
1.0000000000E+20
 15
-1.0000000000E+20
 25
-1.0000000000E+20
 35
-1.0000000000E+20
146
0.0
 13
0.0
 23
0.0
 33
0.0
 16
1.0
 26
0.0
 36
0.0
 17
0.0
 27
1.0
 37
0.0
 76
     0
330
1B
  0
LAYOUT
  5
26
102
{ACAD_REACTORS
330
1A
102
}
330
1A
100
AcDbPlotSettings
  1

  2
none_device
  4

  6

 40
0.0
 41
0.0
 42
0.0
 43
0.0
 44
0.0
 45
0.0
 46
0.0
 47
0.0
 48
0.0
 49
0.0
140
0.0
141
0.0
142
1.0
143
1.0
 70
   688
 72
     1
 73
     0
 74
     5
  7

 75
    16
147
1.0
148
0.0
149
0.0
100
AcDbLayout
  1
Layout2
 70
     1
 71
     2
 10
0.0
 20
0.0
 11
0.0
 21
0.0
 12
0.0
 22
0.0
 32
0.0
 14
0.0
 24
0.0
 34
0.0
 15
0.0
 25
0.0
 35
0.0
146
0.0
 13
0.0
 23
0.0
 33
0.0
 16
1.0
 26
0.0
 36
0.0
 17
0.0
 27
1.0
 37
0.0
 76
     0
330
23
  0
LAYOUT
  5
22
102
{ACAD_REACTORS
330
1A
102
}
330
1A
100
AcDbPlotSettings
  1

  2
none_device
  4
ANSI_A_(11.00_x_8.50_Inches)
  6

 40
6.35
 41
19.05
 42
6.35000508
 43
19.05000254
 44
279.4
 45
215.9
 46
58.9924976019
 47
166.1531172454
 48
0.0
 49
0.0
140
0.0
141
0.0
142
0.0085630591
143
1.0
 70
  1696
 72
     0
 73
     0
 74
     0
  7

 75
     0
147
0.0179189148
148
-1300.4909072572
149
0.0
100
AcDbLayout
  1
Model
 70
     1
 71
     0
 10
0.0
 20
0.0
 11
420.0
 21
297.0
 12
0.0
 22
0.0
 32
0.0
 14
-294.0
 24
-710.3679474909
 34
0.0
 15
977.7417772882
 25
0.0
 35
0.0
146
0.0
 13
0.0
 23
0.0
 33
0.0
 16
1.0
 26
0.0
 36
0.0
 17
0.0
 27
1.0
 37
0.0
 76
     0
330
1F
331
29
  0
MLINESTYLE
  5
18
102
{ACAD_REACTORS
330
17
102
}
330
17
100
AcDbMlineStyle
  2
Standard
 70
     0
  3

 62
   256
 51
90.0
 52
90.0
 71
     2
 49
0.5
 62
   256
  6
BYLAYER
 49
-0.5
 62
   256
  6
BYLAYER
  0
ACDBPLACEHOLDER
  5
F
102
{ACAD_REACTORS
330
E
102
}
330
E
  0
SCALE
  5
48
102
{ACAD_REACTORS
330
47
102
}
330
47
100
AcDbScale
 70
     0
300
1:1
140
1.0
141
1.0
290
     1
  0
SCALE
  5
49
102
{ACAD_REACTORS
330
47
102
}
330
47
100
AcDbScale
 70
     0
300
1:2
140
1.0
141
2.0
290
     0
  0
SCALE
  5
4A
102
{ACAD_REACTORS
330
47
102
}
330
47
100
AcDbScale
 70
     0
300
1:4
140
1.0
141
4.0
290
     0
  0
SCALE
  5
4B
102
{ACAD_REACTORS
330
47
102
}
330
47
100
AcDbScale
 70
     0
300
1:5
140
1.0
141
5.0
290
     0
  0
SCALE
  5
4C
102
{ACAD_REACTORS
330
47
102
}
330
47
100
AcDbScale
 70
     0
300
1:8
140
1.0
141
8.0
290
     0
  0
SCALE
  5
4D
102
{ACAD_REACTORS
330
47
102
}
330
47
100
AcDbScale
 70
     0
300
1:10
140
1.0
141
10.0
290
     0
  0
SCALE
  5
4E
102
{ACAD_REACTORS
330
47
102
}
330
47
100
AcDbScale
 70
     0
300
1:16
140
1.0
141
16.0
290
     0
  0
SCALE
  5
4F
102
{ACAD_REACTORS
330
47
102
}
330
47
100
AcDbScale
 70
     0
300
1:20
140
1.0
141
20.0
290
     0
  0
SCALE
  5
50
102
{ACAD_REACTORS
330
47
102
}
330
47
100
AcDbScale
 70
     0
300
1:30
140
1.0
141
30.0
290
     0
  0
SCALE
  5
51
102
{ACAD_REACTORS
330
47
102
}
330
47
100
AcDbScale
 70
     0
300
1:40
140
1.0
141
40.0
290
     0
  0
SCALE
  5
52
102
{ACAD_REACTORS
330
47
102
}
330
47
100
AcDbScale
 70
     0
300
1:50
140
1.0
141
50.0
290
     0
  0
SCALE
  5
53
102
{ACAD_REACTORS
330
47
102
}
330
47
100
AcDbScale
 70
     0
300
1:100
140
1.0
141
100.0
290
     0
  0
SCALE
  5
54
102
{ACAD_REACTORS
330
47
102
}
330
47
100
AcDbScale
 70
     0
300
2:1
140
2.0
141
1.0
290
     0
  0
SCALE
  5
55
102
{ACAD_REACTORS
330
47
102
}
330
47
100
AcDbScale
 70
     0
300
4:1
140
4.0
141
1.0
290
     0
  0
SCALE
  5
56
102
{ACAD_REACTORS
330
47
102
}
330
47
100
AcDbScale
 70
     0
300
8:1
140
8.0
141
1.0
290
     0
  0
SCALE
  5
57
102
{ACAD_REACTORS
330
47
102
}
330
47
100
AcDbScale
 70
     0
300
10:1
140
10.0
141
1.0
290
     0
  0
SCALE
  5
58
102
{ACAD_REACTORS
330
47
102
}
330
47
100
AcDbScale
 70
     0
300
100:1
140
100.0
141
1.0
290
     0
  0
SCALE
  5
59
102
{ACAD_REACTORS
330
47
102
}
330
47
100
AcDbScale
 70
     0
300
1/128" = 1'-0"
140
0.0078125
141
12.0
290
     0
  0
SCALE
  5
5A
102
{ACAD_REACTORS
330
47
102
}
330
47
100
AcDbScale
 70
     0
300
1/64" = 1'-0"
140
0.015625
141
12.0
290
     0
  0
SCALE
  5
5B
102
{ACAD_REACTORS
330
47
102
}
330
47
100
AcDbScale
 70
     0
300
1/32" = 1'-0"
140
0.03125
141
12.0
290
     0
  0
SCALE
  5
5C
102
{ACAD_REACTORS
330
47
102
}
330
47
100
AcDbScale
 70
     0
300
1/16" = 1'-0"
140
0.0625
141
12.0
290
     0
  0
SCALE
  5
5D
102
{ACAD_REACTORS
330
47
102
}
330
47
100
AcDbScale
 70
     0
300
3/32" = 1'-0"
140
0.09375
141
12.0
290
     0
  0
SCALE
  5
5E
102
{ACAD_REACTORS
330
47
102
}
330
47
100
AcDbScale
 70
     0
300
1/8" = 1'-0"
140
0.125
141
12.0
290
     0
  0
SCALE
  5
5F
102
{ACAD_REACTORS
330
47
102
}
330
47
100
AcDbScale
 70
     0
300
3/16" = 1'-0"
140
0.1875
141
12.0
290
     0
  0
SCALE
  5
60
102
{ACAD_REACTORS
330
47
102
}
330
47
100
AcDbScale
 70
     0
300
1/4" = 1'-0"
140
0.25
141
12.0
290
     0
  0
SCALE
  5
61
102
{ACAD_REACTORS
330
47
102
}
330
47
100
AcDbScale
 70
     0
300
3/8" = 1'-0"
140
0.375
141
12.0
290
     0
  0
SCALE
  5
62
102
{ACAD_REACTORS
330
47
102
}
330
47
100
AcDbScale
 70
     0
300
1/2" = 1'-0"
140
0.5
141
12.0
290
     0
  0
SCALE
  5
63
102
{ACAD_REACTORS
330
47
102
}
330
47
100
AcDbScale
 70
     0
300
3/4" = 1'-0"
140
0.75
141
12.0
290
     0
  0
SCALE
  5
64
102
{ACAD_REACTORS
330
47
102
}
330
47
100
AcDbScale
 70
     0
300
1" = 1'-0"
140
1.0
141
12.0
290
     0
  0
SCALE
  5
65
102
{ACAD_REACTORS
330
47
102
}
330
47
100
AcDbScale
 70
     0
300
1-1/2" = 1'-0"
140
1.5
141
12.0
290
     0
  0
SCALE
  5
66
102
{ACAD_REACTORS
330
47
102
}
330
47
100
AcDbScale
 70
     0
300
3" = 1'-0"
140
3.0
141
12.0
290
     0
  0
SCALE
  5
67
102
{ACAD_REACTORS
330
47
102
}
330
47
100
AcDbScale
 70
     0
300
6" = 1'-0"
140
6.0
141
12.0
290
     0
  0
SCALE
  5
68
102
{ACAD_REACTORS
330
47
102
}
330
47
100
AcDbScale
 70
     0
300
1'-0" = 1'-0"
140
12.0
141
12.0
290
     0
  0
ENDSEC
  0
EOF
