  0
SECTION
  2
HEADER
  9
$ACADVER
  1
AC1015
  9
$ACADMAINTVER
 70
     6
  9
$DWGCODEPAGE
  3
ANSI_1251
  9
$INSBASE
 10
0.0
 20
0.0
 30
0.0
  9
$EXTMIN
 10
0.0
 20
0.0
 30
0.0
  9
$EXTMAX
 10
1189.0
 20
841.0
 30
0.0
  9
$LIMMIN
 10
0.0
 20
0.0
  9
$LIMMAX
 10
1189.0
 20
841.0
  9
$ORTHOMODE
 70
     0
  9
$REGENMODE
 70
     1
  9
$FILLMODE
 70
     1
  9
$QTEXTMODE
 70
     0
  9
$MIRRTEXT
 70
     1
  9
$LTSCALE
 40
1.0
  9
$ATTMODE
 70
     1
  9
$TEXTSIZE
 40
3.5
  9
$TRACEWID
 40
1.0
  9
$TEXTSTYLE
  7
Standard
  9
$CLAYER
  8
0
  9
$CELTYPE
  6
ByLayer
  9
$CECOLOR
 62
   256
  9
$CELTSCALE
 40
1.0
  9
$DISPSILH
 70
     0
  9
$DIMSCALE
 40
1.0
  9
$DIMASZ
 40
3.5
  9
$DIMEXO
 40
0.01
  9
$DIMDLI
 40
3.75
  9
$DIMRND
 40
0.0
  9
$DIMDLE
 40
0.0
  9
$DIMEXE
 40
1.0
  9
$DIMTP
 40
0.0
  9
$DIMTM
 40
0.0
  9
$DIMTXT
 40
3.5
  9
$DIMCEN
 40
2.5
  9
$DIMTSZ
 40
0.0
  9
$DIMTOL
 70
     0
  9
$DIMLIM
 70
     0
  9
$DIMTIH
 70
     1
  9
$DIMTOH
 70
     1
  9
$DIMSE1
 70
     0
  9
$DIMSE2
 70
     0
  9
$DIMTAD
 70
     1
  9
$DIMZIN
 70
     0
  9
$DIMBLK
  1

  9
$DIMASO
 70
     1
  9
$DIMSHO
 70
     1
  9
$DIMPOST
  1

  9
$DIMAPOST
  1

  9
$DIMALT
 70
     0
  9
$DIMALTD
 70
     3
  9
$DIMALTF
 40
0.0393700787
  9
$DIMLFAC
 40
1.0
  9
$DIMTOFL
 70
     1
  9
$DIMTVP
 40
0.0
  9
$DIMTIX
 70
     0
  9
$DIMSOXD
 70
     0
  9
$DIMSAH
 70
     0
  9
$DIMBLK1
  1

  9
$DIMBLK2
  1

  9
$DIMSTYLE
  2
ISO-25
  9
$DIMCLRD
 70
     0
  9
$DIMCLRE
 70
     0
  9
$DIMCLRT
 70
     0
  9
$DIMTFAC
 40
1.0
  9
$DIMGAP
 40
3.0
  9
$DIMJUST
 70
     0
  9
$DIMSD1
 70
     0
  9
$DIMSD2
 70
     0
  9
$DIMTOLJ
 70
     0
  9
$DIMTZIN
 70
     0
  9
$DIMALTZ
 70
     0
  9
$DIMALTTZ
 70
     0
  9
$DIMUPT
 70
     0
  9
$DIMDEC
 70
     2
  9
$DIMTDEC
 70
     3
  9
$DIMALTU
 70
     2
  9
$DIMALTTD
 70
     3
  9
$DIMTXSTY
  7
Standard
  9
$DIMAUNIT
 70
     0
  9
$DIMADEC
 70
     2
  9
$DIMALTRND
 40
0.0
  9
$DIMAZIN
 70
     0
  9
$DIMDSEP
 70
    44
  9
$DIMATFIT
 70
     3
  9
$DIMFRAC
 70
     0
  9
$DIMLDRBLK
  1

  9
$DIMLUNIT
 70
     2
  9
$DIMLWD
 70
    -2
  9
$DIMLWE
 70
    -2
  9
$DIMTMOVE
 70
     0
  9
$LUNITS
 70
     2
  9
$LUPREC
 70
     4
  9
$SKETCHINC
 40
1.0
  9
$FILLETRAD
 40
10.0
  9
$AUNITS
 70
     0
  9
$AUPREC
 70
     2
  9
$MENU
  1
.
  9
$ELEVATION
 40
0.0
  9
$PELEVATION
 40
0.0
  9
$THICKNESS
 40
0.0
  9
$LIMCHECK
 70
     0
  9
$CHAMFERA
 40
0.0
  9
$CHAMFERB
 40
0.0
  9
$CHAMFERC
 40
0.0
  9
$CHAMFERD
 40
0.0
  9
$SKPOLY
 70
     0
  9
$TDCREATE
 40
2459275.55836353
  9
$TDUCREATE
 40
2459275.43336353
  9
$TDUPDATE
 40
2459275.558364225
  9
$TDUUPDATE
 40
2459275.433364225
  9
$TDINDWG
 40
0.0000000116
  9
$TDUSRTIMER
 40
0.0000000116
  9
$USRTIMER
 70
     1
  9
$ANGBASE
 50
0.0
  9
$ANGDIR
 70
     0
  9
$PDMODE
 70
     0
  9
$PDSIZE
 40
-1.0
  9
$PLINEWID
 40
0.0
  9
$SPLFRAME
 70
     0
  9
$SPLINETYPE
 70
     6
  9
$SPLINESEGS
 70
     8
  9
$HANDSEED
  5
208
  9
$SURFTAB1
 70
     6
  9
$SURFTAB2
 70
     6
  9
$SURFTYPE
 70
     6
  9
$SURFU
 70
     6
  9
$SURFV
 70
     6
  9
$UCSBASE
  2

  9
$UCSNAME
  2

  9
$UCSORG
 10
0.0
 20
0.0
 30
0.0
  9
$UCSXDIR
 10
1.0
 20
0.0
 30
0.0
  9
$UCSYDIR
 10
0.0
 20
1.0
 30
0.0
  9
$UCSORTHOREF
  2

  9
$UCSORTHOVIEW
 70
     0
  9
$UCSORGTOP
 10
0.0
 20
0.0
 30
0.0
  9
$UCSORGBOTTOM
 10
0.0
 20
0.0
 30
0.0
  9
$UCSORGLEFT
 10
0.0
 20
0.0
 30
0.0
  9
$UCSORGRIGHT
 10
0.0
 20
0.0
 30
0.0
  9
$UCSORGFRONT
 10
0.0
 20
0.0
 30
0.0
  9
$UCSORGBACK
 10
0.0
 20
0.0
 30
0.0
  9
$PUCSBASE
  2

  9
$PUCSNAME
  2

  9
$PUCSORG
 10
0.0
 20
0.0
 30
0.0
  9
$PUCSXDIR
 10
1.0
 20
0.0
 30
0.0
  9
$PUCSYDIR
 10
0.0
 20
1.0
 30
0.0
  9
$PUCSORTHOREF
  2

  9
$PUCSORTHOVIEW
 70
     0
  9
$PUCSORGTOP
 10
0.0
 20
0.0
 30
0.0
  9
$PUCSORGBOTTOM
 10
0.0
 20
0.0
 30
0.0
  9
$PUCSORGLEFT
 10
0.0
 20
0.0
 30
0.0
  9
$PUCSORGRIGHT
 10
0.0
 20
0.0
 30
0.0
  9
$PUCSORGFRONT
 10
0.0
 20
0.0
 30
0.0
  9
$PUCSORGBACK
 10
0.0
 20
0.0
 30
0.0
  9
$USERI1
 70
     0
  9
$USERI2
 70
     0
  9
$USERI3
 70
     0
  9
$USERI4
 70
     0
  9
$USERI5
 70
     0
  9
$USERR1
 40
0.0
  9
$USERR2
 40
0.0
  9
$USERR3
 40
0.0
  9
$USERR4
 40
0.0
  9
$USERR5
 40
0.0
  9
$WORLDVIEW
 70
     1
  9
$SHADEDGE
 70
     3
  9
$SHADEDIF
 70
    70
  9
$TILEMODE
 70
     1
  9
$MAXACTVP
 70
    64
  9
$PINSBASE
 10
0.0
 20
0.0
 30
0.0
  9
$PLIMCHECK
 70
     0
  9
$PEXTMIN
 10
1.0000000000E+20
 20
1.0000000000E+20
 30
1.0000000000E+20
  9
$PEXTMAX
 10
-1.0000000000E+20
 20
-1.0000000000E+20
 30
-1.0000000000E+20
  9
$PLIMMIN
 10
0.0
 20
0.0
  9
$PLIMMAX
 10
420.0
 20
297.0
  9
$UNITMODE
 70
     0
  9
$VISRETAIN
 70
     1
  9
$PLINEGEN
 70
     0
  9
$PSLTSCALE
 70
     1
  9
$TREEDEPTH
 70
  3020
  9
$CMLSTYLE
  2
Standard
  9
$CMLJUST
 70
     0
  9
$CMLSCALE
 40
20.0
  9
$PROXYGRAPHICS
 70
     1
  9
$MEASUREMENT
 70
     1
  9
$CELWEIGHT
370
    -1
  9
$ENDCAPS
280
     0
  9
$JOINSTYLE
280
     0
  9
$LWDISPLAY
290
     1
  9
$INSUNITS
 70
     4
  9
$HYPERLINKBASE
  1

  9
$STYLESHEET
  1

  9
$XEDIT
290
     1
  9
$CEPSNTYPE
380
     0
  9
$PSTYLEMODE
290
     1
  9
$FINGERPRINTGUID
  2
{6b797f07-2766-4ee6-80e8-68970691b3a4}
  9
$VERSIONGUID
  2
{FAEB1C32-E019-11D5-929B-00C0DF256EC4}
  9
$EXTNAMES
290
     1
  9
$PSVPSCALE
 40
0.0
  9
$OLESTARTUP
290
     0
  0
ENDSEC
  0
SECTION
  2
CLASSES
  0
CLASS
  1
ACDBDICTIONARYWDFLT
  2
AcDbDictionaryWithDefault
  3
ObjectDBX Classes
 90
        0
280
     0
281
     0
  0
CLASS
  1
VISUALSTYLE
  2
AcDbVisualStyle
  3
ObjectDBX Classes
 90
     4095
280
     0
281
     0
  0
CLASS
  1
MATERIAL
  2
AcDbMaterial
  3
ObjectDBX Classes
 90
     1153
280
     0
281
     0
  0
CLASS
  1
SCALE
  2
AcDbScale
  3
ObjectDBX Classes
 90
     1153
280
     0
281
     0
  0
CLASS
  1
TABLESTYLE
  2
AcDbTableStyle
  3
ObjectDBX Classes
 90
     4095
280
     0
281
     0
  0
CLASS
  1
MLEADERSTYLE
  2
AcDbMLeaderStyle
  3
ACDB_MLEADERSTYLE_CLASS
 90
     4095
280
     0
281
     0
  0
CLASS
  1
SUN
  2
AcDbSun
  3
SCENEOE
 90
     1153
280
     0
281
     0
  0
CLASS
  1
ACDBPLACEHOLDER
  2
AcDbPlaceHolder
  3
ObjectDBX Classes
 90
        0
280
     0
281
     0
  0
CLASS
  1
LAYOUT
  2
AcDbLayout
  3
ObjectDBX Classes
 90
        0
280
     0
281
     0
  0
ENDSEC
  0
SECTION
  2
TABLES
  0
TABLE
  2
VPORT
  5
8
330
0
100
AcDbSymbolTable
 70
     1
  0
VPORT
  5
29
330
8
100
AcDbSymbolTableRecord
100
AcDbViewportTableRecord
  2
*Active
 70
     0
 10
0.0
 20
0.0
 11
1.0
 21
1.0
 12
594.5
 22
420.5
 13
0.0
 23
0.0
 14
10.0
 24
10.0
 15
10.0
 25
10.0
 16
0.0
 26
0.0
 36
1.0
 17
0.0
 27
0.0
 37
0.0
 40
841.0
 41
1.4137931034
 42
50.0
 43
0.0
 44
0.0
 50
0.0
 51
0.0
 71
     0
 72
  2000
 73
     1
 74
     3
 75
     0
 76
     0
 77
     0
 78
     0
281
     0
 65
     1
110
0.0
120
0.0
130
0.0
111
1.0
121
0.0
131
0.0
112
0.0
122
1.0
132
0.0
 79
     0
146
0.0
  0
ENDTAB
  0
TABLE
  2
LTYPE
  5
5
330
0
100
AcDbSymbolTable
 70
     6
  0
LTYPE
  5
14
330
5
100
AcDbSymbolTableRecord
100
AcDbLinetypeTableRecord
  2
ByBlock
 70
     0
  3

 72
    65
 73
     0
 40
0.0
  0
LTYPE
  5
15
330
5
100
AcDbSymbolTableRecord
100
AcDbLinetypeTableRecord
  2
ByLayer
 70
     0
  3

 72
    65
 73
     0
 40
0.0
  0
LTYPE
  5
16
330
5
100
AcDbSymbolTableRecord
100
AcDbLinetypeTableRecord
  2
Continuous
 70
     0
  3
Solid line
 72
    65
 73
     0
 40
0.0
  0
LTYPE
  5
6E
330
5
100
AcDbSymbolTableRecord
100
AcDbLinetypeTableRecord
  2
HIDDEN
 70
     0
  3
Hidden __ __ __ __ __ __ __ __ __ __ __ __ __ __
 72
    65
 73
     2
 40
1.905
 49
1.27
 74
     0
 49
-0.635
 74
     0
  0
LTYPE
  5
6F
330
5
100
AcDbSymbolTableRecord
100
AcDbLinetypeTableRecord
  2
PHANTOM
 70
     0
  3
Phantom ______  __  __  ______  __  __  ______
 72
    65
 73
     6
 40
12.7
 49
6.35
 74
     0
 49
-1.27
 74
     0
 49
1.27
 74
     0
 49
-1.27
 74
     0
 49
1.27
 74
     0
 49
-1.27
 74
     0
  0
LTYPE
  5
70
330
5
100
AcDbSymbolTableRecord
100
AcDbLinetypeTableRecord
  2
CENTER
 70
     0
  3
Center ____ _ ____ _ ____ _ ____ _ ____ _ ____
 72
    65
 73
     4
 40
10.16
 49
6.35
 74
     0
 49
-1.27
 74
     0
 49
1.27
 74
     0
 49
-1.27
 74
     0
  0
LTYPE
  5
71
330
5
100
AcDbSymbolTableRecord
100
AcDbLinetypeTableRecord
  2
CENTERX2
 70
     0
  3
Center (2x) ________  __  ________  __  _____
 72
    65
 73
     4
 40
20.32
 49
12.7
 74
     0
 49
-2.54
 74
     0
 49
2.54
 74
     0
 49
-2.54
 74
     0
  0
LTYPE
  5
72
330
5
100
AcDbSymbolTableRecord
100
AcDbLinetypeTableRecord
  2
DOT2
 70
     0
  3
Dot (.5x) ........................................
 72
    65
 73
     2
 40
0.635
 49
0.0
 74
     0
 49
-0.635
 74
     0
  0
ENDTAB
  0
TABLE
  2
LAYER
  5
2
330
0
100
AcDbSymbolTable
 70
     5
  0
LAYER
  5
10
330
2
100
AcDbSymbolTableRecord
100
AcDbLayerTableRecord
  2
0
 70
     0
 62
     7
  6
Continuous
370
    -3
390
F
  0
LAYER
  5
73
330
2
100
AcDbSymbolTableRecord
100
AcDbLayerTableRecord
  2
ОСЕВЫЕ
 70
     0
 62
     7
  6
Continuous
370
    -3
390
F
  0
LAYER
  5
74
330
2
100
AcDbSymbolTableRecord
100
AcDbLayerTableRecord
  2
ВОДЯНЫЕ_ЗНАКИ
 70
     0
 62
    11
  6
Continuous
370
    -3
390
F
  0
LAYER
  5
75
330
2
100
AcDbSymbolTableRecord
100
AcDbLayerTableRecord
  2
ОСНОВНОЙ
 70
     0
 62
     7
  6
Continuous
370
    25
390
F
  0
LAYER
  5
76
330
2
100
AcDbSymbolTableRecord
100
AcDbLayerTableRecord
  2
FORMAT
 70
     0
 62
     7
  6
Continuous
370
    -3
390
F
  0
ENDTAB
  0
TABLE
  2
STYLE
  5
3
330
0
100
AcDbSymbolTable
 70
     1
  0
STYLE
  5
11
330
3
100
AcDbSymbolTableRecord
100
AcDbTextStyleTableRecord
  2
Standard
 70
     0
 40
0.0
 41
1.0
 50
0.0
 71
     0
 42
3.5
  3
txt
  4

  0
ENDTAB
  0
TABLE
  2
VIEW
  5
6
330
0
100
AcDbSymbolTable
 70
     0
  0
ENDTAB
  0
TABLE
  2
UCS
  5
7
330
0
100
AcDbSymbolTable
 70
     0
  0
ENDTAB
  0
TABLE
  2
APPID
  5
9
330
0
100
AcDbSymbolTable
 70
     1
  0
APPID
  5
12
330
9
100
AcDbSymbolTableRecord
100
AcDbRegAppTableRecord
  2
ACAD
 70
     0
  0
ENDTAB
  0
TABLE
  2
DIMSTYLE
  5
A
330
0
100
AcDbSymbolTable
 70
     1
100
AcDbDimStyleTable
  0
DIMSTYLE
105
27
330
A
100
AcDbSymbolTableRecord
100
AcDbDimStyleTableRecord
  2
ISO-25
 70
     0
 41
2.5
 42
0.625
 43
3.75
 44
1.25
 73
     0
 74
     0
 77
     1
 78
     8
140
2.5
141
2.5
143
0.0393700787
147
0.625
171
     3
172
     1
178
     0
271
     2
272
     2
274
     3
278
    44
283
     0
284
     8
340
11
  0
ENDTAB
  0
TABLE
  2
BLOCK_RECORD
  5
1
330
0
100
AcDbSymbolTable
 70
     1
  0
BLOCK_RECORD
  5
1F
330
1
100
AcDbSymbolTableRecord
100
AcDbBlockTableRecord
  2
*Model_Space
340
22
  0
BLOCK_RECORD
  5
1B
330
1
100
AcDbSymbolTableRecord
100
AcDbBlockTableRecord
  2
*Paper_Space
340
1E
  0
BLOCK_RECORD
  5
23
330
1
100
AcDbSymbolTableRecord
100
AcDbBlockTableRecord
  2
*Paper_Space0
340
26
  0
ENDTAB
  0
ENDSEC
  0
SECTION
  2
BLOCKS
  0
BLOCK
  5
20
330
1F
100
AcDbEntity
  8
0
100
AcDbBlockBegin
  2
*Model_Space
 70
     0
 10
0.0
 20
0.0
 30
0.0
  3
*Model_Space
  1

  0
ENDBLK
  5
21
330
1F
100
AcDbEntity
  8
0
100
AcDbBlockEnd
  0
BLOCK
  5
1C
330
1B
100
AcDbEntity
 67
     1
  8
0
100
AcDbBlockBegin
  2
*Paper_Space
 70
     0
 10
0.0
 20
0.0
 30
0.0
  3
*Paper_Space
  1

  0
ENDBLK
  5
1D
330
1B
100
AcDbEntity
 67
     1
  8
0
100
AcDbBlockEnd
  0
BLOCK
  5
24
330
23
100
AcDbEntity
  8
0
100
AcDbBlockBegin
  2
*Paper_Space0
 70
     0
 10
0.0
 20
0.0
 30
0.0
  3
*Paper_Space0
  1

  0
ENDBLK
  5
25
330
23
100
AcDbEntity
  8
0
100
AcDbBlockEnd
  0
ENDSEC
  0
SECTION
  2
ENTITIES
  0
ARC
  5
77
330
1F
100
AcDbEntity
  8
0
  6
Continuous
 62
     7
370
    25
100
AcDbCircle
 10
46.3824158858
 20
215.9157027525
 30
0.0
 40
4.176571428571481
100
AcDbArc
 50
221.666740314
 51
257.204404999
  0
ARC
  5
78
330
1F
100
AcDbEntity
  8
0
  6
Continuous
 62
     7
370
    25
100
AcDbCircle
 10
46.3824158858
 20
215.9157027525
 30
0.0
 40
4.176571428571505
100
AcDbArc
 50
282.795595001
 51
318.333259686
  0
ARC
  5
79
330
1F
100
AcDbEntity
  8
0
  6
Continuous
 62
     7
370
    25
100
AcDbCircle
 10
46.3824158858
 20
806.7625598954
 30
0.0
 40
4.176571428571533
100
AcDbArc
 50
102.795595001
 51
138.333259686
  0
ARC
  5
7A
330
1F
100
AcDbEntity
  8
0
  6
Continuous
 62
     7
370
    25
100
AcDbCircle
 10
46.3824158858
 20
806.7625598954
 30
0.0
 40
4.176571428571509
100
AcDbArc
 50
41.666740314
 51
77.204404999
  0
LINE
  5
7B
330
1F
100
AcDbEntity
  8
0
  6
Continuous
 62
     7
370
    25
100
AcDbLine
 10
46.3824158858
 20
211.8428506931
 30
0.0
 11
47.3074158858
 21
211.8428506931
 31
0.0
  0
LINE
  5
7C
330
1F
100
AcDbEntity
  8
0
  6
Continuous
 62
     7
370
    25
100
AcDbLine
 10
45.4574158858
 20
211.8428506931
 30
0.0
 11
46.3824158858
 21
211.8428506931
 31
0.0
  0
LINE
  5
7D
330
1F
100
AcDbEntity
  8
0
  6
Continuous
 62
     7
370
    25
100
AcDbLine
 10
46.3824158858
 20
810.8354119548
 30
0.0
 11
45.4574158858
 21
810.8354119548
 31
0.0
  0
LINE
  5
7E
330
1F
100
AcDbEntity
  8
0
  6
Continuous
 62
     7
370
    25
100
AcDbLine
 10
47.3074158858
 20
810.8354119548
 30
0.0
 11
46.3824158858
 21
810.8354119548
 31
0.0
  0
LINE
  5
7F
330
1F
100
AcDbEntity
  8
0
  6
Continuous
 62
     7
370
    25
100
AcDbLine
 10
1233.828866011
 20
214.639131324
 30
0.0
 11
1234.0824158858
 21
214.639131324
 31
0.0
  0
LINE
  5
80
330
1F
100
AcDbEntity
  8
0
  6
Continuous
 62
     7
370
    25
100
AcDbLine
 10
1234.0824158858
 20
214.639131324
 30
0.0
 11
1234.0824158858
 21
215.0172285691
 31
0.0
  0
LINE
  5
81
330
1F
100
AcDbEntity
  8
0
  6
Continuous
 62
     7
370
    25
100
AcDbLine
 10
1235.5824158858
 20
214.339131324
 30
0.0
 11
1235.5824158858
 21
808.339131324
 31
0.0
  0
LINE
  5
82
330
1F
100
AcDbEntity
  8
0
  6
Continuous
 62
     7
370
    25
100
AcDbLine
 10
1234.8176534591
 20
214.339131324
 30
0.0
 11
1235.5824158858
 21
214.339131324
 31
0.0
  0
LINE
  5
83
330
1F
100
AcDbEntity
  8
0
  6
Continuous
 62
     7
370
    25
100
AcDbLine
 10
1234.5824158858
 20
214.5172285691
 30
0.0
 11
1234.8176534591
 21
214.339131324
 31
0.0
  0
LINE
  5
84
330
1F
100
AcDbEntity
  8
0
  6
Continuous
 62
     7
370
    25
100
AcDbLine
 10
1234.5824158858
 20
214.5172285691
 30
0.0
 11
1234.5824158858
 21
808.1610340789
 31
0.0
  0
LINE
  5
85
330
1F
100
AcDbEntity
  8
0
  6
Continuous
 62
     7
370
    25
100
AcDbLine
 10
1234.8176534591
 20
808.339131324
 30
0.0
 11
1234.5824158858
 21
808.1610340789
 31
0.0
  0
LINE
  5
86
330
1F
100
AcDbEntity
  8
0
  6
Continuous
 62
     7
370
    25
100
AcDbLine
 10
1235.5824158858
 20
808.339131324
 30
0.0
 11
1234.8176534591
 21
808.339131324
 31
0.0
  0
LINE
  5
87
330
1F
100
AcDbEntity
  8
0
  6
Continuous
 62
     7
370
    25
100
AcDbLine
 10
1224.7605131309
 20
224.339131324
 30
0.0
 11
1224.7605131309
 21
798.339131324
 31
0.0
  0
LINE
  5
88
330
1F
100
AcDbEntity
  8
0
  6
Continuous
 62
     7
370
    25
100
AcDbLine
 10
1224.7605131309
 20
798.339131324
 30
0.0
 11
1234.5824158858
 21
808.1610340789
 31
0.0
  0
LINE
  5
89
330
1F
100
AcDbEntity
  8
0
  6
Continuous
 62
     7
370
    25
100
AcDbLine
 10
1234.5824158858
 20
214.5172285691
 30
0.0
 11
1224.7605131309
 21
224.339131324
 31
0.0
  0
LINE
  5
8A
330
1F
100
AcDbEntity
  8
0
  6
Continuous
 62
     7
370
    25
100
AcDbLine
 10
1234.7000346724
 20
214.339131324
 30
0.0
 11
1234.8176534591
 21
214.339131324
 31
0.0
  0
LINE
  5
8B
330
1F
100
AcDbEntity
  8
0
  6
Continuous
 62
     7
370
    25
100
AcDbLine
 10
1234.5824158858
 20
214.5172285691
 30
0.0
 11
1234.7000346724
 21
214.339131324
 31
0.0
  0
LINE
  5
8C
330
1F
100
AcDbEntity
  8
0
  6
Continuous
 62
     7
370
    25
100
AcDbLine
 10
1234.7000346724
 20
808.339131324
 30
0.0
 11
1234.8176534591
 21
808.339131324
 31
0.0
  0
LINE
  5
8D
330
1F
100
AcDbEntity
  8
0
  6
Continuous
 62
     7
370
    25
100
AcDbLine
 10
1234.7000346724
 20
808.339131324
 30
0.0
 11
1234.5824158858
 21
808.1610340789
 31
0.0
  0
LINE
  5
8E
330
1F
100
AcDbEntity
  8
0
  6
Continuous
 62
     7
370
    25
100
AcDbLine
 10
1234.3824158858
 20
213.139131324
 30
0.0
 11
1234.3824158858
 21
213.3532440632
 31
0.0
  0
LINE
  5
8F
330
1F
100
AcDbEntity
  8
0
  6
Continuous
 62
     7
370
    25
100
AcDbLine
 10
40.3824158858
 20
213.139131324
 30
0.0
 11
1234.3824158858
 21
213.139131324
 31
0.0
  0
LINE
  5
90
330
1F
100
AcDbEntity
  8
0
  6
Continuous
 62
     7
370
    25
100
AcDbLine
 10
40.3824158858
 20
213.3532440632
 30
0.0
 11
40.3824158858
 21
213.139131324
 31
0.0
  0
LINE
  5
91
330
1F
100
AcDbEntity
  8
0
  6
Continuous
 62
     7
370
    25
100
AcDbLine
 10
40.8824158858
 20
213.3532440632
 30
0.0
 11
40.3824158858
 21
213.3532440632
 31
0.0
  0
SPLINE
  5
92
330
1F
100
AcDbEntity
  8
0
  6
Continuous
 62
     7
370
    25
100
AcDbSpline
210
0.0
220
0.0
230
1.0
 70
     8
 71
     3
 72
    11
 73
     7
 74
     0
 42
0.00000001
 43
0.00000001
 40
0.0
 40
0.0
 40
0.0
 40
0.0
 40
0.2500000000000019
 40
0.5000000000000503
 40
0.7500000000000335
 40
1.0
 40
1.0
 40
1.0
 40
1.0
 10
40.94406108989379
 20
214.139131323965
 30
0.0
 10
40.93892398955212
 20
214.0637482821747
 30
0.0
 10
40.92864978886912
 20
213.9129821985942
 30
0.0
 10
40.91323848784378
 20
213.6990520146096
 30
0.0
 10
40.89782718681923
 20
213.504654431984
 30
0.0
 10
40.88755298613567
 20
213.40371418612
 30
0.0
 10
40.882415885794
 20
213.3532440631881
 30
0.0
  0
LINE
  5
93
330
1F
100
AcDbEntity
  8
0
  6
Continuous
 62
     7
370
    25
100
AcDbLine
 10
40.9440610899
 20
214.139131324
 30
0.0
 11
1233.8515932837
 21
214.139131324
 31
0.0
  0
SPLINE
  5
94
330
1F
100
AcDbEntity
  8
0
  6
Continuous
 62
     7
370
    25
100
AcDbSpline
210
0.0
220
0.0
230
1.0
 70
     8
 71
     3
 72
    11
 73
     7
 74
     0
 42
0.00000001
 43
0.00000001
 40
0.0
 40
0.0
 40
0.0
 40
0.0
 40
0.2499999999999528
 40
0.4999999999999559
 40
0.749999999999995
 40
1.0
 40
1.0
 40
1.0
 40
1.0
 10
1233.882415885795
 20
213.3532440631969
 30
0.0
 10
1233.879847335624
 20
213.4037141861289
 30
0.0
 10
1233.874710235283
 20
213.5046544319928
 30
0.0
 10
1233.86700458477
 20
213.6990520146183
 30
0.0
 10
1233.859298934258
 20
213.9129821986029
 30
0.0
 10
1233.854161833916
 20
214.0637482821835
 30
0.0
 10
1233.851593283745
 20
214.1391313239739
 30
0.0
  0
LINE
  5
95
330
1F
100
AcDbEntity
  8
0
  6
Continuous
 62
     7
370
    25
100
AcDbLine
 10
1234.3824158858
 20
213.3532440632
 30
0.0
 11
1233.8824158858
 21
213.3532440632
 31
0.0
  0
LINE
  5
96
330
1F
100
AcDbEntity
  8
0
  6
Continuous
 62
     7
370
    25
100
AcDbLine
 10
1233.8824158858
 20
213.7461876936
 30
0.0
 11
1233.8824158858
 21
213.3532440632
 31
0.0
  0
SPLINE
  5
97
330
1F
100
AcDbEntity
  8
0
  6
Continuous
 62
     7
370
    25
100
AcDbSpline
210
0.0
220
0.0
230
1.0
 70
     8
 71
     3
 72
    11
 73
     7
 74
     0
 42
0.00000001
 43
0.00000001
 40
0.0
 40
0.0
 40
0.0
 40
0.0
 40
0.2499999999999938
 40
0.4999999999999594
 40
0.750000000000008
 40
1.0
 40
1.0
 40
1.0
 40
1.0
 10
1233.882415885795
 20
213.7461876935854
 30
0.0
 10
1233.879847335624
 20
213.7714227550513
 30
0.0
 10
1233.874710235282
 20
213.8218928779834
 30
0.0
 10
1233.86700458477
 20
213.9190916692961
 30
0.0
 10
1233.859298934257
 20
214.0260567612885
 30
0.0
 10
1233.854161833916
 20
214.1014398030788
 30
0.0
 10
1233.851593283745
 20
214.1391313239739
 30
0.0
  0
LINE
  5
98
330
1F
100
AcDbEntity
  8
0
  6
Continuous
 62
     7
370
    25
100
AcDbLine
 10
51.917543924
 20
224.4610340789
 30
0.0
 11
1224.7605131309
 21
224.4610340789
 31
0.0
  0
LINE
  5
99
330
1F
100
AcDbEntity
  8
0
  6
Continuous
 62
     7
370
    25
100
AcDbLine
 10
40.9440610899
 20
214.139131324
 30
0.0
 11
41.0713338172
 21
215.539131324
 31
0.0
  0
LINE
  5
9A
330
1F
100
AcDbEntity
  8
0
  6
Continuous
 62
     7
370
    25
100
AcDbLine
 10
1233.7987875767
 20
215.3008568781
 30
0.0
 11
1233.8515932837
 21
214.139131324
 31
0.0
  0
LINE
  5
9B
330
1F
100
AcDbEntity
  8
0
  6
Continuous
 62
     7
370
    25
100
AcDbLine
 10
1233.8515932837
 20
808.539131324
 30
0.0
 11
1233.7987875767
 21
807.3774057698
 31
0.0
  0
LINE
  5
9C
330
1F
100
AcDbEntity
  8
0
  6
Continuous
 62
     7
370
    25
100
AcDbLine
 10
1224.7605131309
 20
798.2172285691
 30
0.0
 11
52.0043186407
 21
798.2172285691
 31
0.0
  0
LINE
  5
9D
330
1F
100
AcDbEntity
  8
0
  6
Continuous
 62
     7
370
    25
100
AcDbLine
 10
41.0349701808
 20
807.539131324
 30
0.0
 11
40.9440610899
 21
808.539131324
 31
0.0
  0
LINE
  5
9E
330
1F
100
AcDbEntity
  8
0
  6
Continuous
 62
     7
370
    25
100
AcDbLine
 10
40.9440610899
 20
808.539131324
 30
0.0
 11
1233.8515932837
 21
808.539131324
 31
0.0
  0
LINE
  5
9F
330
1F
100
AcDbEntity
  8
0
  6
Continuous
 62
     7
370
    25
100
AcDbLine
 10
40.3824158858
 20
809.539131324
 30
0.0
 11
1234.3824158858
 21
809.539131324
 31
0.0
  0
LINE
  5
A0
330
1F
100
AcDbEntity
  8
0
  6
Continuous
 62
     7
370
    25
100
AcDbLine
 10
1234.3824158858
 20
809.3250185848
 30
0.0
 11
1234.3824158858
 21
809.539131324
 31
0.0
  0
LINE
  5
A1
330
1F
100
AcDbEntity
  8
0
  6
Continuous
 62
     7
370
    25
100
AcDbLine
 10
1233.8824158858
 20
809.3250185848
 30
0.0
 11
1234.3824158858
 21
809.3250185848
 31
0.0
  0
SPLINE
  5
A2
330
1F
100
AcDbEntity
  8
0
  6
Continuous
 62
     7
370
    25
100
AcDbSpline
210
0.0
220
0.0
230
1.0
 70
     8
 71
     3
 72
    11
 73
     7
 74
     0
 42
0.00000001
 43
0.00000001
 40
0.0
 40
0.0
 40
0.0
 40
0.0
 40
0.2500000000000037
 40
0.4999999999999892
 40
0.7499999999999845
 40
1.0
 40
1.0
 40
1.0
 40
1.0
 10
1233.851593283741
 20
808.5391313239736
 30
0.0
 10
1233.854161833912
 20
808.614514365764
 30
0.0
 10
1233.859298934254
 20
808.7652804493446
 30
0.0
 10
1233.867004584766
 20
808.979210633329
 30
0.0
 10
1233.874710235278
 20
809.1736082159547
 30
0.0
 10
1233.87984733562
 20
809.2745484618184
 30
0.0
 10
1233.882415885791
 20
809.3250185847505
 30
0.0
  0
SPLINE
  5
A3
330
1F
100
AcDbEntity
  8
0
  6
Continuous
 62
     7
370
    25
100
AcDbSpline
210
0.0
220
0.0
230
1.0
 70
     8
 71
     3
 72
    11
 73
     7
 74
     0
 42
0.00000001
 43
0.00000001
 40
0.0
 40
0.0
 40
0.0
 40
0.0
 40
0.2500000000000113
 40
0.5000000000000107
 40
0.7499999999999922
 40
1.0
 40
1.0
 40
1.0
 40
1.0
 10
40.88241588579133
 20
809.3250185847415
 30
0.0
 10
40.887552986133
 20
809.2745484618096
 30
0.0
 10
40.89782718681634
 20
809.1736082159457
 30
0.0
 10
40.91323848784112
 20
808.97921063332
 30
0.0
 10
40.92864978886612
 20
808.7652804493356
 30
0.0
 10
40.93892398954934
 20
808.614514365755
 30
0.0
 10
40.9440610898909
 20
808.5391313239647
 30
0.0
  0
LINE
  5
A4
330
1F
100
AcDbEntity
  8
0
  6
Continuous
 62
     7
370
    25
100
AcDbLine
 10
40.3824158858
 20
809.3250185847
 30
0.0
 11
40.8824158858
 21
809.3250185847
 31
0.0
  0
LINE
  5
A5
330
1F
100
AcDbEntity
  8
0
  6
Continuous
 62
     7
370
    25
100
AcDbLine
 10
40.3824158858
 20
809.539131324
 30
0.0
 11
40.3824158858
 21
809.3250185847
 31
0.0
  0
SPLINE
  5
A6
330
1F
100
AcDbEntity
  8
0
  6
Continuous
 62
     7
370
    25
100
AcDbSpline
210
0.0
220
0.0
230
1.0
 70
     8
 71
     3
 72
    11
 73
     7
 74
     0
 42
0.00000001
 43
0.00000001
 40
0.0
 40
0.0
 40
0.0
 40
0.0
 40
0.2499999999999989
 40
0.4999999999999699
 40
0.7500000000000063
 40
1.0
 40
1.0
 40
1.0
 40
1.0
 10
40.88241588579133
 20
808.9320749543532
 30
0.0
 10
40.88755298613312
 20
808.9068398928871
 30
0.0
 10
40.89782718681623
 20
808.8563697699552
 30
0.0
 10
40.91323848784101
 20
808.7591709786424
 30
0.0
 10
40.9286497888659
 20
808.6522058866501
 30
0.0
 10
40.93892398954934
 20
808.5768228448597
 30
0.0
 10
40.9440610898909
 20
808.5391313239647
 30
0.0
  0
LINE
  5
A7
330
1F
100
AcDbEntity
  8
0
  6
Continuous
 62
     7
370
    25
100
AcDbLine
 10
40.8824158858
 20
808.9320749544
 30
0.0
 11
40.8824158858
 21
809.3250185847
 31
0.0
  0
LINE
  5
A8
330
1F
100
AcDbEntity
  8
0
  6
Continuous
 62
     7
370
    25
100
AcDbLine
 10
1233.8824158858
 20
808.9320749544
 30
0.0
 11
1233.8824158858
 21
809.3250185848
 31
0.0
  0
SPLINE
  5
A9
330
1F
100
AcDbEntity
  8
0
  6
Continuous
 62
     7
370
    25
100
AcDbSpline
210
0.0
220
0.0
230
1.0
 70
     8
 71
     3
 72
    11
 73
     7
 74
     0
 42
0.00000001
 43
0.00000001
 40
0.0
 40
0.0
 40
0.0
 40
0.0
 40
0.2499999999999769
 40
0.5000000000000305
 40
0.7499999999999843
 40
1.0
 40
1.0
 40
1.0
 40
1.0
 10
1233.851593283741
 20
808.5391313239736
 30
0.0
 10
1233.854161833912
 20
808.5768228448687
 30
0.0
 10
1233.859298934254
 20
808.652205886659
 30
0.0
 10
1233.867004584766
 20
808.7591709786512
 30
0.0
 10
1233.874710235278
 20
808.856369769964
 30
0.0
 10
1233.87984733562
 20
808.9068398928962
 30
0.0
 10
1233.882415885791
 20
808.9320749543621
 30
0.0
  0
LINE
  5
AA
330
1F
100
AcDbEntity
  8
0
  6
Continuous
 62
     7
370
    25
100
AcDbLine
 10
40.8824158858
 20
213.7461876936
 30
0.0
 11
40.8824158858
 21
213.3532440632
 31
0.0
  0
SPLINE
  5
AB
330
1F
100
AcDbEntity
  8
0
  6
Continuous
 62
     7
370
    25
100
AcDbSpline
210
0.0
220
0.0
230
1.0
 70
     8
 71
     3
 72
    11
 73
     7
 74
     0
 42
0.00000001
 43
0.00000001
 40
0.0
 40
0.0
 40
0.0
 40
0.0
 40
0.2499999999999798
 40
0.5000000000000648
 40
0.7499999999999524
 40
0.9999999999999999
 40
0.9999999999999999
 40
0.9999999999999999
 40
0.9999999999999999
 10
40.94406108989379
 20
214.139131323965
 30
0.0
 10
40.93892398955212
 20
214.1014398030698
 30
0.0
 10
40.9286497888689
 20
214.0260567612795
 30
0.0
 10
40.91323848784367
 20
213.9190916692874
 30
0.0
 10
40.89782718681933
 20
213.8218928779745
 30
0.0
 10
40.88755298613555
 20
213.7714227550425
 30
0.0
 10
40.882415885794
 20
213.7461876935766
 30
0.0
  0
LINE
  5
AC
330
1F
100
AcDbEntity
  8
0
  6
Continuous
 62
     7
370
    25
100
AcDbLine
 10
1234.3824158858
 20
213.7461876936
 30
0.0
 11
1233.8824158858
 21
213.7461876936
 31
0.0
  0
LINE
  5
AD
330
1F
100
AcDbEntity
  8
0
  6
Continuous
 62
     7
370
    25
100
AcDbLine
 10
1234.3824158858
 20
213.7461876936
 30
0.0
 11
1234.3824158858
 21
213.3532440632
 31
0.0
  0
LINE
  5
AE
330
1F
100
AcDbEntity
  8
0
  6
Continuous
 62
     7
370
    25
100
AcDbLine
 10
40.3824158858
 20
808.9320749544
 30
0.0
 11
40.3824158858
 21
809.3250185847
 31
0.0
  0
LINE
  5
AF
330
1F
100
AcDbEntity
  8
0
  6
Continuous
 62
     7
370
    25
100
AcDbLine
 10
40.3824158858
 20
808.9320749544
 30
0.0
 11
40.8824158858
 21
808.9320749544
 31
0.0
  0
LINE
  5
B0
330
1F
100
AcDbEntity
  8
0
  6
Continuous
 62
     7
370
    25
100
AcDbLine
 10
1234.3824158858
 20
808.9320749544
 30
0.0
 11
1234.3824158858
 21
809.3250185848
 31
0.0
  0
LINE
  5
B1
330
1F
100
AcDbEntity
  8
0
  6
Continuous
 62
     7
370
    25
100
AcDbLine
 10
1233.8824158858
 20
808.9320749544
 30
0.0
 11
1234.3824158858
 21
808.9320749544
 31
0.0
  0
LINE
  5
B2
330
1F
100
AcDbEntity
  8
0
  6
Continuous
 62
     7
370
    25
100
AcDbLine
 10
40.3824158858
 20
213.7461876936
 30
0.0
 11
40.3824158858
 21
213.3532440632
 31
0.0
  0
LINE
  5
B3
330
1F
100
AcDbEntity
  8
0
  6
Continuous
 62
     7
370
    25
100
AcDbLine
 10
40.8824158858
 20
213.7461876936
 30
0.0
 11
40.3824158858
 21
213.7461876936
 31
0.0
  0
SPLINE
  5
B4
330
1F
100
AcDbEntity
  8
0
  6
Continuous
 62
     7
370
    25
100
AcDbSpline
210
0.0
220
0.0
230
1.0
 70
     8
 71
     3
 72
    11
 73
     7
 74
     0
 42
0.00000001
 43
0.00000001
 40
0.0
 40
0.0
 40
0.0
 40
0.0
 40
0.250000000000003
 40
0.4999999999999715
 40
0.750000000000005
 40
1.0
 40
1.0
 40
1.0
 40
1.0
 10
1235.082415885795
 20
214.3391313239736
 30
0.0
 10
1235.071893784843
 20
214.2474053933094
 30
0.0
 10
1235.050849582941
 20
214.0639535319807
 30
0.0
 10
1234.888975133756
 20
213.8325720760126
 30
0.0
 10
1234.657593677788
 20
213.6706976268273
 30
0.0
 10
1234.474141816459
 20
213.649653424925
 30
0.0
 10
1234.382415885795
 20
213.6391313239738
 30
0.0
  0
SPLINE
  5
B5
330
1F
100
AcDbEntity
  8
0
  6
Continuous
 62
     7
370
    25
100
AcDbSpline
210
0.0
220
0.0
230
1.0
 70
     8
 71
     3
 72
    11
 73
     7
 74
     0
 42
0.00000001
 43
0.00000001
 40
0.0
 40
0.0
 40
0.0
 40
0.0
 40
0.2499999999999946
 40
0.5000000000000061
 40
0.7500000000000105
 40
1.0
 40
1.0
 40
1.0
 40
1.0
 10
1235.582415885795
 20
214.3391313239736
 30
0.0
 10
1235.56437799845
 20
214.1818868714062
 30
0.0
 10
1235.52830222376
 20
213.8673979662713
 30
0.0
 10
1235.250803168013
 20
213.470744041755
 30
0.0
 10
1234.854149243497
 20
213.1932449860082
 30
0.0
 10
1234.539660338362
 20
213.1571692113186
 30
0.0
 10
1234.382415885795
 20
213.1391313239738
 30
0.0
  0
SPLINE
  5
B6
330
1F
100
AcDbEntity
  8
0
  6
Continuous
 62
     7
370
    25
100
AcDbSpline
210
0.0
220
0.0
230
1.0
 70
     8
 71
     3
 72
    11
 73
     7
 74
     0
 42
0.00000001
 43
0.00000001
 40
0.0
 40
0.0
 40
0.0
 40
0.0
 40
0.2500000000000072
 40
0.4999999999999983
 40
0.7500000000000189
 40
1.0
 40
1.0
 40
1.0
 40
1.0
 10
1234.38241588579
 20
809.5391313239699
 30
0.0
 10
1234.539660338358
 20
809.521093436625
 30
0.0
 10
1234.854149243492
 20
809.4850176619356
 30
0.0
 10
1235.250803168008
 20
809.2075186061899
 30
0.0
 10
1235.528302223755
 20
808.8108646816752
 30
0.0
 10
1235.564377998445
 20
808.4963757765406
 30
0.0
 10
1235.58241588579
 20
808.3391313239736
 30
0.0
  0
SPLINE
  5
B7
330
1F
100
AcDbEntity
  8
0
  6
Continuous
 62
     7
370
    25
100
AcDbSpline
210
0.0
220
0.0
230
1.0
 70
     8
 71
     3
 72
    11
 73
     7
 74
     0
 42
0.00000001
 43
0.00000001
 40
0.0
 40
0.0
 40
0.0
 40
0.0
 40
0.2500000000000143
 40
0.4999999999999978
 40
0.7500000000000213
 40
1.0
 40
1.0
 40
1.0
 40
1.0
 10
1234.38241588579
 20
809.0391313239697
 30
0.0
 10
1234.474141816455
 20
809.0286092230187
 30
0.0
 10
1234.657593677783
 20
809.0075650211166
 30
0.0
 10
1234.888975133751
 20
808.8456905719316
 30
0.0
 10
1235.050849582937
 20
808.6143091159646
 30
0.0
 10
1235.071893784839
 20
808.4308572546362
 30
0.0
 10
1235.08241588579
 20
808.3391313239721
 30
0.0
  0
LINE
  5
B8
330
1F
100
AcDbEntity
  8
0
  6
Continuous
 62
     7
370
    25
100
AcDbLine
 10
39.1824158858
 20
214.339131324
 30
0.0
 11
39.6824158858
 21
214.339131324
 31
0.0
  0
LINE
  5
B9
330
1F
100
AcDbEntity
  8
0
  6
Continuous
 62
     7
370
    25
100
AcDbLine
 10
39.1824158858
 20
808.339131324
 30
0.0
 11
39.1824158858
 21
214.339131324
 31
0.0
  0
LINE
  5
BA
330
1F
100
AcDbEntity
  8
0
  6
Continuous
 62
     7
370
    25
100
AcDbLine
 10
39.1824158858
 20
808.339131324
 30
0.0
 11
39.6824158858
 21
808.339131324
 31
0.0
  0
LINE
  5
BB
330
1F
100
AcDbEntity
  8
0
  6
Continuous
 62
     7
370
    25
100
AcDbLine
 10
39.6824158858
 20
808.339131324
 30
0.0
 11
39.6824158858
 21
808.0391313239
 31
0.0
  0
LINE
  5
BC
330
1F
100
AcDbEntity
  8
0
  6
Continuous
 62
     7
370
    25
100
AcDbLine
 10
39.6824158858
 20
215.039131324
 30
0.0
 11
39.6824158858
 21
214.339131324
 31
0.0
  0
LINE
  5
BD
330
1F
100
AcDbEntity
  8
0
  6
Continuous
 62
     7
370
    25
100
AcDbLine
 10
1234.3824158858
 20
808.9320749544
 30
0.0
 11
1234.3824158858
 21
808.8094981072
 31
0.0
  0
SPLINE
  5
BE
330
1F
100
AcDbEntity
  8
0
  6
Continuous
 62
     7
370
    25
100
AcDbSpline
210
0.0
220
0.0
230
1.0
 70
     8
 71
     3
 72
    10
 73
     6
 74
     0
 42
0.00000001
 43
0.00000001
 40
0.0
 40
0.0
 40
0.0
 40
0.0
 40
0.4549699695763763
 40
0.8492068353553595
 40
1.0
 40
1.0
 40
1.0
 40
1.0
 10
1234.382415885791
 20
808.8094981071758
 30
0.0
 10
1234.295984246471
 20
808.8050407129634
 30
0.0
 10
1234.134658568273
 20
808.7967209338875
 30
0.0
 10
1233.955126382138
 20
808.7345676315167
 30
0.0
 10
1233.880202468168
 20
808.6711422753616
 30
0.0
 10
1233.859473309287
 20
808.6535944162722
 30
0.0
  0
SPLINE
  5
BF
330
1F
100
AcDbEntity
  8
0
  6
Continuous
 62
     7
370
    25
100
AcDbSpline
210
0.0
220
0.0
230
1.0
 70
     8
 71
     3
 72
     9
 73
     5
 74
     0
 42
0.00000001
 43
0.00000001
 40
0.0
 40
0.0
 40
0.0
 40
0.0
 40
0.7170969369694754
 40
1.0
 40
1.0
 40
1.0
 40
1.0
 10
40.88241588579145
 20
808.3391313239648
 30
0.0
 10
40.87018736043279
 20
808.3913506418181
 30
0.0
 10
40.8531345399169
 20
808.4641710865324
 30
0.0
 10
40.81088285676137
 20
808.5226012513527
 30
0.0
 10
40.79892972617849
 20
808.5391313239538
 30
0.0
  0
LINE
  5
C0
330
1F
100
AcDbEntity
  8
0
  6
Continuous
 62
     7
370
    25
100
AcDbLine
 10
39.9682730429
 20
214.339131324
 30
0.0
 11
39.6824158858
 21
214.339131324
 31
0.0
  0
LINE
  5
C1
330
1F
100
AcDbEntity
  8
0
  6
Continuous
 62
     7
370
    25
100
AcDbLine
 10
39.6824158858
 20
808.339131324
 30
0.0
 11
40.0307700776
 21
808.339131324
 31
0.0
  0
SPLINE
  5
C2
330
1F
100
AcDbEntity
  8
0
  6
Continuous
 62
     7
370
    25
100
AcDbSpline
210
0.0
220
0.0
230
1.0
 70
     8
 71
     3
 72
    12
 73
     8
 74
     0
 42
0.00000001
 43
0.00000001
 40
0.0
 40
0.0
 40
0.0
 40
0.0
 40
0.358803791175165
 40
0.5752394285409071
 40
0.6544863258714324
 40
0.7503396587645367
 40
1.0
 40
1.0
 40
1.0
 40
1.0
 10
40.03077007756883
 20
808.3391313239794
 30
0.0
 10
40.0442589132205
 20
808.2605194332166
 30
0.0
 10
40.06588440967007
 20
808.1344877127301
 30
0.0
 10
40.11263005336707
 20
807.9906958106826
 30
0.0
 10
40.17519689082904
 20
807.9310122276142
 30
0.0
 10
40.25455188299665
 20
807.8816292789244
 30
0.0
 10
40.32878019312758
 20
807.8569581337097
 30
0.0
 10
40.38241588579127
 20
807.8391313239648
 30
0.0
  0
SPLINE
  5
C3
330
1F
100
AcDbEntity
  8
0
  6
Continuous
 62
     7
370
    25
100
AcDbSpline
210
0.0
220
0.0
230
1.0
 70
     8
 71
     3
 72
    10
 73
     6
 74
     0
 42
0.00000001
 43
0.00000001
 40
0.0
 40
0.0
 40
0.0
 40
0.0
 40
0.0066186050908077
 40
0.4423790141931202
 40
1.0
 40
1.0
 40
1.0
 40
1.0
 10
1233.858920817445
 20
214.0325736177843
 30
0.0
 10
1233.859848052695
 20
214.0318139984134
 30
0.0
 10
1233.921823258976
 20
213.9810420209558
 30
0.0
 10
1234.100619407478
 20
213.9203197579375
 30
0.0
 10
1234.281103578355
 20
213.8872998256795
 30
0.0
 10
1234.382415885795
 20
213.8687645407715
 30
0.0
  0
LINE
  5
C4
330
1F
100
AcDbEntity
  8
0
  6
Continuous
 62
     7
370
    25
100
AcDbLine
 10
40.3824158858
 20
213.7461876936
 30
0.0
 11
40.3824158858
 21
213.9874855157
 31
0.0
  0
SPLINE
  5
C5
330
1F
100
AcDbEntity
  8
0
  6
Continuous
 62
     7
370
    25
100
AcDbSpline
210
0.0
220
0.0
230
1.0
 70
     8
 71
     3
 72
     9
 73
     5
 74
     0
 42
0.00000001
 43
0.00000001
 40
0.0
 40
0.0
 40
0.0
 40
0.0
 40
0.8939028387698285
 40
1.0
 40
1.0
 40
1.0
 40
1.0
 10
40.38241588579561
 20
213.9874855157424
 30
0.0
 10
40.46364025461435
 20
213.9964232546913
 30
0.0
 10
40.55450512862058
 20
214.0064218122092
 30
0.0
 10
40.63573187632996
 20
214.042982035681
 30
0.0
 10
40.64434980367781
 20
214.0468609716052
 30
0.0
  0
LINE
  5
C6
330
1F
100
AcDbEntity
  8
0
  6
Continuous
 62
     7
370
    25
100
AcDbLine
 10
1234.3824158858
 20
213.8687645408
 30
0.0
 11
1234.3824158858
 21
213.7461876936
 31
0.0
  0
LINE
  5
C7
330
1F
100
AcDbEntity
  8
0
  6
Continuous
 62
     7
370
    25
100
AcDbLine
 10
1234.0824158858
 20
214.971586856
 30
0.0
 11
1234.1140143818
 21
214.9856300731
 31
0.0
  0
ARC
  5
C8
330
1F
100
AcDbEntity
  8
0
  6
Continuous
 62
     7
370
    25
100
AcDbCircle
 10
1234.3824158858
 20
808.339131324
 30
0.0
 40
0.7000000000000928
100
AcDbArc
 50
216.9977790924
 51
247.4536480582
  0
ARC
  5
C9
330
1F
100
AcDbEntity
  8
0
  6
Continuous
 62
     7
370
    25
100
AcDbCircle
 10
40.3824158858
 20
808.339131324
 30
0.0
 40
0.5000000000000568
100
AcDbArc
 50
270.0
 51
0.0
  0
ARC
  5
CA
330
1F
100
AcDbEntity
  8
0
  6
Continuous
 62
     7
370
    25
100
AcDbCircle
 10
40.3824158858
 20
214.339131324
 30
0.0
 40
0.5000000000000586
100
AcDbArc
 50
23.5781784769
 51
90.0
  0
LINE
  5
CB
330
1F
100
AcDbEntity
  8
0
  6
Continuous
 62
     7
370
    25
100
AcDbLine
 10
39.6824158858
 20
807.6731059202
 30
0.0
 11
39.6824158858
 21
215.4051567277
 31
0.0
  0
SPLINE
  5
CC
330
1F
100
AcDbEntity
  8
0
  6
Continuous
 62
     7
370
    25
100
AcDbSpline
210
0.0
220
0.0
230
1.0
 70
     8
 71
     3
 72
     9
 73
     5
 74
     0
 42
0.00000001
 43
0.00000001
 40
0.0
 40
0.0
 40
0.0
 40
0.0
 40
0.5000000000000384
 40
1.0
 40
1.0
 40
1.0
 40
1.0
 10
39.89652862501825
 20
807.5391313239539
 30
0.0
 10
39.83483651051789
 20
807.5614604233232
 30
0.0
 10
39.71145228151729
 20
807.6061186220618
 30
0.0
 10
39.69209468436941
 20
807.6507768208003
 30
0.0
 10
39.68241588579524
 20
807.6731059201695
 30
0.0
  0
LINE
  5
CD
330
1F
100
AcDbEntity
  8
0
  6
Continuous
 62
     7
370
    25
100
AcDbLine
 10
40.6824158858
 20
807.539131324
 30
0.0
 11
39.896528625
 21
807.539131324
 31
0.0
  0
LINE
  5
CE
330
1F
100
AcDbEntity
  8
0
  6
Continuous
 62
     7
370
    25
100
AcDbLine
 10
40.6824158858
 20
807.539131324
 30
0.0
 11
40.6824158858
 21
215.539131324
 31
0.0
  0
SPLINE
  5
CF
330
1F
100
AcDbEntity
  8
0
  6
Continuous
 62
     7
370
    25
100
AcDbSpline
210
0.0
220
0.0
230
1.0
 70
     8
 71
     3
 72
     9
 73
     5
 74
     0
 42
0.00000001
 43
0.00000001
 40
0.0
 40
0.0
 40
0.0
 40
0.0
 40
0.5000000000000063
 40
1.0
 40
1.0
 40
1.0
 40
1.0
 10
39.68241588579946
 20
215.4051567277384
 30
0.0
 10
39.69209468437362
 20
215.4274858271078
 30
0.0
 10
39.71145228152151
 20
215.4721440258463
 30
0.0
 10
39.83483651052211
 20
215.5168022245848
 30
0.0
 10
39.89652862502236
 20
215.5391313239541
 30
0.0
  0
LINE
  5
D0
330
1F
100
AcDbEntity
  8
0
  6
Continuous
 62
     7
370
    25
100
AcDbLine
 10
39.896528625
 20
215.539131324
 30
0.0
 11
40.6824158858
 21
215.539131324
 31
0.0
  0
ARC
  5
D1
330
1F
100
AcDbEntity
  8
0
  6
Continuous
 62
     7
370
    25
100
AcDbCircle
 10
41.6205826355
 20
806.539131324
 30
0.0
 40
0.9999999999999027
100
AcDbArc
 50
48.0127875042
 51
90.0
  0
LINE
  5
D2
330
1F
100
AcDbEntity
  8
0
  6
Continuous
 62
     7
370
    25
100
AcDbLine
 10
42.2895473671
 20
807.2824254702
 30
0.0
 11
52.0043186407
 21
798.539131324
 31
0.0
  0
LINE
  5
D3
330
1F
100
AcDbEntity
  8
0
  6
Continuous
 62
     7
370
    25
100
AcDbLine
 10
52.0043186407
 20
798.539131324
 30
0.0
 11
52.0043186407
 21
224.539131324
 31
0.0
  0
LINE
  5
D4
330
1F
100
AcDbEntity
  8
0
  6
Continuous
 62
     7
370
    25
100
AcDbLine
 10
52.0043186407
 20
224.539131324
 30
0.0
 11
42.2895473671
 21
215.7958371777
 31
0.0
  0
ARC
  5
D5
330
1F
100
AcDbEntity
  8
0
  6
Continuous
 62
     7
370
    25
100
AcDbCircle
 10
41.6205826355
 20
216.539131324
 30
0.0
 40
0.9999999999999994
100
AcDbArc
 50
270.0
 51
311.9872124958
  0
LINE
  5
D6
330
1F
100
AcDbEntity
  8
0
  6
Continuous
 62
     7
370
    25
100
AcDbLine
 10
41.6205826355
 20
215.539131324
 30
0.0
 11
40.6824158858
 21
215.539131324
 31
0.0
  0
LINE
  5
D7
330
1F
100
AcDbEntity
  8
0
  6
Continuous
 62
     7
370
    25
100
AcDbLine
 10
40.6824158858
 20
807.539131324
 30
0.0
 11
41.6205826355
 21
807.539131324
 31
0.0
  0
SPLINE
  5
D8
330
1F
100
AcDbEntity
  8
0
  6
Continuous
 62
     7
370
    25
100
AcDbSpline
210
0.0
220
0.0
230
1.0
 70
     8
 71
     3
 72
     9
 73
     5
 74
     0
 42
0.00000001
 43
0.00000001
 40
0.0
 40
0.0
 40
0.0
 40
0.0
 40
0.5000000000000808
 40
1.0
 40
1.0
 40
1.0
 40
1.0
 10
40.18241588579941
 20
215.4051567277384
 30
0.0
 10
40.18725528508649
 20
215.4274858271077
 30
0.0
 10
40.19693408366054
 20
215.4721440258462
 30
0.0
 10
40.25862619816078
 20
215.5168022245848
 30
0.0
 10
40.28947225541091
 20
215.5391313239541
 30
0.0
  0
LINE
  5
D9
330
1F
100
AcDbEntity
  8
0
  6
Continuous
 62
     7
370
    25
100
AcDbLine
 10
40.1824158858
 20
215.4051567277
 30
0.0
 11
39.6824158858
 21
215.4051567277
 31
0.0
  0
LINE
  5
DA
330
1F
100
AcDbEntity
  8
0
  6
Continuous
 62
     7
370
    25
100
AcDbLine
 10
39.6824158858
 20
807.6731059202
 30
0.0
 11
40.1824158858
 21
807.6731059202
 31
0.0
  0
SPLINE
  5
DB
330
1F
100
AcDbEntity
  8
0
  6
Continuous
 62
     7
370
    25
100
AcDbSpline
210
0.0
220
0.0
230
1.0
 70
     8
 71
     3
 72
     9
 73
     5
 74
     0
 42
0.00000001
 43
0.00000001
 40
0.0
 40
0.0
 40
0.0
 40
0.0
 40
0.499999999999993
 40
0.9999999999999999
 40
0.9999999999999999
 40
0.9999999999999999
 40
0.9999999999999999
 10
40.28947225540669
 20
807.5391313239539
 30
0.0
 10
40.25862619815656
 20
807.5614604233232
 30
0.0
 10
40.19693408365643
 20
807.6061186220618
 30
0.0
 10
40.18725528508238
 20
807.6507768208003
 30
0.0
 10
40.18241588579519
 20
807.6731059201695
 30
0.0
  0
LINE
  5
DC
330
1F
100
AcDbEntity
  8
0
  6
Continuous
 62
     7
370
    25
100
AcDbLine
 10
39.6824158858
 20
215.039131324
 30
0.0
 11
40.1824158858
 21
215.039131324
 31
0.0
  0
LINE
  5
DD
330
1F
100
AcDbEntity
  8
0
  6
Continuous
 62
     7
370
    25
100
AcDbLine
 10
39.6824158858
 20
215.4051567277
 30
0.0
 11
39.6824158858
 21
215.039131324
 31
0.0
  0
LINE
  5
DE
330
1F
100
AcDbEntity
  8
0
  6
Continuous
 62
     7
370
    25
100
AcDbLine
 10
40.1824158858
 20
215.4051567277
 30
0.0
 11
40.1824158858
 21
215.039131324
 31
0.0
  0
LINE
  5
DF
330
1F
100
AcDbEntity
  8
0
  6
Continuous
 62
     7
370
    25
100
AcDbLine
 10
40.1824158858
 20
808.039131324
 30
0.0
 11
39.6824158858
 21
808.039131324
 31
0.0
  0
LINE
  5
E0
330
1F
100
AcDbEntity
  8
0
  6
Continuous
 62
     7
370
    25
100
AcDbLine
 10
39.6824158858
 20
808.039131324
 30
0.0
 11
39.6824158858
 21
807.6731059202
 31
0.0
  0
LINE
  5
E1
330
1F
100
AcDbEntity
  8
0
  6
Continuous
 62
     7
370
    25
100
AcDbLine
 10
40.1824158858
 20
808.039131324
 30
0.0
 11
40.1824158858
 21
807.6731059202
 31
0.0
  0
SPLINE
  5
E2
330
1F
100
AcDbEntity
  8
0
  6
Continuous
 62
     7
370
    25
100
AcDbSpline
210
0.0
220
0.0
230
1.0
 70
     8
 71
     3
 72
     9
 73
     5
 74
     0
 42
0.00000001
 43
0.00000001
 40
0.0
 40
0.0
 40
0.0
 40
0.0
 40
0.4999999999999615
 40
1.0
 40
1.0
 40
1.0
 40
1.0
 10
39.89652862502246
 20
214.4207615208844
 30
0.0
 10
39.83483651052222
 20
214.5148182570987
 30
0.0
 10
39.71145228152162
 20
214.7029317295272
 30
0.0
 10
39.6920946843734
 20
214.9270647924783
 30
0.0
 10
39.68241588579946
 20
215.039131323954
 30
0.0
  0
SPLINE
  5
E3
330
1F
100
AcDbEntity
  8
0
  6
Continuous
 62
     7
370
    25
100
AcDbSpline
210
0.0
220
0.0
230
1.0
 70
     8
 71
     3
 72
     9
 73
     5
 74
     0
 42
0.00000001
 43
0.00000001
 40
0.0
 40
0.0
 40
0.0
 40
0.0
 40
0.49999999999991
 40
1.0
 40
1.0
 40
1.0
 40
1.0
 10
40.28947225541102
 20
214.7299464224191
 30
0.0
 10
40.2586261981609
 20
214.7769747905263
 30
0.0
 10
40.19693408366054
 20
214.8710315267406
 30
0.0
 10
40.18725528508638
 20
214.9830980582162
 30
0.0
 10
40.18241588579941
 20
215.039131323954
 30
0.0
  0
LINE
  5
E4
330
1F
100
AcDbEntity
  8
0
  6
Continuous
 62
     7
370
    25
100
AcDbLine
 10
40.2894722554
 20
214.7299464224
 30
0.0
 11
39.896528625
 21
214.4207615209
 31
0.0
  0
SPLINE
  5
E5
330
1F
100
AcDbEntity
  8
0
  6
Continuous
 62
     7
370
    25
100
AcDbSpline
210
0.0
220
0.0
230
1.0
 70
     8
 71
     3
 72
     9
 73
     5
 74
     0
 42
0.00000001
 43
0.00000001
 40
0.0
 40
0.0
 40
0.0
 40
0.0
 40
0.5000000000000429
 40
0.9999999999999999
 40
0.9999999999999999
 40
0.9999999999999999
 40
0.9999999999999999
 10
39.68241588579524
 20
808.0391313239539
 30
0.0
 10
39.69209468436929
 20
808.1511978554295
 30
0.0
 10
39.71145228151751
 20
808.3753309183805
 30
0.0
 10
39.834836510518
 20
808.5634443908093
 30
0.0
 10
39.89652862501825
 20
808.6575011270236
 30
0.0
  0
LINE
  5
E6
330
1F
100
AcDbEntity
  8
0
  6
Continuous
 62
     7
370
    25
100
AcDbLine
 10
40.2894722554
 20
808.3483162255
 30
0.0
 11
39.896528625
 21
808.657501127
 31
0.0
  0
SPLINE
  5
E7
330
1F
100
AcDbEntity
  8
0
  6
Continuous
 62
     7
370
    25
100
AcDbSpline
210
0.0
220
0.0
230
1.0
 70
     8
 71
     3
 72
     9
 73
     5
 74
     0
 42
0.00000001
 43
0.00000001
 40
0.0
 40
0.0
 40
0.0
 40
0.0
 40
0.5000000000000828
 40
1.0
 40
1.0
 40
1.0
 40
1.0
 10
40.18241588579519
 20
808.0391313239539
 30
0.0
 10
40.18725528508227
 20
808.0951645896916
 30
0.0
 10
40.19693408365632
 20
808.2072311211673
 30
0.0
 10
40.25862619815668
 20
808.3012878573817
 30
0.0
 10
40.2894722554068
 20
808.3483162254887
 30
0.0
  0
LINE
  5
E8
330
1F
100
AcDbEntity
  8
0
  6
Continuous
 62
     7
370
    25
100
AcDbLine
 10
40.6824158858
 20
214.039131324
 30
0.0
 11
40.6824158858
 21
214.539131324
 31
0.0
  0
ARC
  5
E9
330
1F
100
AcDbEntity
  8
0
  6
Continuous
 62
     7
370
    25
100
AcDbCircle
 10
40.6824158858
 20
215.039131324
 30
0.0
 40
1.00000000000003
100
AcDbArc
 50
218.1971863421
 51
270.0
  0
ARC
  5
EA
330
1F
100
AcDbEntity
  8
0
  6
Continuous
 62
     7
370
    25
100
AcDbCircle
 10
40.6824158858
 20
215.039131324
 30
0.0
 40
0.5
100
AcDbArc
 50
218.1971863421
 51
270.0
  0
ARC
  5
EB
330
1F
100
AcDbEntity
  8
0
  6
Continuous
 62
     7
370
    25
100
AcDbCircle
 10
40.6824158858
 20
808.039131324
 30
0.0
 40
0.9999999999999776
100
AcDbArc
 50
107.457603124
 51
141.802813658
  0
ARC
  5
EC
330
1F
100
AcDbEntity
  8
0
  6
Continuous
 62
     7
370
    25
100
AcDbCircle
 10
40.6824158858
 20
808.039131324
 30
0.0
 40
0.4999999999999117
100
AcDbArc
 50
90.0
 51
141.802813658
  0
LINE
  5
ED
330
1F
100
AcDbEntity
  8
0
  6
Continuous
 62
     7
370
    25
100
AcDbLine
 10
40.6824158858
 20
214.539131324
 30
0.0
 11
40.9804247263
 21
214.539131324
 31
0.0
  0
LINE
  5
EE
330
1F
100
AcDbEntity
  8
0
  6
Continuous
 62
     7
370
    25
100
AcDbLine
 10
40.6824158858
 20
214.039131324
 30
0.0
 11
41.0043186407
 21
214.039131324
 31
0.0
  0
LINE
  5
EF
330
1F
100
AcDbEntity
  8
0
  6
Continuous
 62
     7
370
    25
100
AcDbLine
 10
40.9440610899
 20
808.539131324
 30
0.0
 11
40.6824158858
 21
808.539131324
 31
0.0
  0
LINE
  5
F0
330
1F
100
AcDbEntity
  8
0
  6
Continuous
 62
     8
370
    25
100
AcDbLine
 10
40.9622429081
 20
808.339131324
 30
0.0
 11
40.8824158858
 21
808.339131324
 31
0.0
  0
LINE
  5
F1
330
1F
100
AcDbEntity
  8
0
  6
Continuous
 62
     8
370
    25
100
AcDbLine
 10
40.3824158858
 20
214.839131324
 30
0.0
 11
40.3824158858
 21
215.539131324
 31
0.0
  0
LINE
  5
F2
330
1F
100
AcDbEntity
  8
0
  6
Continuous
 62
     8
370
    25
100
AcDbLine
 10
40.3824158858
 20
807.539131324
 30
0.0
 11
40.3824158858
 21
807.839131324
 31
0.0
  0
LINE
  5
F3
330
1F
100
AcDbEntity
  8
0
  6
Continuous
 62
     8
370
    25
100
AcDbLine
 10
40.6824158858
 20
808.539131324
 30
0.0
 11
40.6824158858
 21
808.9320749544
 31
0.0
  0
LINE
  5
F4
330
1F
100
AcDbEntity
  8
0
  6
Continuous
 62
     7
370
    25
100
AcDbLine
 10
1214.5376999932
 20
-60.364679831
 30
0.0
 11
1214.0406090585
 21
-62.6206959322
 31
0.0
  0
LINE
  5
F5
330
1F
100
AcDbEntity
  8
0
  6
Continuous
 62
     7
370
    25
100
AcDbLine
 10
1197.220222713
 20
-62.6206959322
 30
0.0
 11
1196.7231317783
 21
-60.364679831
 31
0.0
  0
LINE
  5
F6
330
1F
100
AcDbEntity
  8
0
  6
Continuous
 62
     7
370
    25
100
AcDbLine
 10
1217.7084908425
 20
-62.3702018174
 30
0.0
 11
1217.603288157
 21
-60.3646804395
 31
0.0
  0
LINE
  5
F7
330
1F
100
AcDbEntity
  8
0
  6
Continuous
 62
     7
370
    25
100
AcDbLine
 10
1193.6575436146
 20
-60.3646804395
 30
0.0
 11
1193.552340929
 21
-62.3702018174
 31
0.0
  0
LINE
  5
F8
330
1F
100
AcDbEntity
  8
0
  6
Continuous
 62
     7
370
    25
100
AcDbLine
 10
1198.1304158858
 20
-61.1206959322
 30
0.0
 11
1198.1304158858
 21
-62.6206959322
 31
0.0
  0
LINE
  5
F9
330
1F
100
AcDbEntity
  8
0
  6
Continuous
 62
     7
370
    25
100
AcDbLine
 10
1213.1304158858
 20
-62.6206959322
 30
0.0
 11
1213.1304158858
 21
-61.1206959322
 31
0.0
  0
CIRCLE
  5
FA
330
1F
100
AcDbEntity
  8
0
  6
Continuous
 62
     7
370
    25
100
AcDbCircle
 10
46.3824158858
 20
-89.3284394217
 30
0.0
 40
3.120000000000012
  0
CIRCLE
  5
FB
330
1F
100
AcDbEntity
  8
0
  6
Continuous
 62
     7
370
    25
100
AcDbCircle
 10
46.3824158858
 20
-89.3284394217
 30
0.0
 40
0.924999999999983
  0
SPLINE
  5
FC
330
1F
100
AcDbEntity
  8
0
  6
Continuous
 62
     7
370
    25
100
AcDbSpline
210
0.0
220
0.0
230
1.0
 70
     8
 71
     3
 72
     9
 73
     5
 74
     0
 42
0.00000001
 43
0.00000001
 40
0.0
 40
0.0
 40
0.0
 40
0.0
 40
0.5599999999998849
 40
1.0
 40
1.0
 40
1.0
 40
1.0
 10
1215.870067210572
 20
-59.1692867239965
 30
0.0
 10
1215.802737982445
 20
-59.17271736597149
 30
0.0
 10
1215.682507217933
 20
-59.1788435123554
 30
0.0
 10
1215.56838446185
 20
-59.21662425806597
 30
0.0
 10
1215.518170449173
 20
-59.23324778617861
 30
0.0
  0
SPLINE
  5
FD
330
1F
100
AcDbEntity
  8
0
  6
Continuous
 62
     7
370
    25
100
AcDbSpline
210
0.0
220
0.0
230
1.0
 70
    24
 71
     3
 72
    11
 73
     7
 74
     0
 42
0.00000001
 43
0.00000001
 40
0.0
 40
0.0
 40
0.0
 40
0.0
 40
0.2702613318128875
 40
0.5624293896420948
 40
0.7897364218595342
 40
0.9999999999999999
 40
0.9999999999999999
 40
0.9999999999999999
 40
0.9999999999999999
 10
1215.870067210572
 20
-59.1692867239965
 30
0.0
 10
1215.870067210572
 20
-59.18664202159457
 30
0.0
 10
1215.870067210572
 20
-59.22275939498891
 30
0.0
 10
1215.870067210572
 20
-59.49260897337085
 30
0.0
 10
1215.870067210572
 20
-59.8286348380088
 30
0.0
 10
1215.870067210572
 20
-60.05741628417966
 30
0.0
 10
1215.870067210572
 20
-60.16735146799991
 30
0.0
  0
SPLINE
  5
FE
330
1F
100
AcDbEntity
  8
0
  6
Continuous
 62
     7
370
    25
100
AcDbSpline
210
0.0
220
0.0
230
1.0
 70
     8
 71
     3
 72
    11
 73
     7
 74
     0
 42
0.00000001
 43
0.00000001
 40
0.0
 40
0.0
 40
0.0
 40
0.0
 40
0.2702613318128937
 40
0.5624293896420935
 40
0.7897364218595324
 40
1.0
 40
1.0
 40
1.0
 40
1.0
 10
1215.870067210572
 20
-60.1673514679999
 30
0.0
 10
1215.820201465185
 20
-60.03474384802936
 30
0.0
 10
1215.716427978413
 20
-59.75877975704516
 30
0.0
 10
1215.598393968034
 20
-59.44533505742336
 30
0.0
 10
1215.529694125554
 20
-59.26324549904481
 30
0.0
 10
1215.521910618297
 20
-59.24298396027262
 30
0.0
 10
1215.518170449173
 20
-59.23324778617862
 30
0.0
  0
SPLINE
  5
FF
330
1F
100
AcDbEntity
  8
0
  6
Continuous
 62
     7
370
    25
100
AcDbSpline
210
0.0
220
0.0
230
1.0
 70
    24
 71
     3
 72
    11
 73
     7
 74
     0
 42
0.00000001
 43
0.00000001
 40
0.0
 40
0.0
 40
0.0
 40
0.0
 40
0.2702613318128875
 40
0.5624293896420948
 40
0.7897364218595342
 40
0.9999999999999999
 40
0.9999999999999999
 40
0.9999999999999999
 40
0.9999999999999999
 10
1195.390764560995
 20
-59.1692867239965
 30
0.0
 10
1195.390764560995
 20
-59.18664202159457
 30
0.0
 10
1195.390764560995
 20
-59.22275939498891
 30
0.0
 10
1195.390764560996
 20
-59.49260897337085
 30
0.0
 10
1195.390764560995
 20
-59.8286348380088
 30
0.0
 10
1195.390764560995
 20
-60.05741628417966
 30
0.0
 10
1195.390764560995
 20
-60.16735146799991
 30
0.0
  0
SPLINE
  5
100
330
1F
100
AcDbEntity
  8
0
  6
Continuous
 62
     7
370
    25
100
AcDbSpline
210
0.0
220
0.0
230
1.0
 70
     8
 71
     3
 72
     9
 73
     5
 74
     0
 42
0.00000001
 43
0.00000001
 40
0.0
 40
0.0
 40
0.0
 40
0.0
 40
0.5599999999998849
 40
1.0
 40
1.0
 40
1.0
 40
1.0
 10
1195.390764560995
 20
-59.1692867239965
 30
0.0
 10
1195.458093789122
 20
-59.17271736597149
 30
0.0
 10
1195.578324553634
 20
-59.1788435123554
 30
0.0
 10
1195.692447309717
 20
-59.21662425806597
 30
0.0
 10
1195.742661322394
 20
-59.23324778617861
 30
0.0
  0
SPLINE
  5
101
330
1F
100
AcDbEntity
  8
0
  6
Continuous
 62
     7
370
    25
100
AcDbSpline
210
0.0
220
0.0
230
1.0
 70
     8
 71
     3
 72
    11
 73
     7
 74
     0
 42
0.00000001
 43
0.00000001
 40
0.0
 40
0.0
 40
0.0
 40
0.0
 40
0.270261331812898
 40
0.5624293896421023
 40
0.7897364218595292
 40
1.0
 40
1.0
 40
1.0
 40
1.0
 10
1195.390764560995
 20
-60.1673514679999
 30
0.0
 10
1195.440630306382
 20
-60.03474384802936
 30
0.0
 10
1195.544403793155
 20
-59.75877975704517
 30
0.0
 10
1195.662437803533
 20
-59.44533505742336
 30
0.0
 10
1195.731137646013
 20
-59.2632454990448
 30
0.0
 10
1195.73892115327
 20
-59.24298396027264
 30
0.0
 10
1195.742661322394
 20
-59.23324778617862
 30
0.0
  0
SPLINE
  5
102
330
1F
100
AcDbEntity
  8
0
  6
Continuous
 62
     7
370
    25
100
AcDbSpline
210
0.0
220
0.0
230
1.0
 70
     8
 71
     3
 72
     9
 73
     5
 74
     0
 42
0.00000001
 43
0.00000001
 40
0.0
 40
0.0
 40
0.0
 40
0.0
 40
0.5600000000000545
 40
1.0
 40
1.0
 40
1.0
 40
1.0
 10
1216.622817617572
 20
-59.23324778617861
 30
0.0
 10
1216.558587612385
 20
-59.21276610719556
 30
0.0
 10
1216.443891174549
 20
-59.17619168044011
 30
0.0
 10
1216.3237728979
 20
-59.17139657179872
 30
0.0
 10
1216.270920856174
 20
-59.1692867239965
 30
0.0
  0
SPLINE
  5
103
330
1F
100
AcDbEntity
  8
0
  6
Continuous
 62
     7
370
    25
100
AcDbSpline
210
0.0
220
0.0
230
1.0
 70
     8
 71
     3
 72
    11
 73
     7
 74
     0
 42
0.00000001
 43
0.00000001
 40
0.0
 40
0.0
 40
0.0
 40
0.0
 40
0.2702613318128945
 40
0.5624293896421068
 40
0.7897364218595513
 40
1.0
 40
1.0
 40
1.0
 40
1.0
 10
1216.622817617572
 20
-59.23324778617861
 30
0.0
 10
1216.616613923176
 20
-59.24947549487393
 30
0.0
 10
1216.603703678009
 20
-59.2832462908497
 30
0.0
 10
1216.508516101985
 20
-59.5357944924164
 30
0.0
 10
1216.39013664384
 20
-59.85030360352299
 30
0.0
 10
1216.309613994836
 20
-60.06444918280062
 30
0.0
 10
1216.270920856174
 20
-60.1673514679999
 30
0.0
  0
SPLINE
  5
104
330
1F
100
AcDbEntity
  8
0
  6
Continuous
 62
     7
370
    25
100
AcDbSpline
210
0.0
220
0.0
230
1.0
 70
    24
 71
     3
 72
    11
 73
     7
 74
     0
 42
0.00000001
 43
0.00000001
 40
0.0
 40
0.0
 40
0.0
 40
0.0
 40
0.2702613318128802
 40
0.5624293896420838
 40
0.7897364218595343
 40
1.0
 40
1.0
 40
1.0
 40
1.0
 10
1216.270920856174
 20
-60.1673514679999
 30
0.0
 10
1216.270920856174
 20
-60.02568020666831
 30
0.0
 10
1216.270920856174
 20
-59.73085415624494
 30
0.0
 10
1216.270920856174
 20
-59.39595549197894
 30
0.0
 10
1216.270920856175
 20
-59.20137899032966
 30
0.0
 10
1216.270920856175
 20
-59.17970271449167
 30
0.0
 10
1216.270920856175
 20
-59.1692867239965
 30
0.0
  0
SPLINE
  5
105
330
1F
100
AcDbEntity
  8
0
  6
Continuous
 62
     7
370
    25
100
AcDbSpline
210
0.0
220
0.0
230
1.0
 70
     8
 71
     3
 72
    11
 73
     7
 74
     0
 42
0.00000001
 43
0.00000001
 40
0.0
 40
0.0
 40
0.0
 40
0.0
 40
0.270261331812892
 40
0.5624293896420862
 40
0.7897364218595286
 40
1.0
 40
1.0
 40
1.0
 40
1.0
 10
1194.638014153994
 20
-59.23324778617861
 30
0.0
 10
1194.644217848391
 20
-59.24947549487391
 30
0.0
 10
1194.657128093558
 20
-59.28324629084968
 30
0.0
 10
1194.752315669582
 20
-59.53579449241644
 30
0.0
 10
1194.870695127727
 20
-59.85030360352299
 30
0.0
 10
1194.951217776731
 20
-60.06444918280062
 30
0.0
 10
1194.989910915393
 20
-60.16735146799991
 30
0.0
  0
SPLINE
  5
106
330
1F
100
AcDbEntity
  8
0
  6
Continuous
 62
     7
370
    25
100
AcDbSpline
210
0.0
220
0.0
230
1.0
 70
     8
 71
     3
 72
     9
 73
     5
 74
     0
 42
0.00000001
 43
0.00000001
 40
0.0
 40
0.0
 40
0.0
 40
0.0
 40
0.5600000000000545
 40
1.0
 40
1.0
 40
1.0
 40
1.0
 10
1194.638014153994
 20
-59.23324778617861
 30
0.0
 10
1194.702244159182
 20
-59.21276610719556
 30
0.0
 10
1194.816940597017
 20
-59.17619168044011
 30
0.0
 10
1194.937058873667
 20
-59.17139657179872
 30
0.0
 10
1194.989910915393
 20
-59.1692867239965
 30
0.0
  0
SPLINE
  5
107
330
1F
100
AcDbEntity
  8
0
  6
Continuous
 62
     7
370
    25
100
AcDbSpline
210
0.0
220
0.0
230
1.0
 70
    24
 71
     3
 72
    11
 73
     7
 74
     0
 42
0.00000001
 43
0.00000001
 40
0.0
 40
0.0
 40
0.0
 40
0.0
 40
0.2702613318128802
 40
0.5624293896420838
 40
0.7897364218595343
 40
1.0
 40
1.0
 40
1.0
 40
1.0
 10
1194.989910915393
 20
-60.1673514679999
 30
0.0
 10
1194.989910915393
 20
-60.02568020666831
 30
0.0
 10
1194.989910915393
 20
-59.73085415624494
 30
0.0
 10
1194.989910915392
 20
-59.39595549197894
 30
0.0
 10
1194.989910915393
 20
-59.20137899032966
 30
0.0
 10
1194.989910915393
 20
-59.17970271449167
 30
0.0
 10
1194.989910915393
 20
-59.1692867239965
 30
0.0
  0
LINE
  5
108
330
1F
100
AcDbEntity
  8
0
  6
Continuous
 62
     7
370
    25
100
AcDbLine
 10
1216.6182358665
 20
-60.6952941918
 30
0.0
 11
1216.6195021349
 21
-60.6980509213
 31
0.0
  0
SPLINE
  5
109
330
1F
100
AcDbEntity
  8
0
  6
Continuous
 62
     7
370
    25
100
AcDbSpline
210
0.0
220
0.0
230
1.0
 70
     8
 71
     3
 72
    15
 73
    11
 74
     0
 42
0.00000001
 43
0.00000001
 40
0.0
 40
0.0
 40
0.0
 40
0.0
 40
0.1200542337629148
 40
0.2500000000000169
 40
0.3799457662370507
 40
0.4999999999999759
 40
0.6200542337629011
 40
0.7499999999999917
 40
0.8799457662370587
 40
0.9999999999999999
 40
0.9999999999999999
 40
0.9999999999999999
 40
0.9999999999999999
 10
1215.612569638628
 20
-60.69529419184575
 30
0.0
 10
1215.619554538087
 20
-60.63213108794496
 30
0.0
 10
1215.63409983824
 20
-60.50060073303568
 30
0.0
 10
1215.750777118471
 20
-60.32969691156342
 30
0.0
 10
1215.920487312955
 20
-60.21751184315873
 30
0.0
 10
1216.115402752569
 20
-60.18043266728921
 30
0.0
 10
1216.310318192183
 20
-60.21751184315877
 30
0.0
 10
1216.480028386667
 20
-60.32969691156332
 30
0.0
 10
1216.596705666898
 20
-60.50060073303572
 30
0.0
 10
1216.611250967052
 20
-60.63213108794496
 30
0.0
 10
1216.618235866511
 20
-60.69529419184575
 30
0.0
  0
LINE
  5
10A
330
1F
100
AcDbEntity
  8
0
  6
Continuous
 62
     7
370
    25
100
AcDbLine
 10
1215.6125696386
 20
-62.6206959322
 30
0.0
 11
1215.6125696386
 21
-60.6952941918
 31
0.0
  0
SPLINE
  5
10B
330
1F
100
AcDbEntity
  8
0
  6
Continuous
 62
     7
370
    25
100
AcDbSpline
210
0.0
220
0.0
230
1.0
 70
     8
 71
     3
 72
    10
 73
     6
 74
     0
 42
0.00000001
 43
0.00000001
 40
0.0
 40
0.0
 40
0.0
 40
0.0
 40
0.2768779234291705
 40
0.5624038656203577
 40
1.0
 40
1.0
 40
1.0
 40
1.0
 10
1215.514274697415
 20
-60.57792508398945
 30
0.0
 10
1215.529663376018
 20
-60.52807728022735
 30
0.0
 10
1215.560921383973
 20
-60.42682472393365
 30
0.0
 10
1215.674725572983
 20
-60.27065557105344
 30
0.0
 10
1215.796422509657
 20
-60.2062975926797
 30
0.0
 10
1215.870067210572
 20
-60.1673514679999
 30
0.0
  0
LINE
  5
10C
330
1F
100
AcDbEntity
  8
0
  6
Continuous
 62
     7
370
    25
100
AcDbLine
 10
1215.8700672106
 20
-60.167351468
 30
0.0
 11
1216.2709208562
 21
-60.167351468
 31
0.0
  0
SPLINE
  5
10D
330
1F
100
AcDbEntity
  8
0
  6
Continuous
 62
     7
370
    25
100
AcDbSpline
210
0.0
220
0.0
230
1.0
 70
     8
 71
     3
 72
     9
 73
     5
 74
     0
 42
0.00000001
 43
0.00000001
 40
0.0
 40
0.0
 40
0.0
 40
0.0
 40
0.5599999999999159
 40
1.0
 40
1.0
 40
1.0
 40
1.0
 10
1216.270920856174
 20
-60.1673514679999
 30
0.0
 10
1216.355977126664
 20
-60.2128996419229
 30
0.0
 10
1216.507863323968
 20
-60.2942356667854
 30
0.0
 10
1216.578834677896
 20
-60.44969090655329
 30
0.0
 10
1216.610062073625
 20
-60.51809121205117
 30
0.0
  0
LINE
  5
10E
330
1F
100
AcDbEntity
  8
0
  6
Continuous
 62
     7
370
    25
100
AcDbLine
 10
1216.6100620736
 20
-60.5180912121
 30
0.0
 11
1216.6195021349
 21
-60.6980509213
 31
0.0
  0
SPLINE
  5
10F
330
1F
100
AcDbEntity
  8
0
  6
Continuous
 62
     7
370
    25
100
AcDbSpline
210
0.0
220
0.0
230
1.0
 70
     8
 71
     3
 72
    11
 73
     7
 74
     0
 42
0.00000001
 43
0.00000001
 40
0.0
 40
0.0
 40
0.0
 40
0.0
 40
0.2702613318128876
 40
0.5624293896420623
 40
0.7897364218595418
 40
0.9999999999999999
 40
0.9999999999999999
 40
0.9999999999999999
 40
0.9999999999999999
 10
1214.537699904607
 20
-60.3646806352934
 30
0.0
 10
1214.55491623688
 20
-60.36820009862878
 30
0.0
 10
1214.590744415432
 20
-60.3755243044347
 30
0.0
 10
1214.854906515032
 20
-60.43308110345787
 30
0.0
 10
1215.183430126195
 20
-60.5050903260254
 30
0.0
 10
1215.406894499537
 20
-60.55428555230927
 30
0.0
 10
1215.514274697415
 20
-60.57792508398945
 30
0.0
  0
SPLINE
  5
110
330
1F
100
AcDbEntity
  8
0
  6
Continuous
 62
     7
370
    25
100
AcDbSpline
210
0.0
220
0.0
230
1.0
 70
     8
 71
     3
 72
     9
 73
     5
 74
     0
 42
0.00000001
 43
0.00000001
 40
0.0
 40
0.0
 40
0.0
 40
0.0
 40
0.5600000000000579
 40
1.0
 40
1.0
 40
1.0
 40
1.0
 10
1194.989910915393
 20
-60.1673514679999
 30
0.0
 10
1194.904854644903
 20
-60.2128996419229
 30
0.0
 10
1194.752968447599
 20
-60.29423566678535
 30
0.0
 10
1194.681997093671
 20
-60.44969090655327
 30
0.0
 10
1194.650769697942
 20
-60.51809121205116
 30
0.0
  0
LINE
  5
111
330
1F
100
AcDbEntity
  8
0
  6
Continuous
 62
     7
370
    25
100
AcDbLine
 10
1195.390764561
 20
-60.167351468
 30
0.0
 11
1194.9899109154
 21
-60.167351468
 31
0.0
  0
SPLINE
  5
112
330
1F
100
AcDbEntity
  8
0
  6
Continuous
 62
     7
370
    25
100
AcDbSpline
210
0.0
220
0.0
230
1.0
 70
     8
 71
     3
 72
    10
 73
     6
 74
     0
 42
0.00000001
 43
0.00000001
 40
0.0
 40
0.0
 40
0.0
 40
0.0
 40
0.2768779234291839
 40
0.5624038656205016
 40
1.0
 40
1.0
 40
1.0
 40
1.0
 10
1195.746557074151
 20
-60.57792508398945
 30
0.0
 10
1195.731168395549
 20
-60.52807728022734
 30
0.0
 10
1195.699910387594
 20
-60.42682472393361
 30
0.0
 10
1195.586106198584
 20
-60.27065557105351
 30
0.0
 10
1195.46440926191
 20
-60.20629759267973
 30
0.0
 10
1195.390764560995
 20
-60.1673514679999
 30
0.0
  0
LINE
  5
113
330
1F
100
AcDbEntity
  8
0
  6
Continuous
 62
     7
370
    25
100
AcDbLine
 10
1195.6482621329
 20
-62.6206959322
 30
0.0
 11
1195.6482621329
 21
-60.6952941918
 31
0.0
  0
SPLINE
  5
114
330
1F
100
AcDbEntity
  8
0
  6
Continuous
 62
     7
370
    25
100
AcDbSpline
210
0.0
220
0.0
230
1.0
 70
     8
 71
     3
 72
    15
 73
    11
 74
     0
 42
0.00000001
 43
0.00000001
 40
0.0
 40
0.0
 40
0.0
 40
0.0
 40
0.1200542337629311
 40
0.2499999999999978
 40
0.379945766237094
 40
0.5000000000000223
 40
0.6200542337629505
 40
0.7499999999999852
 40
0.8799457662370556
 40
0.9999999999999999
 40
0.9999999999999999
 40
0.9999999999999999
 40
0.9999999999999999
 10
1195.64826213294
 20
-60.69529419184574
 30
0.0
 10
1195.64127723348
 20
-60.63213108794496
 30
0.0
 10
1195.626731933327
 20
-60.50060073303571
 30
0.0
 10
1195.510054653096
 20
-60.32969691156332
 30
0.0
 10
1195.340344458612
 20
-60.21751184315876
 30
0.0
 10
1195.145429018998
 20
-60.18043266728922
 30
0.0
 10
1194.950513579383
 20
-60.21751184315873
 30
0.0
 10
1194.7808033849
 20
-60.32969691156338
 30
0.0
 10
1194.664126104669
 20
-60.5006007330357
 30
0.0
 10
1194.649580804515
 20
-60.63213108794495
 30
0.0
 10
1194.642595905056
 20
-60.69529419184574
 30
0.0
  0
LINE
  5
115
330
1F
100
AcDbEntity
  8
0
  6
Continuous
 62
     7
370
    25
100
AcDbLine
 10
1194.6425959051
 20
-60.6952941918
 30
0.0
 11
1194.6413296367
 21
-60.6980509213
 31
0.0
  0
LINE
  5
116
330
1F
100
AcDbEntity
  8
0
  6
Continuous
 62
     7
370
    25
100
AcDbLine
 10
1194.6507696979
 20
-60.5180912121
 30
0.0
 11
1194.6413296367
 21
-60.6980509213
 31
0.0
  0
SPLINE
  5
117
330
1F
100
AcDbEntity
  8
0
  6
Continuous
 62
     7
370
    25
100
AcDbSpline
210
0.0
220
0.0
230
1.0
 70
     8
 71
     3
 72
    11
 73
     7
 74
     0
 42
0.00000001
 43
0.00000001
 40
0.0
 40
0.0
 40
0.0
 40
0.0
 40
0.2702613318128926
 40
0.5624293896421152
 40
0.7897364218595381
 40
1.0
 40
1.0
 40
1.0
 40
1.0
 10
1196.72313186696
 20
-60.3646806352934
 30
0.0
 10
1196.705915534687
 20
-60.36820009862878
 30
0.0
 10
1196.670087356135
 20
-60.37552430443471
 30
0.0
 10
1196.405925256534
 20
-60.43308110345784
 30
0.0
 10
1196.077401645372
 20
-60.5050903260254
 30
0.0
 10
1195.853937272029
 20
-60.55428555230926
 30
0.0
 10
1195.746557074151
 20
-60.57792508398945
 30
0.0
  0
SPLINE
  5
118
330
1F
100
AcDbEntity
  8
0
  6
Continuous
 62
     7
370
    25
100
AcDbSpline
210
0.0
220
0.0
230
1.0
 70
     8
 71
     3
 72
    11
 73
     7
 74
     0
 42
0.00000001
 43
0.00000001
 40
0.0
 40
0.0
 40
0.0
 40
0.0
 40
0.2796579740371958
 40
0.5592666022935476
 40
0.7796650582495903
 40
1.0
 40
1.0
 40
1.0
 40
1.0
 10
1217.603288162139
 20
-60.3646806352934
 30
0.0
 10
1217.584404445545
 20
-60.36691029280115
 30
0.0
 10
1217.546640344396
 20
-60.37136921439257
 30
0.0
 10
1217.279273352762
 20
-60.40825478100591
 30
0.0
 10
1216.951549483439
 20
-60.45683612125942
 30
0.0
 10
1216.72388027374
 20
-60.49767481021197
 30
0.0
 10
1216.610062073625
 20
-60.51809121205116
 30
0.0
  0
SPLINE
  5
119
330
1F
100
AcDbEntity
  8
0
  6
Continuous
 62
     7
370
    25
100
AcDbSpline
210
0.0
220
0.0
230
1.0
 70
     8
 71
     3
 72
     9
 73
     5
 74
     0
 42
0.00000001
 43
0.00000001
 40
0.0
 40
0.0
 40
0.0
 40
0.0
 40
0.5600000000000057
 40
1.0
 40
1.0
 40
1.0
 40
1.0
 10
1217.394266494762
 20
-62.38527704077485
 30
0.0
 10
1217.493755612888
 20
-62.38028916453099
 30
0.0
 10
1217.671414752398
 20
-62.37138224266697
 30
0.0
 10
1217.697162037215
 20
-62.37056257086381
 30
0.0
 10
1217.708490842534
 20
-62.37020191527042
 30
0.0
  0
SPLINE
  5
11A
330
1F
100
AcDbEntity
  8
0
  6
Continuous
 62
     7
370
    25
100
AcDbSpline
210
0.0
220
0.0
230
1.0
 70
     8
 71
     3
 72
     9
 73
     5
 74
     0
 42
0.00000001
 43
0.00000001
 40
0.0
 40
0.0
 40
0.0
 40
0.0
 40
0.5931105904960012
 40
1.0
 40
1.0
 40
1.0
 40
1.0
 10
1216.619502134902
 20
-60.69805092130651
 30
0.0
 10
1216.775516135164
 20
-61.03772384352994
 30
0.0
 10
1217.038559828468
 20
-61.61042129265046
 30
0.0
 10
1217.291391830679
 20
-62.16117939978381
 30
0.0
 10
1217.394266494762
 20
-62.38527704077485
 30
0.0
  0
LINE
  5
11B
330
1F
100
AcDbEntity
  8
0
  6
Continuous
 62
     7
370
    25
100
AcDbLine
 10
1217.3942664948
 20
-62.3888662571
 30
0.0
 11
1217.3942664948
 21
-62.3852770408
 31
0.0
  0
SPLINE
  5
11C
330
1F
100
AcDbEntity
  8
0
  6
Continuous
 62
     7
370
    25
100
AcDbSpline
210
0.0
220
0.0
230
1.0
 70
     8
 71
     3
 72
     9
 73
     5
 74
     0
 42
0.00000001
 43
0.00000001
 40
0.0
 40
0.0
 40
0.0
 40
0.0
 40
0.5304166037466733
 40
0.9999999999999999
 40
0.9999999999999999
 40
0.9999999999999999
 40
0.9999999999999999
 10
1217.394266494762
 20
-62.38886625706192
 30
0.0
 10
1217.259536569101
 20
-62.09571912300629
 30
0.0
 10
1217.005528823662
 20
-61.54304574893592
 30
0.0
 10
1216.742851190161
 20
-60.97121382638787
 30
0.0
 10
1216.619502134902
 20
-60.7026910501117
 30
0.0
  0
LINE
  5
11D
330
1F
100
AcDbEntity
  8
0
  6
Continuous
 62
     7
370
    25
100
AcDbLine
 10
1216.6195021349
 20
-60.7026910501
 30
0.0
 11
1216.6182358665
 21
-60.6999343207
 31
0.0
  0
LINE
  5
11E
330
1F
100
AcDbEntity
  8
0
  6
Continuous
 62
     7
370
    25
100
AcDbLine
 10
1216.6182358665
 20
-60.6999343207
 30
0.0
 11
1216.6182358665
 21
-60.6952941918
 31
0.0
  0
SPLINE
  5
11F
330
1F
100
AcDbEntity
  8
0
  6
Continuous
 62
     7
370
    25
100
AcDbSpline
210
0.0
220
0.0
230
1.0
 70
     8
 71
     3
 72
     9
 73
     5
 74
     0
 42
0.00000001
 43
0.00000001
 40
0.0
 40
0.0
 40
0.0
 40
0.0
 40
0.5931105904960017
 40
1.0
 40
1.0
 40
1.0
 40
1.0
 10
1194.641329636665
 20
-60.69805092130651
 30
0.0
 10
1194.485315636403
 20
-61.03772384352994
 30
0.0
 10
1194.222271943099
 20
-61.61042129265047
 30
0.0
 10
1193.969439940888
 20
-62.16117939978381
 30
0.0
 10
1193.866565276805
 20
-62.38527704077485
 30
0.0
  0
SPLINE
  5
120
330
1F
100
AcDbEntity
  8
0
  6
Continuous
 62
     7
370
    25
100
AcDbSpline
210
0.0
220
0.0
230
1.0
 70
     8
 71
     3
 72
     9
 73
     5
 74
     0
 42
0.00000001
 43
0.00000001
 40
0.0
 40
0.0
 40
0.0
 40
0.0
 40
0.5600000000000057
 40
1.0
 40
1.0
 40
1.0
 40
1.0
 10
1193.866565276805
 20
-62.38527704077485
 30
0.0
 10
1193.767076158679
 20
-62.38028916453099
 30
0.0
 10
1193.589417019169
 20
-62.37138224266697
 30
0.0
 10
1193.563669734352
 20
-62.37056257086381
 30
0.0
 10
1193.552340929033
 20
-62.37020191527042
 30
0.0
  0
SPLINE
  5
121
330
1F
100
AcDbEntity
  8
0
  6
Continuous
 62
     7
370
    25
100
AcDbSpline
210
0.0
220
0.0
230
1.0
 70
     8
 71
     3
 72
    11
 73
     7
 74
     0
 42
0.00000001
 43
0.00000001
 40
0.0
 40
0.0
 40
0.0
 40
0.0
 40
0.2796579740371974
 40
0.5592666022935242
 40
0.7796650582495788
 40
1.0
 40
1.0
 40
1.0
 40
1.0
 10
1193.657543609428
 20
-60.3646806352934
 30
0.0
 10
1193.676427326022
 20
-60.36691029280114
 30
0.0
 10
1193.714191427171
 20
-60.37136921439252
 30
0.0
 10
1193.981558418805
 20
-60.40825478100594
 30
0.0
 10
1194.309282288128
 20
-60.45683612125934
 30
0.0
 10
1194.536951497827
 20
-60.49767481021194
 30
0.0
 10
1194.650769697942
 20
-60.51809121205116
 30
0.0
  0
LINE
  5
122
330
1F
100
AcDbEntity
  8
0
  6
Continuous
 62
     7
370
    25
100
AcDbLine
 10
1194.6425959051
 20
-60.6999343207
 30
0.0
 11
1194.6425959051
 21
-60.6952941918
 31
0.0
  0
LINE
  5
123
330
1F
100
AcDbEntity
  8
0
  6
Continuous
 62
     7
370
    25
100
AcDbLine
 10
1194.6413296367
 20
-60.7026910501
 30
0.0
 11
1194.6425959051
 21
-60.6999343207
 31
0.0
  0
SPLINE
  5
124
330
1F
100
AcDbEntity
  8
0
  6
Continuous
 62
     7
370
    25
100
AcDbSpline
210
0.0
220
0.0
230
1.0
 70
     8
 71
     3
 72
     9
 73
     5
 74
     0
 42
0.00000001
 43
0.00000001
 40
0.0
 40
0.0
 40
0.0
 40
0.0
 40
0.5304166037466982
 40
0.9999999999999999
 40
0.9999999999999999
 40
0.9999999999999999
 40
0.9999999999999999
 10
1193.866565276805
 20
-62.38886625706192
 30
0.0
 10
1194.001295202466
 20
-62.0957191230063
 30
0.0
 10
1194.255302947905
 20
-61.54304574893597
 30
0.0
 10
1194.517980581405
 20
-60.97121382638788
 30
0.0
 10
1194.641329636665
 20
-60.7026910501117
 30
0.0
  0
LINE
  5
125
330
1F
100
AcDbEntity
  8
0
  6
Continuous
 62
     7
370
    25
100
AcDbLine
 10
1193.8665652768
 20
-62.3888662571
 30
0.0
 11
1193.8665652768
 21
-62.3852770408
 31
0.0
  0
SPLINE
  5
126
330
1F
100
AcDbEntity
  8
0
  6
Continuous
 62
     7
370
    25
100
AcDbSpline
210
0.0
220
0.0
230
1.0
 70
     8
 71
     3
 72
    15
 73
    11
 74
     0
 42
0.00000001
 43
0.00000001
 40
0.0
 40
0.0
 40
0.0
 40
0.0
 40
0.1200542337629398
 40
0.2500000000000062
 40
0.3799457662370432
 40
0.4999999999999712
 40
0.6200542337629688
 40
0.7500000000000032
 40
0.8799457662370733
 40
1.0
 40
1.0
 40
1.0
 40
1.0
 10
1216.618235866511
 20
-60.69993432065102
 30
0.0
 10
1216.611250967052
 20
-60.63677121675023
 30
0.0
 10
1216.596705666898
 20
-60.505240861841
 30
0.0
 10
1216.480028386667
 20
-60.33433704036866
 30
0.0
 10
1216.310318192183
 20
-60.22215197196402
 30
0.0
 10
1216.115402752569
 20
-60.1850727960945
 30
0.0
 10
1215.920487312955
 20
-60.222151971964
 30
0.0
 10
1215.750777118471
 20
-60.33433704036865
 30
0.0
 10
1215.63409983824
 20
-60.505240861841
 30
0.0
 10
1215.619554538087
 20
-60.63677121675025
 30
0.0
 10
1215.612569638628
 20
-60.69993432065102
 30
0.0
  0
SPLINE
  5
127
330
1F
100
AcDbEntity
  8
0
  6
Continuous
 62
     7
370
    25
100
AcDbSpline
210
0.0
220
0.0
230
1.0
 70
     8
 71
     3
 72
    15
 73
    11
 74
     0
 42
0.00000001
 43
0.00000001
 40
0.0
 40
0.0
 40
0.0
 40
0.0
 40
0.120054233762938
 40
0.2500000000000024
 40
0.3799457662370966
 40
0.5000000000000228
 40
0.620054233762949
 40
0.7499999999999815
 40
0.8799457662370884
 40
1.0
 40
1.0
 40
1.0
 40
1.0
 10
1194.642595905056
 20
-60.69993432065102
 30
0.0
 10
1194.649580804515
 20
-60.63677121675024
 30
0.0
 10
1194.664126104669
 20
-60.50524086184101
 30
0.0
 10
1194.7808033849
 20
-60.33433704036862
 30
0.0
 10
1194.950513579384
 20
-60.22215197196405
 30
0.0
 10
1195.145429018998
 20
-60.18507279609448
 30
0.0
 10
1195.340344458612
 20
-60.22215197196403
 30
0.0
 10
1195.510054653096
 20
-60.33433704036869
 30
0.0
 10
1195.626731933327
 20
-60.50524086184093
 30
0.0
 10
1195.64127723348
 20
-60.63677121675023
 30
0.0
 10
1195.64826213294
 20
-60.69993432065102
 30
0.0
  0
SPLINE
  5
128
330
1F
100
AcDbEntity
  8
0
  6
Continuous
 62
     7
370
    25
100
AcDbSpline
210
0.0
220
0.0
230
1.0
 70
     8
 71
     3
 72
    10
 73
     6
 74
     0
 42
0.00000001
 43
0.00000001
 40
0.0
 40
0.0
 40
0.0
 40
0.0
 40
0.2768779234291509
 40
0.562403865620429
 40
1.0
 40
1.0
 40
1.0
 40
1.0
 10
1217.603288162139
 20
-60.3646806352934
 30
0.0
 10
1217.56088101322
 20
-60.22731320485892
 30
0.0
 10
1217.474742168393
 20
-59.94828780286992
 30
0.0
 10
1217.161127769418
 20
-59.51792671120273
 30
0.0
 10
1216.825763034749
 20
-59.34057305768261
 30
0.0
 10
1216.622817617572
 20
-59.23324778617861
 30
0.0
  0
SPLINE
  5
129
330
1F
100
AcDbEntity
  8
0
  6
Continuous
 62
     7
370
    25
100
AcDbSpline
210
0.0
220
0.0
230
1.0
 70
     8
 71
     3
 72
    10
 73
     6
 74
     0
 42
0.00000001
 43
0.00000001
 40
0.0
 40
0.0
 40
0.0
 40
0.0
 40
0.2768779234291469
 40
0.5624038656204079
 40
0.9999999999999999
 40
0.9999999999999999
 40
0.9999999999999999
 40
0.9999999999999999
 10
1215.518170449173
 20
-59.23324778617861
 30
0.0
 10
1215.388231377955
 20
-59.29476259240565
 30
0.0
 10
1215.124294712139
 20
-59.41971356136157
 30
0.0
 10
1214.7429165328
 20
-59.79135252706718
 30
0.0
 10
1214.615067522656
 20
-60.14853328658806
 30
0.0
 10
1214.537699904607
 20
-60.3646806352934
 30
0.0
  0
SPLINE
  5
12A
330
1F
100
AcDbEntity
  8
0
  6
Continuous
 62
     7
370
    25
100
AcDbSpline
210
0.0
220
0.0
230
1.0
 70
     8
 71
     3
 72
    10
 73
     6
 74
     0
 42
0.00000001
 43
0.00000001
 40
0.0
 40
0.0
 40
0.0
 40
0.0
 40
0.2768779234291509
 40
0.562403865620429
 40
1.0
 40
1.0
 40
1.0
 40
1.0
 10
1193.657543609428
 20
-60.3646806352934
 30
0.0
 10
1193.699950758347
 20
-60.22731320485892
 30
0.0
 10
1193.786089603174
 20
-59.94828780286992
 30
0.0
 10
1194.099704002148
 20
-59.51792671120273
 30
0.0
 10
1194.435068736818
 20
-59.34057305768261
 30
0.0
 10
1194.638014153994
 20
-59.23324778617861
 30
0.0
  0
SPLINE
  5
12B
330
1F
100
AcDbEntity
  8
0
  6
Continuous
 62
     7
370
    25
100
AcDbSpline
210
0.0
220
0.0
230
1.0
 70
     8
 71
     3
 72
    10
 73
     6
 74
     0
 42
0.00000001
 43
0.00000001
 40
0.0
 40
0.0
 40
0.0
 40
0.0
 40
0.2768779234291469
 40
0.5624038656204079
 40
0.9999999999999999
 40
0.9999999999999999
 40
0.9999999999999999
 40
0.9999999999999999
 10
1195.742661322394
 20
-59.23324778617861
 30
0.0
 10
1195.872600393611
 20
-59.29476259240565
 30
0.0
 10
1196.136537059428
 20
-59.41971356136157
 30
0.0
 10
1196.517915238767
 20
-59.79135252706718
 30
0.0
 10
1196.645764248911
 20
-60.14853328658806
 30
0.0
 10
1196.72313186696
 20
-60.3646806352934
 30
0.0
  0
LINE
  5
12C
330
1F
100
AcDbEntity
  8
0
  6
Continuous
 62
     7
370
    25
100
AcDbLine
 10
1216.2709208562
 20
-59.169286724
 30
0.0
 11
1215.8700672106
 21
-59.169286724
 31
0.0
  0
LINE
  5
12D
330
1F
100
AcDbEntity
  8
0
  6
Continuous
 62
     7
370
    25
100
AcDbLine
 10
1194.9899109154
 20
-59.169286724
 30
0.0
 11
1195.390764561
 21
-59.169286724
 31
0.0
  0
LINE
  5
12E
330
1F
100
AcDbEntity
  8
0
  6
Continuous
 62
     7
370
    25
100
AcDbLine
 10
1217.7084908425
 20
-62.3709752701
 30
0.0
 11
1217.7084908425
 21
-62.3702019153
 31
0.0
  0
SPLINE
  5
12F
330
1F
100
AcDbEntity
  8
0
  6
Continuous
 62
     7
370
    25
100
AcDbSpline
210
0.0
220
0.0
230
1.0
 70
     8
 71
     3
 72
     9
 73
     5
 74
     0
 42
0.00000001
 43
0.00000001
 40
0.0
 40
0.0
 40
0.0
 40
0.0
 40
0.5600000000000568
 40
1.0
 40
1.0
 40
1.0
 40
1.0
 10
1217.708490842534
 20
-62.3709752700713
 30
0.0
 10
1217.689803104145
 20
-62.37225411209823
 30
0.0
 10
1217.656432142737
 20
-62.37453775857492
 30
0.0
 10
1217.474372664976
 20
-62.38448810474645
 30
0.0
 10
1217.394266494762
 20
-62.38886625706192
 30
0.0
  0
SPLINE
  5
130
330
1F
100
AcDbEntity
  8
0
  6
Continuous
 62
     7
370
    25
100
AcDbSpline
210
0.0
220
0.0
230
1.0
 70
     8
 71
     3
 72
     9
 73
     5
 74
     0
 42
0.00000001
 43
0.00000001
 40
0.0
 40
0.0
 40
0.0
 40
0.0
 40
0.5600000000000568
 40
1.0
 40
1.0
 40
1.0
 40
1.0
 10
1193.552340929033
 20
-62.3709752700713
 30
0.0
 10
1193.571028667422
 20
-62.37225411209823
 30
0.0
 10
1193.60439962883
 20
-62.37453775857492
 30
0.0
 10
1193.786459106591
 20
-62.38448810474645
 30
0.0
 10
1193.866565276805
 20
-62.38886625706192
 30
0.0
  0
LINE
  5
131
330
1F
100
AcDbEntity
  8
0
  6
Continuous
 62
     7
370
    25
100
AcDbLine
 10
1193.552340929
 20
-62.3709752701
 30
0.0
 11
1193.552340929
 21
-62.3702019153
 31
0.0
  0
LINE
  5
132
330
1F
100
AcDbEntity
  8
0
  6
Continuous
 62
     7
370
    25
100
AcDbLine
 10
1198.1304158858
 20
-61.1206959322
 30
0.0
 11
1205.6304158858
 21
-61.1206959322
 31
0.0
  0
LINE
  5
133
330
1F
100
AcDbEntity
  8
0
  6
Continuous
 62
     7
370
    25
100
AcDbLine
 10
1205.6304158858
 20
-62.6206959322
 30
0.0
 11
1205.6304158858
 21
-61.1206959322
 31
0.0
  0
LINE
  5
134
330
1F
100
AcDbEntity
  8
0
  6
Continuous
 62
     7
370
    25
100
AcDbLine
 10
1205.6304158858
 20
-61.1206959322
 30
0.0
 11
1213.1304158858
 21
-61.1206959322
 31
0.0
  0
LINE
  5
135
330
1F
100
AcDbEntity
  8
0
  6
Continuous
 62
     7
370
    25
100
AcDbLine
 10
1210.8746723962
 20
-93.3284394217
 30
0.0
 11
1210.8746723962
 21
-63.8206959322
 31
0.0
  0
LINE
  5
136
330
1F
100
AcDbEntity
  8
0
  6
Continuous
 62
     7
370
    25
100
AcDbLine
 10
1210.8746723962
 20
-63.8206959322
 30
0.0
 11
1234.3824158858
 21
-63.8206959322
 31
0.0
  0
LINE
  5
137
330
1F
100
AcDbEntity
  8
0
  6
Continuous
 62
     7
370
    25
100
AcDbLine
 10
1234.3824158858
 20
-104.6121562967
 30
0.0
 11
1234.3824158858
 21
-63.8206959322
 31
0.0
  0
LINE
  5
138
330
1F
100
AcDbEntity
  8
0
  6
Continuous
 62
     7
370
    25
100
AcDbLine
 10
1234.3824158858
 20
-104.6121562967
 30
0.0
 11
1210.8746723962
 21
-93.3284394217
 31
0.0
  0
SPLINE
  5
139
330
1F
100
AcDbEntity
  8
0
  6
Continuous
 62
     7
370
    25
100
AcDbSpline
210
0.0
220
0.0
230
1.0
 70
     8
 71
     3
 72
    11
 73
     7
 74
     0
 42
0.00000001
 43
0.00000001
 40
0.0
 40
0.0
 40
0.0
 40
0.0
 40
0.2500000000000072
 40
0.4999999999999983
 40
0.7500000000000189
 40
1.0
 40
1.0
 40
1.0
 40
1.0
 10
1234.38241588579
 20
-104.6121562966902
 30
0.0
 10
1234.539660338358
 20
-104.6718465571084
 30
0.0
 10
1234.854149243492
 20
-104.7912270779448
 30
0.0
 10
1235.250803168008
 20
-104.9702978591994
 30
0.0
 10
1235.528302223755
 20
-105.149368640454
 30
0.0
 10
1235.564377998445
 20
-105.2687491612905
 30
0.0
 10
1235.58241588579
 20
-105.3284394217087
 30
0.0
  0
LINE
  5
13A
330
1F
100
AcDbEntity
  8
0
  6
Continuous
 62
     7
370
    25
100
AcDbLine
 10
1235.5824158858
 20
-63.8206959322
 30
0.0
 11
1234.3824158858
 21
-63.8206959322
 31
0.0
  0
LINE
  5
13B
330
1F
100
AcDbEntity
  8
0
  6
Continuous
 62
     7
370
    25
100
AcDbLine
 10
1235.5824158858
 20
-105.3284394217
 30
0.0
 11
1235.5824158858
 21
-63.8206959322
 31
0.0
  0
LINE
  5
13C
330
1F
100
AcDbEntity
  8
0
  6
Continuous
 62
     7
370
    25
100
AcDbLine
 10
1235.5824158858
 20
-105.3284394217
 30
0.0
 11
1235.0824158858
 21
-105.3284394217
 31
0.0
  0
SPLINE
  5
13D
330
1F
100
AcDbEntity
  8
0
  6
Continuous
 62
     7
370
    25
100
AcDbSpline
210
0.0
220
0.0
230
1.0
 70
     8
 71
     3
 72
    11
 73
     7
 74
     0
 42
0.00000001
 43
0.00000001
 40
0.0
 40
0.0
 40
0.0
 40
0.0
 40
0.2500000000000143
 40
0.4999999999999978
 40
0.7500000000000213
 40
1.0
 40
1.0
 40
1.0
 40
1.0
 10
1234.38241588579
 20
-104.6121562966902
 30
0.0
 10
1234.474141816455
 20
-104.6718465571084
 30
0.0
 10
1234.657593677783
 20
-104.7912270779448
 30
0.0
 10
1234.888975133751
 20
-104.9702978591995
 30
0.0
 10
1235.050849582937
 20
-105.149368640454
 30
0.0
 10
1235.071893784839
 20
-105.2687491612905
 30
0.0
 10
1235.08241588579
 20
-105.3284394217087
 30
0.0
  0
LINE
  5
13E
330
1F
100
AcDbEntity
  8
0
  6
Continuous
 62
     7
370
    25
100
AcDbLine
 10
1233.6824158858
 20
-62.6206959322
 30
0.0
 11
40.8824158858
 21
-62.6206959322
 31
0.0
  0
SPLINE
  5
13F
330
1F
100
AcDbEntity
  8
0
  6
Continuous
 62
     7
370
    25
100
AcDbSpline
210
0.0
220
0.0
230
1.0
 70
     8
 71
     3
 72
    13
 73
     9
 74
     0
 42
0.00000001
 43
0.00000001
 40
0.0
 40
0.0
 40
0.0
 40
0.0
 40
0.1103924658907626
 40
0.2149689607251097
 40
0.3193067833481299
 40
0.4290150175480925
 40
0.6817194457299915
 40
1.0
 40
1.0
 40
1.0
 40
1.0
 10
1234.382415885791
 20
-62.93198288817238
 30
0.0
 10
1234.336974087595
 20
-62.92978194902801
 30
0.0
 10
1234.248484569287
 20
-62.92549602610143
 30
0.0
 10
1234.123454414425
 20
-62.89580557331217
 30
0.0
 10
1234.012720651652
 20
-62.85109198534694
 30
0.0
 10
1233.879333505431
 20
-62.77276295648019
 30
0.0
 10
1233.75074308112
 20
-62.65482386544485
 30
0.0
 10
1233.706871143195
 20
-62.63291079608486
 30
0.0
 10
1233.682415885791
 20
-62.62069593216374
 30
0.0
  0
LINE
  5
140
330
1F
100
AcDbEntity
  8
0
  6
Continuous
 62
     7
370
    25
100
AcDbLine
 10
1234.3824158858
 20
-63.8206959322
 30
0.0
 11
1234.3824158858
 21
-62.9319828882
 31
0.0
  0
LINE
  5
141
330
1F
100
AcDbEntity
  8
0
  6
Continuous
 62
     7
370
    25
100
AcDbLine
 10
1234.3824158858
 20
-63.8206959322
 30
0.0
 11
40.3824158858
 21
-63.8206959322
 31
0.0
  0
LINE
  5
142
330
1F
100
AcDbEntity
  8
0
  6
Continuous
 62
     7
370
    25
100
AcDbLine
 10
40.3824158858
 20
-62.7830994898
 30
0.0
 11
40.3824158858
 21
-63.8206959322
 31
0.0
  0
SPLINE
  5
143
330
1F
100
AcDbEntity
  8
0
  6
Continuous
 62
     7
370
    25
100
AcDbSpline
210
0.0
220
0.0
230
1.0
 70
     8
 71
     3
 72
    12
 73
     8
 74
     0
 42
0.00000001
 43
0.00000001
 40
0.0
 40
0.0
 40
0.0
 40
0.0
 40
0.3006396947723612
 40
0.4108252155848285
 40
0.4972322866643925
 40
0.6936496680192166
 40
1.0
 40
1.0
 40
1.0
 40
1.0
 10
40.88241588579145
 20
-62.62069593216374
 30
0.0
 10
40.86996622960548
 20
-62.62596327130107
 30
0.0
 10
40.85295373000708
 20
-62.63316110902602
 30
0.0
 10
40.80457635973278
 20
-62.66852923325678
 30
0.0
 10
40.74497966819956
 20
-62.69976338873674
 30
0.0
 10
40.59648118928405
 20
-62.73764197813983
 30
0.0
 10
40.46346583538796
 20
-62.76588825114786
 30
0.0
 10
40.38241588579127
 20
-62.78309948982471
 30
0.0
  0
LINE
  5
144
330
1F
100
AcDbEntity
  8
0
  6
Continuous
 62
     7
370
    25
100
AcDbLine
 10
40.3824158858
 20
-105.8284394217
 30
0.0
 11
1234.3824158858
 21
-105.8284394217
 31
0.0
  0
LINE
  5
145
330
1F
100
AcDbEntity
  8
0
  6
Continuous
 62
     7
370
    25
100
AcDbLine
 10
40.3824158858
 20
-105.8284394217
 30
0.0
 11
40.3824158858
 21
-63.8206959322
 31
0.0
  0
LINE
  5
146
330
1F
100
AcDbEntity
  8
0
  6
Continuous
 62
     7
370
    25
100
AcDbLine
 10
1234.3824158858
 20
-63.8206959322
 30
0.0
 11
1234.3824158858
 21
-105.8284394217
 31
0.0
  0
LINE
  5
147
330
1F
100
AcDbEntity
  8
0
  6
Continuous
 62
     7
370
    25
100
AcDbLine
 10
1234.3824158858
 20
-106.4468092248
 30
0.0
 11
1234.3824158858
 21
-105.8284394217
 31
0.0
  0
LINE
  5
148
330
1F
100
AcDbEntity
  8
0
  6
Continuous
 62
     7
370
    25
100
AcDbLine
 10
1233.8824158858
 20
-106.4468092248
 30
0.0
 11
1234.3824158858
 21
-106.4468092248
 31
0.0
  0
SPLINE
  5
149
330
1F
100
AcDbEntity
  8
0
  6
Continuous
 62
     7
370
    25
100
AcDbSpline
210
0.0
220
0.0
230
1.0
 70
     8
 71
     3
 72
    11
 73
     7
 74
     0
 42
0.00000001
 43
0.00000001
 40
0.0
 40
0.0
 40
0.0
 40
0.0
 40
0.2500000000000037
 40
0.4999999999999892
 40
0.7499999999999845
 40
1.0
 40
1.0
 40
1.0
 40
1.0
 10
1233.851593283741
 20
-106.8284394217085
 30
0.0
 10
1233.854161833912
 20
-106.8235334683769
 30
0.0
 10
1233.859298934254
 20
-106.8137215617137
 30
0.0
 10
1233.867004584766
 20
-106.7346903571322
 30
0.0
 10
1233.874710235278
 20
-106.6154358612565
 30
0.0
 10
1233.87984733562
 20
-106.5030181036043
 30
0.0
 10
1233.882415885791
 20
-106.4468092247782
 30
0.0
  0
LINE
  5
14A
330
1F
100
AcDbEntity
  8
0
  6
Continuous
 62
     7
370
    25
100
AcDbLine
 10
40.9440610899
 20
-106.8284394217
 30
0.0
 11
1233.8515932837
 21
-106.8284394217
 31
0.0
  0
SPLINE
  5
14B
330
1F
100
AcDbEntity
  8
0
  6
Continuous
 62
     7
370
    25
100
AcDbSpline
210
0.0
220
0.0
230
1.0
 70
     8
 71
     3
 72
    11
 73
     7
 74
     0
 42
0.00000001
 43
0.00000001
 40
0.0
 40
0.0
 40
0.0
 40
0.0
 40
0.2500000000000113
 40
0.5000000000000107
 40
0.7499999999999922
 40
1.0
 40
1.0
 40
1.0
 40
1.0
 10
40.88241588579133
 20
-106.4468092247784
 30
0.0
 10
40.887552986133
 20
-106.5030181036045
 30
0.0
 10
40.89782718681634
 20
-106.6154358612567
 30
0.0
 10
40.91323848784112
 20
-106.7346903571324
 30
0.0
 10
40.92864978886612
 20
-106.8137215617138
 30
0.0
 10
40.93892398954934
 20
-106.8235334683771
 30
0.0
 10
40.9440610898909
 20
-106.8284394217087
 30
0.0
  0
LINE
  5
14C
330
1F
100
AcDbEntity
  8
0
  6
Continuous
 62
     7
370
    25
100
AcDbLine
 10
40.3824158858
 20
-106.4468092248
 30
0.0
 11
40.8824158858
 21
-106.4468092248
 31
0.0
  0
LINE
  5
14D
330
1F
100
AcDbEntity
  8
0
  6
Continuous
 62
     7
370
    25
100
AcDbLine
 10
40.3824158858
 20
-105.8284394217
 30
0.0
 11
40.3824158858
 21
-106.4468092248
 31
0.0
  0
SPLINE
  5
14E
330
1F
100
AcDbEntity
  8
0
  6
Continuous
 62
     7
370
    25
100
AcDbSpline
210
0.0
220
0.0
230
1.0
 70
     8
 71
     3
 72
    12
 73
     8
 74
     0
 42
0.00000001
 43
0.00000001
 40
0.0
 40
0.0
 40
0.0
 40
0.0
 40
0.2893414007533696
 40
0.3971452045719336
 40
0.4846423278158128
 40
0.6854347491537599
 40
1.0
 40
1.0
 40
1.0
 40
1.0
 10
39.77959450026702
 20
-62.78309948982471
 30
0.0
 10
39.80270392822383
 20
-62.76997381207347
 30
0.0
 10
39.83442354549749
 20
-62.75195772463461
 30
0.0
 10
39.90306968908941
 20
-62.72013170329617
 30
0.0
 10
39.98101632525896
 20
-62.6883415504398
 30
0.0
 10
40.14514602186914
 20
-62.63530102167159
 30
0.0
 10
40.29248361353832
 20
-62.62623169159051
 30
0.0
 10
40.38241588579127
 20
-62.62069593216374
 30
0.0
  0
LINE
  5
14F
330
1F
100
AcDbEntity
  8
0
  6
Continuous
 62
     7
370
    25
100
AcDbLine
 10
40.0307700776
 20
-63.2154313408
 30
0.0
 11
39.7795945003
 21
-62.7830994898
 31
0.0
  0
SPLINE
  5
150
330
1F
100
AcDbEntity
  8
0
  6
Continuous
 62
     7
370
    25
100
AcDbSpline
210
0.0
220
0.0
230
1.0
 70
     8
 71
     3
 72
    12
 73
     8
 74
     0
 42
0.00000001
 43
0.00000001
 40
0.0
 40
0.0
 40
0.0
 40
0.0
 40
0.358803791175165
 40
0.5752394285409071
 40
0.6544863258714324
 40
0.7503396587645367
 40
1.0
 40
1.0
 40
1.0
 40
1.0
 10
40.03077007756883
 20
-63.21543134079929
 30
0.0
 10
40.0442589132205
 20
-63.20794519257466
 30
0.0
 10
40.06588440967007
 20
-63.19594329144473
 30
0.0
 10
40.11263005336707
 20
-63.17349038144807
 30
0.0
 10
40.17519689082904
 20
-63.15154815003143
 30
0.0
 10
40.25455188299665
 20
-63.12911571376283
 30
0.0
 10
40.32878019312758
 20
-63.12422781610508
 30
0.0
 10
40.38241588579127
 20
-63.12069593216374
 30
0.0
  0
ARC
  5
151
330
1F
100
AcDbEntity
  8
0
  6
Continuous
 62
     7
370
    25
100
AcDbCircle
 10
40.3824158858
 20
-63.8206959322
 30
0.0
 40
1.199999999999996
100
AcDbArc
 50
120.1556734279
 51
180.0
  0
LINE
  5
152
330
1F
100
AcDbEntity
  8
0
  6
Continuous
 62
     7
370
    25
100
AcDbLine
 10
39.6824158858
 20
-63.8206959322
 30
0.0
 11
39.1824158858
 21
-63.8206959322
 31
0.0
  0
ARC
  5
153
330
1F
100
AcDbEntity
  8
0
  6
Continuous
 62
     7
370
    25
100
AcDbCircle
 10
40.3824158858
 20
-63.8206959322
 30
0.0
 40
0.7000000000000313
100
AcDbArc
 50
120.1556734279
 51
180.0
  0
ARC
  5
154
330
1F
100
AcDbEntity
  8
0
  6
Continuous
 62
     7
370
    25
100
AcDbCircle
 10
1234.3824158858
 20
-63.8206959322
 30
0.0
 40
1.199999999999983
100
AcDbArc
 50
360.0
 51
47.7820572009
  0
ARC
  5
155
330
1F
100
AcDbEntity
  8
0
  6
Continuous
 62
     7
370
    25
100
AcDbCircle
 10
1234.3824158858
 20
-63.8206959322
 30
0.0
 40
0.7000000000000455
100
AcDbArc
 50
0.0
 51
47.7820572009
  0
LINE
  5
156
330
1F
100
AcDbEntity
  8
0
  6
Continuous
 62
     7
370
    25
100
AcDbLine
 10
1234.852782669
 20
-63.3022799898
 30
0.0
 11
1235.1887589427
 21
-62.9319828882
 31
0.0
  0
LINE
  5
157
330
1F
100
AcDbEntity
  8
0
  6
Continuous
 62
     7
370
    25
100
AcDbLine
 10
1234.3824158858
 20
-62.6206959322
 30
0.0
 11
1233.6824158858
 21
-62.6206959322
 31
0.0
  0
LINE
  5
158
330
1F
100
AcDbEntity
  8
0
  6
Continuous
 62
     7
370
    25
100
AcDbLine
 10
1234.3824158858
 20
-62.6206959322
 30
0.0
 11
1234.3824158858
 21
-63.1206959322
 31
0.0
  0
SPLINE
  5
159
330
1F
100
AcDbEntity
  8
0
  6
Continuous
 62
     7
370
    25
100
AcDbSpline
210
0.0
220
0.0
230
1.0
 70
     8
 71
     3
 72
    11
 73
     7
 74
     0
 42
0.00000001
 43
0.00000001
 40
0.0
 40
0.0
 40
0.0
 40
0.0
 40
0.2508723445332655
 40
0.4825583611038658
 40
0.7236804489162398
 40
1.0
 40
1.0
 40
1.0
 40
1.0
 10
1234.382415885791
 20
-62.62069593216374
 30
0.0
 10
1234.484451009396
 20
-62.62847509147533
 30
0.0
 10
1234.680717768546
 20
-62.64343847205503
 30
0.0
 10
1234.927670604729
 20
-62.74434688137974
 30
0.0
 10
1235.10010244668
 20
-62.85386344493759
 30
0.0
 10
1235.157896356464
 20
-62.90478839975685
 30
0.0
 10
1235.188758942709
 20
-62.93198288817229
 30
0.0
  0
SPLINE
  5
15A
330
1F
100
AcDbEntity
  8
0
  6
Continuous
 62
     7
370
    25
100
AcDbSpline
210
0.0
220
0.0
230
1.0
 70
     8
 71
     3
 72
    13
 73
     9
 74
     0
 42
0.00000001
 43
0.00000001
 40
0.0
 40
0.0
 40
0.0
 40
0.0
 40
0.0983761069082099
 40
0.1946998980638362
 40
0.2949288049024869
 40
0.4043852477562283
 40
0.6656598492687443
 40
1.0
 40
1.0
 40
1.0
 40
1.0
 10
1234.382415885791
 20
-63.12069593216374
 30
0.0
 10
1234.413282155667
 20
-63.12190141065751
 30
0.0
 10
1234.474370765365
 20
-63.12428721903346
 30
0.0
 10
1234.559295108481
 20
-63.14193526638869
 30
0.0
 10
1234.633312467314
 20
-63.1658032833666
 30
0.0
 10
1234.722247182508
 20
-63.20556901060944
 30
0.0
 10
1234.804529714188
 20
-63.2597627438787
 30
0.0
 10
1234.835434623264
 20
-63.28699406319921
 30
0.0
 10
1234.852782668993
 20
-63.3022799898354
 30
0.0
  0
LINE
  5
15B
330
1F
100
AcDbEntity
  8
0
  6
Continuous
 62
     7
370
    25
100
AcDbLine
 10
1234.7000346724
 20
-106.8144083724
 30
0.0
 11
1234.8176534591
 21
-107.3003773231
 31
0.0
  0
LINE
  5
15C
330
1F
100
AcDbEntity
  8
0
  6
Continuous
 62
     7
370
    25
100
AcDbLine
 10
1234.8176534591
 20
-107.3003773231
 30
0.0
 11
1234.5824158858
 21
-107.3284394217
 31
0.0
  0
LINE
  5
15D
330
1F
100
AcDbEntity
  8
0
  6
Continuous
 62
     7
370
    25
100
AcDbLine
 10
1234.5824158858
 20
-106.8284394217
 30
0.0
 11
1234.5824158858
 21
-107.3284394217
 31
0.0
  0
LINE
  5
15E
330
1F
100
AcDbEntity
  8
0
  6
Continuous
 62
     7
370
    25
100
AcDbLine
 10
1234.7000346724
 20
-106.8144083724
 30
0.0
 11
1234.5824158858
 21
-106.8284394217
 31
0.0
  0
LINE
  5
15F
330
1F
100
AcDbEntity
  8
0
  6
Continuous
 62
     7
370
    25
100
AcDbLine
 10
1235.0824158858
 20
-106.3284394217
 30
0.0
 11
1235.5824158858
 21
-106.3284394217
 31
0.0
  0
LINE
  5
160
330
1F
100
AcDbEntity
  8
0
  6
Continuous
 62
     7
370
    25
100
AcDbLine
 10
1235.5824158858
 20
-106.3284394217
 30
0.0
 11
1235.5824158858
 21
-105.3284394217
 31
0.0
  0
LINE
  5
161
330
1F
100
AcDbEntity
  8
0
  6
Continuous
 62
     7
370
    25
100
AcDbLine
 10
1235.0824158858
 20
-106.3284394217
 30
0.0
 11
1235.0824158858
 21
-105.3284394217
 31
0.0
  0
ARC
  5
162
330
1F
100
AcDbEntity
  8
0
  6
Continuous
 62
     7
370
    25
100
AcDbCircle
 10
1234.5824158858
 20
-106.3284394217
 30
0.0
 40
1.000000000000016
100
AcDbArc
 50
283.6056273159
 51
0.0
  0
ARC
  5
163
330
1F
100
AcDbEntity
  8
0
  6
Continuous
 62
     7
370
    25
100
AcDbCircle
 10
1234.5824158858
 20
-106.3284394217
 30
0.0
 40
0.5
100
AcDbArc
 50
283.6056273159
 51
0.0
  0
LINE
  5
164
330
1F
100
AcDbEntity
  8
0
  6
Continuous
 62
     7
370
    25
100
AcDbLine
 10
40.8824158858
 20
-62.6206959322
 30
0.0
 11
40.3824158858
 21
-62.6206959322
 31
0.0
  0
LINE
  5
165
330
1F
100
AcDbEntity
  8
0
  6
Continuous
 62
     7
370
    25
100
AcDbLine
 10
39.1824158858
 20
-78.3284394217
 30
0.0
 11
39.6824158858
 21
-78.3284394217
 31
0.0
  0
LINE
  5
166
330
1F
100
AcDbEntity
  8
0
  6
Continuous
 62
     7
370
    25
100
AcDbLine
 10
39.1824158858
 20
-63.8206959322
 30
0.0
 11
39.1824158858
 21
-78.3284394217
 31
0.0
  0
LINE
  5
167
330
1F
100
AcDbEntity
  8
0
  6
Continuous
 62
     7
370
    25
100
AcDbLine
 10
39.6824158858
 20
-63.8206959322
 30
0.0
 11
39.6824158858
 21
-78.3284394217
 31
0.0
  0
LINE
  5
168
330
1F
100
AcDbEntity
  8
0
  6
Continuous
 62
     7
370
    25
100
AcDbLine
 10
1224.7605131309
 20
-107.3284394217
 30
0.0
 11
1234.5824158858
 21
-107.3284394217
 31
0.0
  0
LINE
  5
169
330
1F
100
AcDbEntity
  8
0
  6
Continuous
 62
     7
370
    25
100
AcDbLine
 10
1224.7605131309
 20
-107.3284394217
 30
0.0
 11
1224.7605131309
 21
-106.8284394217
 31
0.0
  0
LINE
  5
16A
330
1F
100
AcDbEntity
  8
0
  6
Continuous
 62
     7
370
    25
100
AcDbLine
 10
1233.8515932837
 20
-106.8284394217
 30
0.0
 11
1234.5824158858
 21
-106.8284394217
 31
0.0
  0
LINE
  5
16B
330
1F
100
AcDbEntity
  8
0
  6
Continuous
 62
     7
370
    25
100
AcDbLine
 10
39.6824158858
 20
-78.3284394217
 30
0.0
 11
39.6824158858
 21
-105.9624140179
 31
0.0
  0
SPLINE
  5
16C
330
1F
100
AcDbEntity
  8
0
  6
Continuous
 62
     7
370
    25
100
AcDbSpline
210
0.0
220
0.0
230
1.0
 70
     8
 71
     3
 72
     9
 73
     5
 74
     0
 42
0.00000001
 43
0.00000001
 40
0.0
 40
0.0
 40
0.0
 40
0.0
 40
0.4999999999999571
 40
0.9999999999999999
 40
0.9999999999999999
 40
0.9999999999999999
 40
0.9999999999999999
 10
39.89652862501814
 20
-72.8284394217219
 30
0.0
 10
39.834836510518
 20
-72.80611032235265
 30
0.0
 10
39.71145228151751
 20
-72.76145212361412
 30
0.0
 10
39.69209468436918
 20
-72.71679392487562
 30
0.0
 10
39.68241588579513
 20
-72.69446482550634
 30
0.0
  0
LINE
  5
16D
330
1F
100
AcDbEntity
  8
0
  6
Continuous
 62
     7
370
    25
100
AcDbLine
 10
40.3824158858
 20
-72.8284394217
 30
0.0
 11
39.896528625
 21
-72.8284394217
 31
0.0
  0
LINE
  5
16E
330
1F
100
AcDbEntity
  8
0
  6
Continuous
 62
     7
370
    25
100
AcDbLine
 10
39.896528625
 20
-105.8284394217
 30
0.0
 11
40.3824158858
 21
-105.8284394217
 31
0.0
  0
SPLINE
  5
16F
330
1F
100
AcDbEntity
  8
0
  6
Continuous
 62
     7
370
    25
100
AcDbSpline
210
0.0
220
0.0
230
1.0
 70
     8
 71
     3
 72
     9
 73
     5
 74
     0
 42
0.00000001
 43
0.00000001
 40
0.0
 40
0.0
 40
0.0
 40
0.0
 40
0.5000000000000429
 40
0.9999999999999999
 40
0.9999999999999999
 40
0.9999999999999999
 40
0.9999999999999999
 10
39.68241588579524
 20
-105.9624140179375
 30
0.0
 10
39.69209468436929
 20
-105.9400849185683
 30
0.0
 10
39.71145228151751
 20
-105.8954267198297
 30
0.0
 10
39.834836510518
 20
-105.8507685210912
 30
0.0
 10
39.89652862501825
 20
-105.828439421722
 30
0.0
  0
SPLINE
  5
170
330
1F
100
AcDbEntity
  8
0
  6
Continuous
 62
     7
370
    25
100
AcDbSpline
210
0.0
220
0.0
230
1.0
 70
     8
 71
     3
 72
     9
 73
     5
 74
     0
 42
0.00000001
 43
0.00000001
 40
0.0
 40
0.0
 40
0.0
 40
0.0
 40
0.5000000000000828
 40
1.0
 40
1.0
 40
1.0
 40
1.0
 10
40.18241588579519
 20
-105.9624140179375
 30
0.0
 10
40.18725528508227
 20
-105.9400849185683
 30
0.0
 10
40.19693408365632
 20
-105.8954267198298
 30
0.0
 10
40.25862619815668
 20
-105.8507685210912
 30
0.0
 10
40.2894722554068
 20
-105.828439421722
 30
0.0
  0
LINE
  5
171
330
1F
100
AcDbEntity
  8
0
  6
Continuous
 62
     7
370
    25
100
AcDbLine
 10
40.1824158858
 20
-105.9624140179
 30
0.0
 11
39.6824158858
 21
-105.9624140179
 31
0.0
  0
LINE
  5
172
330
1F
100
AcDbEntity
  8
0
  6
Continuous
 62
     7
370
    25
100
AcDbLine
 10
39.6824158858
 20
-72.6944648255
 30
0.0
 11
40.1824158858
 21
-72.6944648255
 31
0.0
  0
SPLINE
  5
173
330
1F
100
AcDbEntity
  8
0
  6
Continuous
 62
     7
370
    25
100
AcDbSpline
210
0.0
220
0.0
230
1.0
 70
     8
 71
     3
 72
     9
 73
     5
 74
     0
 42
0.00000001
 43
0.00000001
 40
0.0
 40
0.0
 40
0.0
 40
0.0
 40
0.4999999999999844
 40
1.0
 40
1.0
 40
1.0
 40
1.0
 10
40.28947225540669
 20
-72.8284394217219
 30
0.0
 10
40.25862619815646
 20
-72.80611032235265
 30
0.0
 10
40.1969340836561
 20
-72.76145212361413
 30
0.0
 10
40.18725528508216
 20
-72.7167939248756
 30
0.0
 10
40.18241588579507
 20
-72.69446482550634
 30
0.0
  0
LINE
  5
174
330
1F
100
AcDbEntity
  8
0
  6
Continuous
 62
     7
370
    25
100
AcDbLine
 10
39.6824158858
 20
-106.3284394217
 30
0.0
 11
40.1824158858
 21
-106.3284394217
 31
0.0
  0
LINE
  5
175
330
1F
100
AcDbEntity
  8
0
  6
Continuous
 62
     7
370
    25
100
AcDbLine
 10
40.1824158858
 20
-105.9624140179
 30
0.0
 11
40.1824158858
 21
-106.3284394217
 31
0.0
  0
LINE
  5
176
330
1F
100
AcDbEntity
  8
0
  6
Continuous
 62
     7
370
    25
100
AcDbLine
 10
39.6824158858
 20
-105.9624140179
 30
0.0
 11
39.6824158858
 21
-106.3284394217
 31
0.0
  0
LINE
  5
177
330
1F
100
AcDbEntity
  8
0
  6
Continuous
 62
     7
370
    25
100
AcDbLine
 10
40.1824158858
 20
-72.3284394217
 30
0.0
 11
39.6824158858
 21
-72.3284394217
 31
0.0
  0
LINE
  5
178
330
1F
100
AcDbEntity
  8
0
  6
Continuous
 62
     7
370
    25
100
AcDbLine
 10
40.1824158858
 20
-72.3284394217
 30
0.0
 11
40.1824158858
 21
-72.6944648255
 31
0.0
  0
SPLINE
  5
179
330
1F
100
AcDbEntity
  8
0
  6
Continuous
 62
     7
370
    25
100
AcDbSpline
210
0.0
220
0.0
230
1.0
 70
     8
 71
     3
 72
     9
 73
     5
 74
     0
 42
0.00000001
 43
0.00000001
 40
0.0
 40
0.0
 40
0.0
 40
0.0
 40
0.5000000000000384
 40
1.0
 40
1.0
 40
1.0
 40
1.0
 10
39.89652862501825
 20
-106.9468092247916
 30
0.0
 10
39.83483651051789
 20
-106.8527524885773
 30
0.0
 10
39.71145228151729
 20
-106.6646390161487
 30
0.0
 10
39.69209468436941
 20
-106.4405059531975
 30
0.0
 10
39.68241588579524
 20
-106.3284394217219
 30
0.0
  0
SPLINE
  5
17A
330
1F
100
AcDbEntity
  8
0
  6
Continuous
 62
     7
370
    25
100
AcDbSpline
210
0.0
220
0.0
230
1.0
 70
     8
 71
     3
 72
     9
 73
     5
 74
     0
 42
0.00000001
 43
0.00000001
 40
0.0
 40
0.0
 40
0.0
 40
0.0
 40
0.499999999999993
 40
0.9999999999999999
 40
0.9999999999999999
 40
0.9999999999999999
 40
0.9999999999999999
 10
40.28947225540669
 20
-106.6376243232567
 30
0.0
 10
40.25862619815656
 20
-106.5905959551496
 30
0.0
 10
40.19693408365643
 20
-106.4965392189353
 30
0.0
 10
40.18725528508238
 20
-106.3844726874597
 30
0.0
 10
40.18241588579519
 20
-106.3284394217219
 30
0.0
  0
LINE
  5
17B
330
1F
100
AcDbEntity
  8
0
  6
Continuous
 62
     7
370
    25
100
AcDbLine
 10
40.2894722554
 20
-106.6376243233
 30
0.0
 11
39.896528625
 21
-106.9468092248
 31
0.0
  0
SPLINE
  5
17C
330
1F
100
AcDbEntity
  8
0
  6
Continuous
 62
     7
370
    25
100
AcDbSpline
210
0.0
220
0.0
230
1.0
 70
     8
 71
     3
 72
     9
 73
     5
 74
     0
 42
0.00000001
 43
0.00000001
 40
0.0
 40
0.0
 40
0.0
 40
0.0
 40
0.4999999999999865
 40
1.0
 40
1.0
 40
1.0
 40
1.0
 10
39.68241588579513
 20
-72.3284394217219
 30
0.0
 10
39.69209468436918
 20
-72.2163728902463
 30
0.0
 10
39.71145228151718
 20
-71.9922398272951
 30
0.0
 10
39.83483651051778
 20
-71.8041263548665
 30
0.0
 10
39.89652862501814
 20
-71.71006961865217
 30
0.0
  0
LINE
  5
17D
330
1F
100
AcDbEntity
  8
0
  6
Continuous
 62
     7
370
    25
100
AcDbLine
 10
40.2894722554
 20
-72.0192545202
 30
0.0
 11
39.896528625
 21
-71.7100696187
 31
0.0
  0
SPLINE
  5
17E
330
1F
100
AcDbEntity
  8
0
  6
Continuous
 62
     7
370
    25
100
AcDbSpline
210
0.0
220
0.0
230
1.0
 70
     8
 71
     3
 72
     9
 73
     5
 74
     0
 42
0.00000001
 43
0.00000001
 40
0.0
 40
0.0
 40
0.0
 40
0.0
 40
0.5000000000000079
 40
1.0
 40
1.0
 40
1.0
 40
1.0
 10
40.18241588579507
 20
-72.3284394217219
 30
0.0
 10
40.18725528508205
 20
-72.27240615598413
 30
0.0
 10
40.19693408365621
 20
-72.16033962450852
 30
0.0
 10
40.25862619815668
 20
-72.06628288829418
 30
0.0
 10
40.28947225540669
 20
-72.01925452018703
 30
0.0
  0
LINE
  5
17F
330
1F
100
AcDbEntity
  8
0
  6
Continuous
 62
     7
370
    25
100
AcDbLine
 10
40.6824158858
 20
-107.3284394217
 30
0.0
 11
40.6824158858
 21
-106.8284394217
 31
0.0
  0
ARC
  5
180
330
1F
100
AcDbEntity
  8
0
  6
Continuous
 62
     7
370
    25
100
AcDbCircle
 10
40.6824158858
 20
-106.3284394217
 30
0.0
 40
1.0
100
AcDbArc
 50
218.197186342
 51
270.0
  0
ARC
  5
181
330
1F
100
AcDbEntity
  8
0
  6
Continuous
 62
     7
370
    25
100
AcDbCircle
 10
40.6824158858
 20
-106.3284394217
 30
0.0
 40
0.5000000000000274
100
AcDbArc
 50
218.197186342
 51
270.0
  0
ARC
  5
182
330
1F
100
AcDbEntity
  8
0
  6
Continuous
 62
     7
370
    25
100
AcDbCircle
 10
40.6824158858
 20
-72.3284394217
 30
0.0
 40
1.00000000000003
100
AcDbArc
 50
107.457603124
 51
141.8028136579
  0
ARC
  5
183
330
1F
100
AcDbEntity
  8
0
  6
Continuous
 62
     7
370
    25
100
AcDbCircle
 10
40.6824158858
 20
-72.3284394217
 30
0.0
 40
0.4999999999999872
100
AcDbArc
 50
126.8698976464
 51
141.8028136579
  0
LINE
  5
184
330
1F
100
AcDbEntity
  8
0
  6
Continuous
 62
     7
370
    25
100
AcDbLine
 10
42.2895473671
 20
-107.3284394217
 30
0.0
 11
42.2895473671
 21
-106.8284394217
 31
0.0
  0
LINE
  5
185
330
1F
100
AcDbEntity
  8
0
  6
Continuous
 62
     7
370
    25
100
AcDbLine
 10
41.6205826355
 20
-107.3284394217
 30
0.0
 11
41.6205826355
 21
-106.8284394217
 31
0.0
  0
LINE
  5
186
330
1F
100
AcDbEntity
  8
0
  6
Continuous
 62
     7
370
    25
100
AcDbLine
 10
41.6205826355
 20
-107.3284394217
 30
0.0
 11
42.2895473671
 21
-107.3284394217
 31
0.0
  0
LINE
  5
187
330
1F
100
AcDbEntity
  8
0
  6
Continuous
 62
     7
370
    25
100
AcDbLine
 10
40.6824158858
 20
-107.3284394217
 30
0.0
 11
41.6205826355
 21
-107.3284394217
 31
0.0
  0
LINE
  5
188
330
1F
100
AcDbEntity
  8
0
  6
Continuous
 62
     7
370
    25
100
AcDbLine
 10
40.6824158858
 20
-106.8284394217
 30
0.0
 11
40.9440610899
 21
-106.8284394217
 31
0.0
  0
LINE
  5
189
330
1F
100
AcDbEntity
  8
0
  6
Continuous
 62
     7
370
    25
100
AcDbLine
 10
52.0043186407
 20
-107.3284394217
 30
0.0
 11
52.0043186407
 21
-106.8284394217
 31
0.0
  0
LINE
  5
18A
330
1F
100
AcDbEntity
  8
0
  6
Continuous
 62
     7
370
    25
100
AcDbLine
 10
42.2895473671
 20
-107.3284394217
 30
0.0
 11
52.0043186407
 21
-107.3284394217
 31
0.0
  0
LINE
  5
18B
330
1F
100
AcDbEntity
  8
0
  6
Continuous
 62
     8
370
    25
100
AcDbLine
 10
1215.0641702546
 20
-62.6206959322
 30
0.0
 11
1215.5142746974
 21
-60.577925084
 31
0.0
  0
LINE
  5
18C
330
1F
100
AcDbEntity
  8
0
  6
Continuous
 62
     8
370
    25
100
AcDbLine
 10
1196.196661517
 20
-62.6206959322
 30
0.0
 11
1195.7465570742
 21
-60.577925084
 31
0.0
  0
ARC
  5
18D
330
1F
100
AcDbEntity
  8
0
  6
Continuous
 62
     7
370
    25
100
AcDbCircle
 10
1608.2120060312
 20
-89.3284394217
 30
0.0
 40
4.176571428571404
100
AcDbArc
 50
131.666740314
 51
167.204404999
  0
ARC
  5
18E
330
1F
100
AcDbEntity
  8
0
  6
Continuous
 62
     7
370
    25
100
AcDbCircle
 10
1608.2120060312
 20
-89.3284394217
 30
0.0
 40
4.176571428571417
100
AcDbArc
 50
192.795595001
 51
228.333259686
  0
LINE
  5
18F
330
1F
100
AcDbEntity
  8
0
  6
Continuous
 62
     7
370
    25
100
AcDbLine
 10
1605.9354346026
 20
-90.9284394217
 30
0.0
 11
1606.3354346026
 21
-90.9284394217
 31
0.0
  0
LINE
  5
190
330
1F
100
AcDbEntity
  8
0
  6
Continuous
 62
     7
370
    25
100
AcDbLine
 10
1606.3354346026
 20
-87.7284394217
 30
0.0
 11
1605.9354346026
 21
-87.7284394217
 31
0.0
  0
ARC
  5
191
330
1F
100
AcDbEntity
  8
0
  6
Continuous
 62
     7
370
    25
100
AcDbCircle
 10
2199.0588631741
 20
-89.3284394217
 30
0.0
 40
4.176571428571626
100
AcDbArc
 50
12.795595001
 51
48.333259686
  0
ARC
  5
192
330
1F
100
AcDbEntity
  8
0
  6
Continuous
 62
     7
370
    25
100
AcDbCircle
 10
2199.0588631741
 20
-89.3284394217
 30
0.0
 40
4.176571428571632
100
AcDbArc
 50
311.666740314
 51
347.204404999
  0
LINE
  5
193
330
1F
100
AcDbEntity
  8
0
  6
Continuous
 62
     7
370
    25
100
AcDbLine
 10
1604.1391539718
 20
-88.4034394217
 30
0.0
 11
1604.1391539718
 21
-90.2534394217
 31
0.0
  0
LINE
  5
194
330
1F
100
AcDbEntity
  8
0
  6
Continuous
 62
     7
370
    25
100
AcDbLine
 10
2203.1317152335
 20
-90.2534394217
 30
0.0
 11
2203.1317152335
 21
-88.4034394217
 31
0.0
  0
LINE
  5
195
330
1F
100
AcDbEntity
  8
0
  6
Continuous
 62
     7
370
    25
100
AcDbLine
 10
1606.9354346026
 20
-106.3284394217
 30
0.0
 11
1606.9354346026
 21
-105.8786772435
 31
0.0
  0
SPLINE
  5
196
330
1F
100
AcDbEntity
  8
0
  6
Continuous
 62
     7
370
    25
100
AcDbSpline
210
0.0
220
0.0
230
1.0
 70
     8
 71
     3
 72
     9
 73
     5
 74
     0
 42
0.00000001
 43
0.00000001
 40
0.0
 40
0.0
 40
0.0
 40
0.0
 40
0.5931105904960017
 40
1.0
 40
1.0
 40
1.0
 40
1.0
 10
1861.691035755002
 20
-60.69805092130649
 30
0.0
 10
1861.679971904706
 20
-61.03772384352992
 30
0.0
 10
1861.661317963141
 20
-61.61042129265044
 30
0.0
 10
1861.491581221213
 20
-62.16117939978378
 30
0.0
 10
1861.422517138519
 20
-62.38527704077482
 30
0.0
  0
SPLINE
  5
197
330
1F
100
AcDbEntity
  8
0
  6
Continuous
 62
     7
370
    25
100
AcDbSpline
210
0.0
220
0.0
230
1.0
 70
     8
 71
     3
 72
     9
 73
     5
 74
     0
 42
0.00000001
 43
0.00000001
 40
0.0
 40
0.0
 40
0.0
 40
0.0
 40
0.5600000000000057
 40
1.0
 40
1.0
 40
1.0
 40
1.0
 10
1861.422517138519
 20
-62.38527704077482
 30
0.0
 10
1861.303049646083
 20
-62.38028916453096
 30
0.0
 10
1861.089714838161
 20
-62.37138224266694
 30
0.0
 10
1860.815098149885
 20
-62.37056257086378
 30
0.0
 10
1860.694266807044
 20
-62.37020191527039
 30
0.0
  0
LINE
  5
198
330
1F
100
AcDbEntity
  8
0
  6
Continuous
 62
     7
370
    25
100
AcDbLine
 10
1860.694266807
 20
-62.3702019153
 30
0.0
 11
1860.690389351
 21
-60.3646806353
 31
0.0
  0
SPLINE
  5
199
330
1F
100
AcDbEntity
  8
0
  6
Continuous
 62
     7
370
    25
100
AcDbSpline
210
0.0
220
0.0
230
1.0
 70
     8
 71
     3
 72
    11
 73
     7
 74
     0
 42
0.00000001
 43
0.00000001
 40
0.0
 40
0.0
 40
0.0
 40
0.0
 40
0.2796579740371974
 40
0.5592666022935242
 40
0.7796650582495788
 40
1.0
 40
1.0
 40
1.0
 40
1.0
 10
1860.690389351022
 20
-60.36468063529337
 30
0.0
 10
1860.837581756556
 20
-60.36691029280112
 30
0.0
 10
1861.131940595455
 20
-60.37136921439249
 30
0.0
 10
1861.460762686513
 20
-60.40825478100591
 30
0.0
 10
1861.65607575763
 20
-60.45683612125931
 30
0.0
 10
1861.67915157609
 20
-60.49767481021191
 30
0.0
 10
1861.690687822589
 20
-60.51809121205113
 30
0.0
  0
LINE
  5
19A
330
1F
100
AcDbEntity
  8
0
  6
Continuous
 62
     7
370
    25
100
AcDbLine
 10
1861.6906878226
 20
-60.5180912121
 30
0.0
 11
1861.691035755
 21
-60.6980509213
 31
0.0
  0
SPLINE
  5
19B
330
1F
100
AcDbEntity
  8
0
  6
Continuous
 62
     7
370
    25
100
AcDbSpline
210
0.0
220
0.0
230
1.0
 70
     8
 71
     3
 72
     9
 73
     5
 74
     0
 42
0.00000001
 43
0.00000001
 40
0.0
 40
0.0
 40
0.0
 40
0.0
 40
0.5600000000000568
 40
1.0
 40
1.0
 40
1.0
 40
1.0
 10
1860.294267554642
 20
-62.37097527007127
 30
0.0
 10
1860.139850656989
 20
-62.3722541120982
 30
0.0
 10
1859.864106196894
 20
-62.37453775857489
 30
0.0
 10
1859.657144226509
 20
-62.38448810474642
 30
0.0
 10
1859.566080959539
 20
-62.38886625706189
 30
0.0
  0
SPLINE
  5
19C
330
1F
100
AcDbEntity
  8
0
  6
Continuous
 62
     7
370
    25
100
AcDbSpline
210
0.0
220
0.0
230
1.0
 70
     8
 71
     3
 72
     9
 73
     5
 74
     0
 42
0.00000001
 43
0.00000001
 40
0.0
 40
0.0
 40
0.0
 40
0.0
 40
0.5304166037466982
 40
0.9999999999999999
 40
0.9999999999999999
 40
0.9999999999999999
 40
0.9999999999999999
 10
1859.566080959539
 20
-62.38886625706189
 30
0.0
 10
1859.479325608052
 20
-62.09571912300627
 30
0.0
 10
1859.31576483172
 20
-61.54304574893595
 30
0.0
 10
1859.298940613922
 20
-60.97121382638785
 30
0.0
 10
1859.291040240589
 20
-60.70269105011167
 30
0.0
  0
LINE
  5
19D
330
1F
100
AcDbEntity
  8
0
  6
Continuous
 62
     7
370
    25
100
AcDbLine
 10
1859.2910402406
 20
-60.7026910501
 30
0.0
 11
1859.2906923082
 21
-60.5227313409
 31
0.0
  0
SPLINE
  5
19E
330
1F
100
AcDbEntity
  8
0
  6
Continuous
 62
     7
370
    25
100
AcDbSpline
210
0.0
220
0.0
230
1.0
 70
     8
 71
     3
 72
    11
 73
     7
 74
     0
 42
0.00000001
 43
0.00000001
 40
0.0
 40
0.0
 40
0.0
 40
0.0
 40
0.2796579740371103
 40
0.5592666022933181
 40
0.7796650582493384
 40
1.0
 40
1.0
 40
1.0
 40
1.0
 10
1860.290390098619
 20
-60.36545399009426
 30
0.0
 10
1860.143207415057
 20
-60.36825278963669
 30
0.0
 10
1859.848868018386
 20
-60.37384989487208
 30
0.0
 10
1859.520191013475
 20
-60.4120066640675
 30
0.0
 10
1859.325067255226
 20
-60.46134287122292
 30
0.0
 10
1859.302149522965
 20
-60.50227048367483
 30
0.0
 10
1859.290692308175
 20
-60.52273134085632
 30
0.0
  0
LINE
  5
19F
330
1F
100
AcDbEntity
  8
0
  6
Continuous
 62
     7
370
    25
100
AcDbLine
 10
1860.2903900986
 20
-60.3654539901
 30
0.0
 11
1860.2942675546
 21
-62.3709752701
 31
0.0
  0
LINE
  5
1A0
330
1F
100
AcDbEntity
  8
0
  6
Continuous
 62
     7
370
    25
100
AcDbLine
 10
1860.2942675546
 20
-62.3709752701
 30
0.0
 11
1860.694266807
 21
-62.3702019153
 31
0.0
  0
LINE
  5
1A1
330
1F
100
AcDbEntity
  8
0
  6
Continuous
 62
     7
370
    25
100
AcDbLine
 10
1860.2903900986
 20
-60.3654539901
 30
0.0
 11
1860.690389351
 21
-60.3646806353
 31
0.0
  0
LINE
  5
1A2
330
1F
100
AcDbEntity
  8
0
  6
Continuous
 62
     7
370
    25
100
AcDbLine
 10
1859.5660809595
 20
-62.3888662571
 30
0.0
 11
1861.4225171385
 21
-62.3852770408
 31
0.0
  0
SPLINE
  5
1A3
330
1F
100
AcDbEntity
  8
0
  6
Continuous
 62
     7
370
    25
100
AcDbSpline
210
0.0
220
0.0
230
1.0
 70
     8
 71
     3
 72
    11
 73
     7
 74
     0
 42
0.00000001
 43
0.00000001
 40
0.0
 40
0.0
 40
0.0
 40
0.0
 40
0.2702613318128886
 40
0.5624293896420998
 40
0.7897364218595442
 40
1.0
 40
1.0
 40
1.0
 40
1.0
 10
1859.290014191246
 20
-60.17199159680516
 30
0.0
 10
1859.307387012403
 20
-60.03931580830665
 30
0.0
 10
1859.343540853333
 20
-59.76320985469147
 30
0.0
 10
1859.613431910609
 20
-59.44871919817298
 30
0.0
 10
1859.949481917386
 20
-59.26532884177179
 30
0.0
 10
1860.178266098796
 20
-59.24418248983818
 30
0.0
 10
1860.288202596967
 20
-59.23402114097946
 30
0.0
  0
SPLINE
  5
1A4
330
1F
100
AcDbEntity
  8
0
  6
Continuous
 62
     7
370
    25
100
AcDbSpline
210
0.0
220
0.0
230
1.0
 70
    24
 71
     3
 72
    10
 73
     6
 74
     0
 42
0.00000001
 43
0.00000001
 40
0.0
 40
0.0
 40
0.0
 40
0.0
 40
0.2768779234291574
 40
0.5624038656204023
 40
0.9999999999999999
 40
0.9999999999999999
 40
0.9999999999999999
 40
0.9999999999999999
 10
1860.288202596967
 20
-59.23402114097947
 30
0.0
 10
1860.288321529116
 20
-59.29553594720646
 30
0.0
 10
1860.288563108146
 20
-59.4204869161623
 30
0.0
 10
1860.289281631435
 20
-59.79212588186799
 30
0.0
 10
1860.289972201364
 20
-60.14930664138888
 30
0.0
 10
1860.290390098619
 20
-60.36545399009426
 30
0.0
  0
SPLINE
  5
1A5
330
1F
100
AcDbEntity
  8
0
  6
Continuous
 62
     7
370
    25
100
AcDbSpline
210
0.0
220
0.0
230
1.0
 70
    24
 71
     3
 72
     9
 73
     5
 74
     0
 42
0.00000001
 43
0.00000001
 40
0.0
 40
0.0
 40
0.0
 40
0.0
 40
0.5600000000001135
 40
1.0
 40
1.0
 40
1.0
 40
1.0
 10
1859.290692308175
 20
-60.52273134085632
 30
0.0
 10
1859.290524994034
 20
-60.43619210744528
 30
0.0
 10
1859.290226218781
 20
-60.28165776206847
 30
0.0
 10
1859.290078977437
 20
-60.20550070285783
 30
0.0
 10
1859.290014191246
 20
-60.17199159680516
 30
0.0
  0
SPLINE
  5
1A6
330
1F
100
AcDbEntity
  8
0
  6
Continuous
 62
     7
370
    25
100
AcDbSpline
210
0.0
220
0.0
230
1.0
 70
     8
 71
     3
 72
    11
 73
     7
 74
     0
 42
0.00000001
 43
0.00000001
 40
0.0
 40
0.0
 40
0.0
 40
0.0
 40
0.270261331812892
 40
0.5624293896420862
 40
0.7897364218595286
 40
1.0
 40
1.0
 40
1.0
 40
1.0
 10
1860.688201849369
 20
-59.23324778617858
 30
0.0
 10
1860.829939099159
 20
-59.24947549487388
 30
0.0
 10
1861.124902475362
 20
-59.28324629084965
 30
0.0
 10
1861.460813646205
 20
-59.53579449241641
 30
0.0
 10
1861.656649345588
 20
-59.85030360352296
 30
0.0
 10
1861.67918213774
 20
-60.06444918280059
 30
0.0
 10
1861.690009705659
 20
-60.16735146799989
 30
0.0
  0
SPLINE
  5
1A7
330
1F
100
AcDbEntity
  8
0
  6
Continuous
 62
     7
370
    25
100
AcDbSpline
210
0.0
220
0.0
230
1.0
 70
    24
 71
     3
 72
     9
 73
     5
 74
     0
 42
0.00000001
 43
0.00000001
 40
0.0
 40
0.0
 40
0.0
 40
0.0
 40
0.5600000000000579
 40
1.0
 40
1.0
 40
1.0
 40
1.0
 10
1861.690009705659
 20
-60.16735146799988
 30
0.0
 10
1861.690097768071
 20
-60.21289964192287
 30
0.0
 10
1861.690255022379
 20
-60.29423566678533
 30
0.0
 10
1861.69055557808
 20
-60.44969090655324
 30
0.0
 10
1861.690687822589
 20
-60.51809121205113
 30
0.0
  0
SPLINE
  5
1A8
330
1F
100
AcDbEntity
  8
0
  6
Continuous
 62
     7
370
    25
100
AcDbSpline
210
0.0
220
0.0
230
1.0
 70
    24
 71
     3
 72
    10
 73
     6
 74
     0
 42
0.00000001
 43
0.00000001
 40
0.0
 40
0.0
 40
0.0
 40
0.0
 40
0.2768779234291509
 40
0.562403865620429
 40
1.0
 40
1.0
 40
1.0
 40
1.0
 10
1860.690389351022
 20
-60.36468063529337
 30
0.0
 10
1860.690123766121
 20
-60.22731320485889
 30
0.0
 10
1860.689584301027
 20
-59.94828780286989
 30
0.0
 10
1860.688752244931
 20
-59.5179267112027
 30
0.0
 10
1860.688409351042
 20
-59.34057305768258
 30
0.0
 10
1860.688201849369
 20
-59.23324778617858
 30
0.0
  0
LINE
  5
1A9
330
1F
100
AcDbEntity
  8
0
  6
Continuous
 62
     7
370
    25
100
AcDbLine
 10
1860.6882018494
 20
-59.2332477862
 30
0.0
 11
1860.288202597
 21
-59.234021141
 31
0.0
  0
SPLINE
  5
1AA
330
1F
100
AcDbEntity
  8
0
  6
Continuous
 62
     7
370
    25
100
AcDbSpline
210
0.0
220
0.0
230
1.0
 70
     8
 71
     3
 72
    11
 73
     7
 74
     0
 42
0.00000001
 43
0.00000001
 40
0.0
 40
0.0
 40
0.0
 40
0.0
 40
0.2702613318128884
 40
0.5624293896420859
 40
0.7897364218595205
 40
1.0
 40
1.0
 40
1.0
 40
1.0
 10
1860.288078935249
 20
-59.17006007879736
 30
0.0
 10
1860.146407673918
 20
-59.18796331996617
 30
0.0
 10
1859.851581623494
 20
-59.22522099547471
 30
0.0
 10
1859.516682959229
 20
-59.49636757596929
 30
0.0
 10
1859.322106457579
 20
-59.83314834032259
 30
0.0
 10
1859.300430181741
 20
-60.06201531459946
 30
0.0
 10
1859.290014191246
 20
-60.17199159680516
 30
0.0
  0
SPLINE
  5
1AB
330
1F
100
AcDbEntity
  8
0
  6
Continuous
 62
     7
370
    25
100
AcDbSpline
210
0.0
220
0.0
230
1.0
 70
    24
 71
     3
 72
     9
 73
     5
 74
     0
 42
0.00000001
 43
0.00000001
 40
0.0
 40
0.0
 40
0.0
 40
0.0
 40
0.5599999999999228
 40
1.0
 40
1.0
 40
1.0
 40
1.0
 10
1860.288078935249
 20
-59.17006007879736
 30
0.0
 10
1860.28808556802
 20
-59.17349072077235
 30
0.0
 10
1860.288097412254
 20
-59.17961686715627
 30
0.0
 10
1860.288170457193
 20
-59.21739761286682
 30
0.0
 10
1860.288202596967
 20
-59.23402114097947
 30
0.0
  0
SPLINE
  5
1AC
330
1F
100
AcDbEntity
  8
0
  6
Continuous
 62
     7
370
    25
100
AcDbSpline
210
0.0
220
0.0
230
1.0
 70
    24
 71
     3
 72
     9
 73
     5
 74
     0
 42
0.00000001
 43
0.00000001
 40
0.0
 40
0.0
 40
0.0
 40
0.0
 40
0.5600000000000545
 40
1.0
 40
1.0
 40
1.0
 40
1.0
 10
1860.688201849369
 20
-59.23324778617858
 30
0.0
 10
1860.688162250283
 20
-59.21276610719553
 30
0.0
 10
1860.68809153763
 20
-59.17619168044008
 30
0.0
 10
1860.688082266812
 20
-59.17139657179869
 30
0.0
 10
1860.688078187652
 20
-59.16928672399647
 30
0.0
  0
SPLINE
  5
1AD
330
1F
100
AcDbEntity
  8
0
  6
Continuous
 62
     7
370
    25
100
AcDbSpline
210
0.0
220
0.0
230
1.0
 70
     8
 71
     3
 72
    11
 73
     7
 74
     0
 42
0.00000001
 43
0.00000001
 40
0.0
 40
0.0
 40
0.0
 40
0.0
 40
0.0661662827717967
 40
0.4400485989930184
 40
0.7309294034528735
 40
1.0
 40
1.0
 40
1.0
 40
1.0
 10
1861.617474639425
 20
-59.83416606694517
 30
0.0
 10
1861.612513164864
 20
-59.80761732368281
 30
0.0
 10
1861.579516148284
 20
-59.63105100034971
 30
0.0
 10
1861.357516887361
 20
-59.39819076493619
 30
0.0
 10
1861.028182196037
 20
-59.2009233754025
 30
0.0
 10
1860.798463664387
 20
-59.17955483834288
 30
0.0
 10
1860.688078187652
 20
-59.16928672399647
 30
0.0
  0
LINE
  5
1AE
330
1F
100
AcDbEntity
  8
0
  6
Continuous
 62
     7
370
    25
100
AcDbLine
 10
1860.6880781877
 20
-59.169286724
 30
0.0
 11
1860.2880789352
 21
-59.1700600788
 31
0.0
  0
LINE
  5
1AF
330
1F
100
AcDbEntity
  8
0
  6
Continuous
 62
     7
370
    25
100
AcDbLine
 10
1861.6947529788
 20
-62.6206959322
 30
0.0
 11
1861.6910304252
 21
-60.6952941918
 31
0.0
  0
LINE
  5
1B0
330
1F
100
AcDbEntity
  8
0
  6
Continuous
 62
     7
370
    25
100
AcDbLine
 10
1859.2910403179
 20
-60.70273105
 30
0.0
 11
1859.2947484932
 21
-62.6206959322
 31
0.0
  0
LINE
  5
1B1
330
1F
100
AcDbEntity
  8
0
  6
Continuous
 62
     7
370
    25
100
AcDbLine
 10
1842.8874346027
 20
-62.6206959322
 30
0.0
 11
1842.8874346027
 21
-61.1206959322
 31
0.0
  0
LINE
  5
1B2
330
1F
100
AcDbEntity
  8
0
  6
Continuous
 62
     7
370
    25
100
AcDbLine
 10
1827.8874346027
 20
-62.6206959322
 30
0.0
 11
1827.8874346027
 21
-61.1206959322
 31
0.0
  0
LINE
  5
1B3
330
1F
100
AcDbEntity
  8
0
  6
Continuous
 62
     7
370
    25
100
AcDbLine
 10
1827.8874346027
 20
-61.1206959322
 30
0.0
 11
1842.8874346027
 21
-61.1206959322
 31
0.0
  0
SPLINE
  5
1B4
330
1F
100
AcDbEntity
  8
0
  6
Continuous
 62
     7
370
    25
100
AcDbSpline
210
0.0
220
0.0
230
1.0
 70
     8
 71
     3
 72
    12
 73
     8
 74
     0
 42
0.00000001
 43
0.00000001
 40
0.0
 40
0.0
 40
0.0
 40
0.0
 40
0.2893414007533696
 40
0.3971452045719336
 40
0.4846423278158128
 40
0.6854347491537599
 40
1.0
 40
1.0
 40
1.0
 40
1.0
 10
2200.635434602639
 20
-62.78309948982468
 30
0.0
 10
2200.554695238899
 20
-62.76997381207345
 30
0.0
 10
2200.443873728233
 20
-62.75195772463459
 30
0.0
 10
2200.322997486682
 20
-62.72013170329614
 30
0.0
 10
2200.241203265459
 20
-62.68834155043977
 30
0.0
 10
2200.18292076529
 20
-62.63530102167156
 30
0.0
 10
2200.153433257989
 20
-62.62623169159048
 30
0.0
 10
2200.135434602625
 20
-62.62069593216371
 30
0.0
  0
LINE
  5
1B5
330
1F
100
AcDbEntity
  8
0
  6
Continuous
 62
     7
370
    25
100
AcDbLine
 10
1606.6354346026
 20
-63.8206959322
 30
0.0
 11
2200.6354346026
 21
-63.8206959322
 31
0.0
  0
LINE
  5
1B6
330
1F
100
AcDbEntity
  8
0
  6
Continuous
 62
     7
370
    25
100
AcDbLine
 10
1606.6354346026
 20
-62.7830994898
 30
0.0
 11
1606.6354346026
 21
-63.8206959322
 31
0.0
  0
SPLINE
  5
1B7
330
1F
100
AcDbEntity
  8
0
  6
Continuous
 62
     7
370
    25
100
AcDbSpline
210
0.0
220
0.0
230
1.0
 70
     8
 71
     3
 72
    12
 73
     8
 74
     0
 42
0.00000001
 43
0.00000001
 40
0.0
 40
0.0
 40
0.0
 40
0.0
 40
0.3006396950229422
 40
0.4108252157725711
 40
0.4972322866782489
 40
0.6936496683152684
 40
1.0
 40
1.0
 40
1.0
 40
1.0
 10
1607.135434602625
 20
-62.62069593216371
 30
0.0
 10
1607.122984946432
 20
-62.62596327130844
 30
0.0
 10
1607.105972446831
 20
-62.63316110904078
 30
0.0
 10
1607.05759507658
 20
-62.66852923330152
 30
0.0
 10
1606.997998384907
 20
-62.69976338876518
 30
0.0
 10
1606.849499906023
 20
-62.7376419781375
 30
0.0
 10
1606.716484552138
 20
-62.765888251157
 30
0.0
 10
1606.635434602625
 20
-62.78309948982468
 30
0.0
  0
LINE
  5
1B8
330
1F
100
AcDbEntity
  8
0
  6
Continuous
 62
     7
370
    25
100
AcDbLine
 10
1607.1354346026
 20
-62.6206959322
 30
0.0
 11
2200.1354346026
 21
-62.6206959322
 31
0.0
  0
LINE
  5
1B9
330
1F
100
AcDbEntity
  8
0
  6
Continuous
 62
     7
370
    25
100
AcDbLine
 10
2200.6354346026
 20
-63.8206959322
 30
0.0
 11
2200.6354346026
 21
-62.7830994898
 31
0.0
  0
LINE
  5
1BA
330
1F
100
AcDbEntity
  8
0
  6
Continuous
 62
     7
370
    25
100
AcDbLine
 10
2200.6354346026
 20
-63.8206959322
 30
0.0
 11
2200.6354346026
 21
-78.3284394217
 31
0.0
  0
LINE
  5
1BB
330
1F
100
AcDbEntity
  8
0
  6
Continuous
 62
     7
370
    25
100
AcDbLine
 10
2200.6354346026
 20
-78.3284394217
 30
0.0
 11
1606.6354346026
 21
-78.3284394217
 31
0.0
  0
LINE
  5
1BC
330
1F
100
AcDbEntity
  8
0
  6
Continuous
 62
     7
370
    25
100
AcDbLine
 10
1606.6354346026
 20
-78.3284394217
 30
0.0
 11
1606.6354346026
 21
-63.8206959322
 31
0.0
  0
LINE
  5
1BD
330
1F
100
AcDbEntity
  8
0
  6
Continuous
 62
     7
370
    25
100
AcDbLine
 10
2200.9870804108
 20
-63.2154313408
 30
0.0
 11
2201.2382559881
 21
-62.7830994898
 31
0.0
  0
ARC
  5
1BE
330
1F
100
AcDbEntity
  8
0
  6
Continuous
 62
     7
370
    25
100
AcDbCircle
 10
2200.6354346026
 20
-63.8206959322
 30
0.0
 40
1.200000000000011
100
AcDbArc
 50
0.0
 51
59.8443265721
  0
LINE
  5
1BF
330
1F
100
AcDbEntity
  8
0
  6
Continuous
 62
     7
370
    25
100
AcDbLine
 10
2201.3354346026
 20
-63.8206959322
 30
0.0
 11
2201.8354346026
 21
-63.8206959322
 31
0.0
  0
ARC
  5
1C0
330
1F
100
AcDbEntity
  8
0
  6
Continuous
 62
     7
370
    25
100
AcDbCircle
 10
2200.6354346026
 20
-63.8206959322
 30
0.0
 40
0.6999999999998491
100
AcDbArc
 50
0.0
 51
59.8443265721
  0
LINE
  5
1C1
330
1F
100
AcDbEntity
  8
0
  6
Continuous
 62
     7
370
    25
100
AcDbLine
 10
2200.6354346026
 20
-62.6206959322
 30
0.0
 11
2200.1354346026
 21
-62.6206959322
 31
0.0
  0
SPLINE
  5
1C2
330
1F
100
AcDbEntity
  8
0
  6
Continuous
 62
     7
370
    25
100
AcDbSpline
210
0.0
220
0.0
230
1.0
 70
     8
 71
     3
 72
    12
 73
     8
 74
     0
 42
0.00000001
 43
0.00000001
 40
0.0
 40
0.0
 40
0.0
 40
0.0
 40
0.3006396947723612
 40
0.4108252155848285
 40
0.4972322866643925
 40
0.6936496680192166
 40
1.0
 40
1.0
 40
1.0
 40
1.0
 10
2200.635434602625
 20
-62.62069593216371
 30
0.0
 10
2200.722416087214
 20
-62.62596327130105
 30
0.0
 10
2200.841276596254
 20
-62.63316110902599
 30
0.0
 10
2200.973670048534
 20
-62.66852923325675
 30
0.0
 10
2201.06781333598
 20
-62.69976338873671
 30
0.0
 10
2201.155747396805
 20
-62.73764197813981
 30
0.0
 10
2201.207016375467
 20
-62.76588825114783
 30
0.0
 10
2201.238255988149
 20
-62.78309948982468
 30
0.0
  0
SPLINE
  5
1C3
330
1F
100
AcDbEntity
  8
0
  6
Continuous
 62
     7
370
    25
100
AcDbSpline
210
0.0
220
0.0
230
1.0
 70
     8
 71
     3
 72
    11
 73
     7
 74
     0
 42
0.00000001
 43
0.00000001
 40
0.0
 40
0.0
 40
0.0
 40
0.0
 40
0.2349722125567014
 40
0.327735052017135
 40
0.4088708125431049
 40
1.0
 40
1.0
 40
1.0
 40
1.0
 10
2200.635434602625
 20
-63.12069593216371
 30
0.0
 10
2200.686991023503
 20
-63.12398063867403
 30
0.0
 10
2200.758900999984
 20
-63.12856208874128
 30
0.0
 10
2200.835480220762
 20
-63.14943171266358
 30
0.0
 10
2200.944930136039
 20
-63.18632717471055
 30
0.0
 10
2200.967358728595
 20
-63.20181379931397
 30
0.0
 10
2200.987080410847
 20
-63.21543134079926
 30
0.0
  0
LINE
  5
1C4
330
1F
100
AcDbEntity
  8
0
  6
Continuous
 62
     7
370
    25
100
AcDbLine
 10
1607.1354346026
 20
-62.6206959322
 30
0.0
 11
1606.6354346026
 21
-62.6206959322
 31
0.0
  0
LINE
  5
1C5
330
1F
100
AcDbEntity
  8
0
  6
Continuous
 62
     7
370
    25
100
AcDbLine
 10
1606.2837887944
 20
-63.2154313408
 30
0.0
 11
1606.0326132171
 21
-62.7830994898
 31
0.0
  0
ARC
  5
1C6
330
1F
100
AcDbEntity
  8
0
  6
Continuous
 62
     7
370
    25
100
AcDbCircle
 10
1606.6354346026
 20
-63.8206959322
 30
0.0
 40
0.7000000000000455
100
AcDbArc
 50
120.1556734279
 51
180.0
  0
LINE
  5
1C7
330
1F
100
AcDbEntity
  8
0
  6
Continuous
 62
     7
370
    25
100
AcDbLine
 10
1605.9354346026
 20
-63.8206959322
 30
0.0
 11
1605.4354346026
 21
-63.8206959322
 31
0.0
  0
ARC
  5
1C8
330
1F
100
AcDbEntity
  8
0
  6
Continuous
 62
     7
370
    25
100
AcDbCircle
 10
1606.6354346026
 20
-63.8206959322
 30
0.0
 40
1.200000000000045
100
AcDbArc
 50
120.1556734279
 51
180.0
  0
SPLINE
  5
1C9
330
1F
100
AcDbEntity
  8
0
  6
Continuous
 62
     7
370
    25
100
AcDbSpline
210
0.0
220
0.0
230
1.0
 70
     8
 71
     3
 72
    12
 73
     8
 74
     0
 42
0.00000001
 43
0.00000001
 40
0.0
 40
0.0
 40
0.0
 40
0.0
 40
0.3588037909193064
 40
0.5752394285257718
 40
0.6544863257113346
 40
0.7503396585521694
 40
1.0
 40
1.0
 40
1.0
 40
1.0
 10
1606.283788794402
 20
-63.21543134079926
 30
0.0
 10
1606.297277630055
 20
-63.2079451925745
 30
0.0
 10
1606.31890312652
 20
-63.19594329143617
 30
0.0
 10
1606.365648770179
 20
-63.17349038145817
 30
0.0
 10
1606.428215607572
 20
-63.15154815006127
 30
0.0
 10
1606.507570599751
 20
-63.12911571377303
 30
0.0
 10
1606.581798909916
 20
-63.12422781611013
 30
0.0
 10
1606.635434602625
 20
-63.12069593216371
 30
0.0
  0
SPLINE
  5
1CA
330
1F
100
AcDbEntity
  8
0
  6
Continuous
 62
     7
370
    25
100
AcDbSpline
210
0.0
220
0.0
230
1.0
 70
     8
 71
     3
 72
    12
 73
     8
 74
     0
 42
0.00000001
 43
0.00000001
 40
0.0
 40
0.0
 40
0.0
 40
0.0
 40
0.2893414005577106
 40
0.3971452044256342
 40
0.4846423278013128
 40
0.685434748875565
 40
1.0
 40
1.0
 40
1.0
 40
1.0
 10
1606.0326132171
 20
-62.78309948982466
 30
0.0
 10
1606.055722645046
 20
-62.76997381207891
 30
0.0
 10
1606.087442262316
 20
-62.75195772464204
 30
0.0
 10
1606.156088405919
 20
-62.72013170329782
 30
0.0
 10
1606.23403504198
 20
-62.68834155048357
 30
0.0
 10
1606.398164738623
 20
-62.63530102168637
 30
0.0
 10
1606.545502330294
 20
-62.62623169159903
 30
0.0
 10
1606.635434602625
 20
-62.62069593216371
 30
0.0
  0
LINE
  5
1CB
330
1F
100
AcDbEntity
  8
0
  6
Continuous
 62
     7
370
    25
100
AcDbLine
 10
2201.8354346026
 20
-105.8284394217
 30
0.0
 11
2201.3354346026
 21
-105.8284394217
 31
0.0
  0
ARC
  5
1CC
330
1F
100
AcDbEntity
  8
0
  6
Continuous
 62
     7
370
    25
100
AcDbCircle
 10
2200.8354346026
 20
-105.8284394217
 30
0.0
 40
1.000000000000455
100
AcDbArc
 50
321.802813658
 51
0.0
  0
ARC
  5
1CD
330
1F
100
AcDbEntity
  8
0
  6
Continuous
 62
     7
370
    25
100
AcDbCircle
 10
2200.8354346026
 20
-105.8284394217
 30
0.0
 40
0.5000000000004547
100
AcDbArc
 50
321.802813658
 51
0.0
  0
LINE
  5
1CE
330
1F
100
AcDbEntity
  8
0
  6
Continuous
 62
     7
370
    25
100
AcDbLine
 10
2201.228378233
 20
-106.1376243232
 30
0.0
 11
2201.6213218634
 21
-106.4468092248
 31
0.0
  0
LINE
  5
1CF
330
1F
100
AcDbEntity
  8
0
  6
Continuous
 62
     7
370
    25
100
AcDbLine
 10
2201.8354346026
 20
-105.8284394217
 30
0.0
 11
2201.8354346026
 21
-63.8206959322
 31
0.0
  0
LINE
  5
1D0
330
1F
100
AcDbEntity
  8
0
  6
Continuous
 62
     7
370
    25
100
AcDbLine
 10
2201.3354346026
 20
-105.8284394217
 30
0.0
 11
2201.3354346026
 21
-63.8206959322
 31
0.0
  0
LINE
  5
1D1
330
1F
100
AcDbEntity
  8
0
  6
Continuous
 62
     7
370
    25
100
AcDbLine
 10
1605.9354346026
 20
-63.8206959322
 30
0.0
 11
1605.9354346026
 21
-105.8284394217
 31
0.0
  0
LINE
  5
1D2
330
1F
100
AcDbEntity
  8
0
  6
Continuous
 62
     7
370
    25
100
AcDbLine
 10
1605.4354346026
 20
-105.8284394217
 30
0.0
 11
1605.9354346026
 21
-105.8284394217
 31
0.0
  0
LINE
  5
1D3
330
1F
100
AcDbEntity
  8
0
  6
Continuous
 62
     7
370
    25
100
AcDbLine
 10
1605.4354346026
 20
-63.8206959322
 30
0.0
 11
1605.4354346026
 21
-105.8284394217
 31
0.0
  0
ARC
  5
1D4
330
1F
100
AcDbEntity
  8
0
  6
Continuous
 62
     7
370
    25
100
AcDbCircle
 10
1606.4354346026
 20
-105.8284394217
 30
0.0
 40
0.5000000000002274
100
AcDbArc
 50
180.0
 51
218.1971863421
  0
LINE
  5
1D5
330
1F
100
AcDbEntity
  8
0
  6
Continuous
 62
     7
370
    25
100
AcDbLine
 10
1606.0424909722
 20
-106.1376243232
 30
0.0
 11
1605.6495473418
 21
-106.4468092248
 31
0.0
  0
ARC
  5
1D6
330
1F
100
AcDbEntity
  8
0
  6
Continuous
 62
     7
370
    25
100
AcDbCircle
 10
1606.4354346026
 20
-105.8284394217
 30
0.0
 40
1.0
100
AcDbArc
 50
180.0
 51
218.1971863421
  0
LINE
  5
1D7
330
1F
100
AcDbEntity
  8
0
  6
Continuous
 62
     7
370
    25
100
AcDbLine
 10
2200.8354346026
 20
-106.8284394217
 30
0.0
 11
2200.8354346026
 21
-106.3284394217
 31
0.0
  0
SPLINE
  5
1D8
330
1F
100
AcDbEntity
  8
0
  6
Continuous
 62
     7
370
    25
100
AcDbSpline
210
0.0
220
0.0
230
1.0
 70
     8
 71
     3
 72
    11
 73
     7
 74
     0
 42
0.00000001
 43
0.00000001
 40
0.0
 40
0.0
 40
0.0
 40
0.0
 40
0.2500000000000113
 40
0.5000000000000107
 40
0.7499999999999922
 40
1.0
 40
1.0
 40
1.0
 40
1.0
 10
2201.621321863401
 20
-106.4468092247784
 30
0.0
 10
2201.57085174047
 20
-106.5030181036045
 30
0.0
 10
2201.469911494606
 20
-106.6154358612566
 30
0.0
 10
2201.27551391198
 20
-106.7346903571323
 30
0.0
 10
2201.061583727996
 20
-106.8137215617138
 30
0.0
 10
2200.910817644415
 20
-106.823533468377
 30
0.0
 10
2200.835434602624
 20
-106.8284394217086
 30
0.0
  0
SPLINE
  5
1D9
330
1F
100
AcDbEntity
  8
0
  6
Continuous
 62
     7
370
    25
100
AcDbSpline
210
0.0
220
0.0
230
1.0
 70
     8
 71
     3
 72
    11
 73
     7
 74
     0
 42
0.00000001
 43
0.00000001
 40
0.0
 40
0.0
 40
0.0
 40
0.0
 40
0.2499999999999989
 40
0.4999999999999699
 40
0.7500000000000063
 40
1.0
 40
1.0
 40
1.0
 40
1.0
 10
2201.228378233013
 20
-106.1376243232435
 30
0.0
 10
2201.203143171547
 20
-106.1657287626565
 30
0.0
 10
2201.152673048615
 20
-106.2219376414827
 30
0.0
 10
2201.055474257302
 20
-106.2815648894205
 30
0.0
 10
2200.94850916531
 20
-106.3210804917112
 30
0.0
 10
2200.87312612352
 20
-106.3259864450428
 30
0.0
 10
2200.835434602624
 20
-106.3284394217086
 30
0.0
  0
LINE
  5
1DA
330
1F
100
AcDbEntity
  8
0
  6
Continuous
 62
     7
370
    25
100
AcDbLine
 10
1606.4354346026
 20
-106.8284394217
 30
0.0
 11
1606.4354346026
 21
-106.3284394217
 31
0.0
  0
SPLINE
  5
1DB
330
1F
100
AcDbEntity
  8
0
  6
Continuous
 62
     7
370
    25
100
AcDbSpline
210
0.0
220
0.0
230
1.0
 70
     8
 71
     3
 72
    11
 73
     7
 74
     0
 42
0.00000001
 43
0.00000001
 40
0.0
 40
0.0
 40
0.0
 40
0.0
 40
0.2499999999999798
 40
0.5000000000000648
 40
0.7499999999999524
 40
0.9999999999999999
 40
0.9999999999999999
 40
0.9999999999999999
 40
0.9999999999999999
 10
1606.435434602625
 20
-106.3284394216941
 30
0.0
 10
1606.397743081729
 20
-106.3259864450284
 30
0.0
 10
1606.322360039939
 20
-106.3210804916967
 30
0.0
 10
1606.215394947947
 20
-106.281564889406
 30
0.0
 10
1606.118196156634
 20
-106.2219376414681
 30
0.0
 10
1606.067726033702
 20
-106.1657287626421
 30
0.0
 10
1606.042490972236
 20
-106.137624323229
 30
0.0
  0
SPLINE
  5
1DC
330
1F
100
AcDbEntity
  8
0
  6
Continuous
 62
     7
370
    25
100
AcDbSpline
210
0.0
220
0.0
230
1.0
 70
     8
 71
     3
 72
    11
 73
     7
 74
     0
 42
0.00000001
 43
0.00000001
 40
0.0
 40
0.0
 40
0.0
 40
0.0
 40
0.2500000000000019
 40
0.5000000000000503
 40
0.7500000000000335
 40
1.0
 40
1.0
 40
1.0
 40
1.0
 10
1606.435434602625
 20
-106.8284394216941
 30
0.0
 10
1606.360051560835
 20
-106.8235334683625
 30
0.0
 10
1606.209285477254
 20
-106.8137215616993
 30
0.0
 10
1605.995355293269
 20
-106.7346903571179
 30
0.0
 10
1605.800957710644
 20
-106.6154358612421
 30
0.0
 10
1605.70001746478
 20
-106.50301810359
 30
0.0
 10
1605.649547341848
 20
-106.4468092247639
 30
0.0
  0
LINE
  5
1DD
330
1F
100
AcDbEntity
  8
0
  6
Continuous
 62
     7
370
    25
100
AcDbLine
 10
2199.8626665779
 20
-106.8284394217
 30
0.0
 11
2200.8354346026
 21
-106.8284394217
 31
0.0
  0
LINE
  5
1DE
330
1F
100
AcDbEntity
  8
0
  6
Continuous
 62
     7
370
    25
100
AcDbLine
 10
2199.9694091988
 20
-106.3284394217
 30
0.0
 11
2200.8354346026
 21
-106.3284394217
 31
0.0
  0
LINE
  5
1DF
330
1F
100
AcDbEntity
  8
0
  6
Continuous
 62
     7
370
    25
100
AcDbLine
 10
1606.4354346026
 20
-106.8284394217
 30
0.0
 11
1607.8082026274
 21
-106.8284394217
 31
0.0
  0
LINE
  5
1E0
330
1F
100
AcDbEntity
  8
0
  6
Continuous
 62
     7
370
    25
100
AcDbLine
 10
1606.4354346026
 20
-106.3284394217
 30
0.0
 11
1607.7014600064
 21
-106.3284394217
 31
0.0
  0
LINE
  5
1E1
330
1F
100
AcDbEntity
  8
0
  6
Continuous
 62
     7
370
    25
100
AcDbLine
 10
2200.4573373575
 20
-106.8284394217
 30
0.0
 11
2200.4573373575
 21
-107.3284394217
 31
0.0
  0
LINE
  5
1E2
330
1F
100
AcDbEntity
  8
0
  6
Continuous
 62
     7
370
    25
100
AcDbLine
 10
2199.8354346026
 20
-107.3284394217
 30
0.0
 11
2200.4573373575
 21
-107.3284394217
 31
0.0
  0
LINE
  5
1E3
330
1F
100
AcDbEntity
  8
0
  6
Continuous
 62
     7
370
    25
100
AcDbLine
 10
1606.8135318477
 20
-107.3284394217
 30
0.0
 11
1606.8135318477
 21
-106.8284394217
 31
0.0
  0
LINE
  5
1E4
330
1F
100
AcDbEntity
  8
0
  6
Continuous
 62
     7
370
    25
100
AcDbLine
 10
1606.8135318477
 20
-107.3284394217
 30
0.0
 11
1607.8354346026
 21
-107.3284394217
 31
0.0
  0
LINE
  5
1E5
330
1F
100
AcDbEntity
  8
0
  6
Continuous
 62
     7
370
    25
100
AcDbLine
 10
2200.6354346026
 20
-63.8206959322
 30
0.0
 11
2201.3354346026
 21
-63.8206959322
 31
0.0
  0
SPLINE
  5
1E6
330
1F
100
AcDbEntity
  8
0
  6
Continuous
 62
     7
370
    25
100
AcDbSpline
210
0.0
220
0.0
230
1.0
 70
     8
 71
     3
 72
     9
 73
     5
 74
     0
 42
0.00000001
 43
0.00000001
 40
0.0
 40
0.0
 40
0.0
 40
0.0
 40
0.3592192737996974
 40
1.0
 40
1.0
 40
1.0
 40
1.0
 10
1606.335434602618
 20
-105.2114557962632
 30
0.0
 10
1606.280909994602
 20
-105.1907600776601
 30
0.0
 10
1606.129123573347
 20
-105.1331470259323
 30
0.0
 10
1606.011076738919
 20
-105.0755339742044
 30
0.0
 10
1605.935434602629
 20
-105.0386166410797
 30
0.0
  0
SPLINE
  5
1E7
330
1F
100
AcDbEntity
  8
0
  6
Continuous
 62
     7
370
    25
100
AcDbSpline
210
0.0
220
0.0
230
1.0
 70
     8
 71
     3
 72
    10
 73
     6
 74
     0
 42
0.00000001
 43
0.00000001
 40
0.0
 40
0.0
 40
0.0
 40
0.0
 40
0.3003458526311837
 40
0.6501729263156187
 40
1.0
 40
1.0
 40
1.0
 40
1.0
 10
1606.335434602618
 20
-105.124040009316
 30
0.0
 10
1606.266847110127
 20
-105.0727926259438
 30
0.0
 10
1606.118372508894
 20
-104.9618549821534
 30
0.0
 10
1605.967763537986
 20
-104.7912270779449
 30
0.0
 10
1605.946210914418
 20
-104.6718465571085
 30
0.0
 10
1605.935434602633
 20
-104.6121562966902
 30
0.0
  0
LINE
  5
1E8
330
1F
100
AcDbEntity
  8
0
  6
Continuous
 62
     7
370
    25
100
AcDbLine
 10
1605.9354346026
 20
-63.8206959322
 30
0.0
 11
1606.6354346026
 21
-63.8206959322
 31
0.0
  0
LINE
  5
1E9
330
1F
100
AcDbEntity
  8
0
  6
Continuous
 62
     7
370
    25
100
AcDbLine
 10
2200.6354346026
 20
-106.8144083724
 30
0.0
 11
2200.6354346026
 21
-107.3003773231
 31
0.0
  0
LINE
  5
1EA
330
1F
100
AcDbEntity
  8
0
  6
Continuous
 62
     7
370
    25
100
AcDbLine
 10
2200.6354346026
 20
-107.3003773231
 30
0.0
 11
2200.4573373575
 21
-107.3284394217
 31
0.0
  0
LINE
  5
1EB
330
1F
100
AcDbEntity
  8
0
  6
Continuous
 62
     7
370
    25
100
AcDbLine
 10
1606.8135318477
 20
-107.3284394217
 30
0.0
 11
1606.6354346026
 21
-107.3003773231
 31
0.0
  0
LINE
  5
1EC
330
1F
100
AcDbEntity
  8
0
  6
Continuous
 62
     7
370
    25
100
AcDbLine
 10
1606.6354346026
 20
-106.8144083724
 30
0.0
 11
1606.6354346026
 21
-107.3003773231
 31
0.0
  0
LINE
  5
1ED
330
1F
100
AcDbEntity
  8
0
  6
Continuous
 62
     7
370
    25
100
AcDbLine
 10
1606.6354346026
 20
-105.8284394217
 30
0.0
 11
1606.6354346026
 21
-106.3284394217
 31
0.0
  0
LINE
  5
1EE
330
1F
100
AcDbEntity
  8
0
  6
Continuous
 62
     7
370
    25
100
AcDbLine
 10
2200.6354346026
 20
-106.3284394217
 30
0.0
 11
2200.6354346026
 21
-105.9009943506
 31
0.0
  0
ARC
  5
1EF
330
1F
100
AcDbEntity
  8
0
  6
Continuous
 62
     7
370
    25
100
AcDbCircle
 10
1606.9354346026
 20
-103.3284394217
 30
0.0
 40
1.000000000000227
100
AcDbArc
 50
180.0
 51
233.1301023533
  0
LINE
  5
1F0
330
1F
100
AcDbEntity
  8
0
  6
Continuous
 62
     7
370
    25
100
AcDbLine
 10
1606.4354346026
 20
-72.8284394217
 30
0.0
 11
1606.4354346026
 21
-69.3284394217
 31
0.0
  0
LINE
  5
1F1
330
1F
100
AcDbEntity
  8
0
  6
Continuous
 62
     7
370
    25
100
AcDbLine
 10
1606.4354346026
 20
-69.3284394217
 30
0.0
 11
1605.9354346026
 21
-69.3284394217
 31
0.0
  0
LINE
  5
1F2
330
1F
100
AcDbEntity
  8
0
  6
Continuous
 62
     7
370
    25
100
AcDbLine
 10
2200.8354346026
 20
-69.3284394217
 30
0.0
 11
2201.3354346026
 21
-69.3284394217
 31
0.0
  0
LINE
  5
1F3
330
1F
100
AcDbEntity
  8
0
  6
Continuous
 62
     7
370
    25
100
AcDbLine
 10
2200.8354346026
 20
-69.3284394217
 30
0.0
 11
2200.8354346026
 21
-72.8012074465
 31
0.0
  0
ARC
  5
1F4
330
1F
100
AcDbEntity
  8
0
  6
Continuous
 62
     7
370
    25
100
AcDbCircle
 10
2200.8354346026
 20
-106.8284394217
 30
0.0
 40
0.9999999999999589
100
AcDbArc
 50
120.0
 51
150.0
  0
LINE
  5
1F5
330
1F
100
AcDbEntity
  8
0
  6
Continuous
 62
     7
370
    25
100
AcDbLine
 10
2199.9694091988
 20
-106.3284394217
 30
0.0
 11
1607.7014600064
 21
-106.3284394217
 31
0.0
  0
ARC
  5
1F6
330
1F
100
AcDbEntity
  8
0
  6
Continuous
 62
     7
370
    25
100
AcDbCircle
 10
1606.8354346026
 20
-106.8284394217
 30
0.0
 40
0.9999999999999712
100
AcDbArc
 50
30.0
 51
60.0
  0
SPLINE
  5
1F7
330
1F
100
AcDbEntity
  8
0
  6
Continuous
 62
     7
370
    25
100
AcDbSpline
210
0.0
220
0.0
230
1.0
 70
     8
 71
     3
 72
     9
 73
     5
 74
     0
 42
0.00000001
 43
0.00000001
 40
0.0
 40
0.0
 40
0.0
 40
0.0
 40
0.9232632316973209
 40
1.0
 40
1.0
 40
1.0
 40
1.0
 10
2200.953804405683
 20
-72.82843942172187
 30
0.0
 10
2200.86228863085
 20
-72.80611032235258
 30
0.0
 10
2200.763166547687
 20
-72.7819253460612
 30
0.0
 10
2200.64453779011
 20
-72.75774036976996
 30
0.0
 10
2200.635434602626
 20
-72.7558844928479
 30
0.0
  0
LINE
  5
1F8
330
1F
100
AcDbEntity
  8
0
  6
Continuous
 62
     7
370
    25
100
AcDbLine
 10
2201.3354346026
 20
-72.8284394217
 30
0.0
 11
2200.9538044057
 21
-72.8284394217
 31
0.0
  0
LINE
  5
1F9
330
1F
100
AcDbEntity
  8
0
  6
Continuous
 62
     7
370
    25
100
AcDbLine
 10
2200.9538044057
 20
-105.8284394217
 30
0.0
 11
2201.3354346026
 21
-105.8284394217
 31
0.0
  0
SPLINE
  5
1FA
330
1F
100
AcDbEntity
  8
0
  6
Continuous
 62
     7
370
    25
100
AcDbSpline
210
0.0
220
0.0
230
1.0
 70
     8
 71
     3
 72
     9
 73
     5
 74
     0
 42
0.00000001
 43
0.00000001
 40
0.0
 40
0.0
 40
0.0
 40
0.0
 40
0.5000000000000429
 40
0.9999999999999999
 40
0.9999999999999999
 40
0.9999999999999999
 40
0.9999999999999999
 10
2200.335434602614
 20
-105.9624140179375
 30
0.0
 10
2200.447501134089
 20
-105.9400849185682
 30
0.0
 10
2200.67163419704
 20
-105.8954267198297
 30
0.0
 10
2200.859747669469
 20
-105.8507685210912
 30
0.0
 10
2200.953804405684
 20
-105.8284394217219
 30
0.0
  0
LINE
  5
1FB
330
1F
100
AcDbEntity
  8
0
  6
Continuous
 62
     7
370
    25
100
AcDbLine
 10
2199.8354346026
 20
-107.3284394217
 30
0.0
 11
2199.8354346026
 21
-106.9468092248
 31
0.0
  0
LINE
  5
1FC
330
1F
100
AcDbEntity
  8
0
  6
Continuous
 62
     7
370
    25
100
AcDbLine
 10
2199.8354346026
 20
-107.3284394217
 30
0.0
 11
1607.8354346026
 21
-107.3284394217
 31
0.0
  0
LINE
  5
1FD
330
1F
100
AcDbEntity
  8
0
  6
Continuous
 62
     7
370
    25
100
AcDbLine
 10
1607.8354346026
 20
-106.9468092248
 30
0.0
 11
1607.8354346026
 21
-107.3284394217
 31
0.0
  0
SPLINE
  5
1FE
330
1F
100
AcDbEntity
  8
0
  6
Continuous
 62
     7
370
    25
100
AcDbSpline
210
0.0
220
0.0
230
1.0
 70
     8
 71
     3
 72
     9
 73
     5
 74
     0
 42
0.00000001
 43
0.00000001
 40
0.0
 40
0.0
 40
0.0
 40
0.0
 40
0.5000000000000063
 40
1.0
 40
1.0
 40
1.0
 40
1.0
 10
1607.701460006398
 20
-106.3284394217263
 30
0.0
 10
1607.723789105767
 20
-106.4405059532018
 30
0.0
 10
1607.768447304506
 20
-106.664639016153
 30
0.0
 10
1607.813105503245
 20
-106.8527524885816
 30
0.0
 10
1607.835434602614
 20
-106.9468092247959
 30
0.0
  0
SPLINE
  5
1FF
330
1F
100
AcDbEntity
  8
0
  6
Continuous
 62
     7
370
    25
100
AcDbSpline
210
0.0
220
0.0
230
1.0
 70
     8
 71
     3
 72
     9
 73
     5
 74
     0
 42
0.00000001
 43
0.00000001
 40
0.0
 40
0.0
 40
0.0
 40
0.0
 40
0.5000000000000384
 40
1.0
 40
1.0
 40
1.0
 40
1.0
 10
2199.835434602614
 20
-106.9468092247915
 30
0.0
 10
2199.857763701983
 20
-106.8527524885772
 30
0.0
 10
2199.902421900721
 20
-106.6646390161487
 30
0.0
 10
2199.94708009946
 20
-106.4405059531975
 30
0.0
 10
2199.969409198829
 20
-106.3284394217219
 30
0.0
  0
SPLINE
  5
200
330
1F
100
AcDbEntity
  8
0
  6
Continuous
 62
     7
370
    25
100
AcDbSpline
210
0.0
220
0.0
230
1.0
 70
     8
 71
     3
 72
     9
 73
     5
 74
     0
 42
0.00000001
 43
0.00000001
 40
0.0
 40
0.0
 40
0.0
 40
0.0
 40
0.4999999999999615
 40
1.0
 40
1.0
 40
1.0
 40
1.0
 10
1606.717064799544
 20
-105.8284394217263
 30
0.0
 10
1606.811121535758
 20
-105.8507685210956
 30
0.0
 10
1606.999235008187
 20
-105.8954267198341
 30
0.0
 10
1607.223368071138
 20
-105.9400849185726
 30
0.0
 10
1607.335434602614
 20
-105.9624140179419
 30
0.0
  0
LINE
  5
201
330
1F
100
AcDbEntity
  8
0
  6
Continuous
 62
     7
370
    25
100
AcDbLine
 10
1606.3354346026
 20
-105.8284394217
 30
0.0
 11
1606.7170647995
 21
-105.8284394217
 31
0.0
  0
LINE
  5
202
330
1F
100
AcDbEntity
  8
0
  6
Continuous
 62
     7
370
    25
100
AcDbLine
 10
1606.3354346026
 20
-105.8284394217
 30
0.0
 11
1606.3354346026
 21
-72.8284394217
 31
0.0
  0
LINE
  5
203
330
1F
100
AcDbEntity
  8
0
  6
Continuous
 62
     7
370
    25
100
AcDbLine
 10
1606.6354346026
 20
-72.8284394217
 30
0.0
 11
1606.3354346026
 21
-72.8284394217
 31
0.0
  0
LINE
  5
204
330
1F
100
AcDbEntity
  8
0
  6
Continuous
 62
     8
370
    25
100
AcDbLine
 10
1606.3354346026
 20
-103.3284394217
 30
0.0
 11
1605.9354346026
 21
-103.3284394217
 31
0.0
  0
LINE
  5
205
330
1F
100
AcDbEntity
  8
0
  6
Continuous
 62
     8
370
    25
100
AcDbLine
 10
2200.3354346026
 20
-78.3284394217
 30
0.0
 11
2200.3354346026
 21
-105.9624140179
 31
0.0
  0
LINE
  5
206
330
1F
100
AcDbEntity
  8
0
  6
Continuous
 62
     8
370
    25
100
AcDbLine
 10
1607.3354346026
 20
-105.9624140179
 30
0.0
 11
1607.3354346026
 21
-78.3284394217
 31
0.0
  0
ENDSEC
  0
SECTION
  2
OBJECTS
  0
DICTIONARY
  5
C
330
0
100
AcDbDictionary
281
     1
  3
ACAD_GROUP
350
D
  3
ACAD_LAYOUT
350
1A
  3
ACAD_MLINESTYLE
350
17
  3
ACAD_PLOTSETTINGS
350
19
  3
ACAD_PLOTSTYLENAME
350
E
  3
ACAD_SCALELIST
350
47
  3
DWGPROPS
350
207
  0
DICTIONARY
  5
D
102
{ACAD_REACTORS
330
C
102
}
330
C
100
AcDbDictionary
281
     1
  0
DICTIONARY
  5
1A
102
{ACAD_REACTORS
330
C
102
}
330
C
100
AcDbDictionary
281
     1
  3
Layout1
350
1E
  3
Layout2
350
26
  3
Model
350
22
  0
DICTIONARY
  5
17
102
{ACAD_REACTORS
330
C
102
}
330
C
100
AcDbDictionary
281
     1
  3
Standard
350
18
  0
DICTIONARY
  5
19
102
{ACAD_REACTORS
330
C
102
}
330
C
100
AcDbDictionary
281
     1
  0
ACDBDICTIONARYWDFLT
  5
E
102
{ACAD_REACTORS
330
C
102
}
330
C
100
AcDbDictionary
281
     1
  3
Normal
350
F
100
AcDbDictionaryWithDefault
340
F
  0
DICTIONARY
  5
47
102
{ACAD_REACTORS
330
C
102
}
330
C
100
AcDbDictionary
281
     1
  3
A0
350
48
  3
A1
350
49
  3
A2
350
4A
  3
A3
350
4B
  3
A4
350
4C
  3
A5
350
4D
  3
A6
350
4E
  3
A7
350
4F
  3
A8
350
50
  3
A9
350
51
  3
B0
350
52
  3
B1
350
53
  3
B2
350
54
  3
B3
350
55
  3
B4
350
56
  3
B5
350
57
  3
B6
350
58
  3
B7
350
59
  3
B8
350
5A
  3
B9
350
5B
  3
C0
350
5C
  3
C1
350
5D
  3
C2
350
5E
  3
C3
350
5F
  3
C4
350
60
  3
C5
350
61
  3
C6
350
62
  3
C7
350
63
  3
C8
350
64
  3
C9
350
65
  3
D0
350
66
  3
D1
350
67
  3
D2
350
68
  0
XRECORD
  5
207
102
{ACAD_REACTORS
330
C
102
}
330
C
100
AcDbXrecord
280
     1
  1
DWGPROPS COOKIE
  2

  3

  4

  6

  7

  8
Vostorgin
  9

300
=
301
=
302
=
303
=
304
=
305
=
306
=
307
=
308
=
309
=
 40
0.0
 41
2459275.43336353
 42
2459275.433364225
  1

 90
        0
  0
LAYOUT
  5
1E
102
{ACAD_REACTORS
330
1A
102
}
330
1A
100
AcDbPlotSettings
  1

  2
none_device
  4

  6

 40
0.0
 41
0.0
 42
0.0
 43
0.0
 44
0.0
 45
0.0
 46
0.0
 47
0.0
 48
0.0
 49
0.0
140
0.0
141
0.0
142
1.0
143
1.0
 70
   688
 72
     1
 73
     0
 74
     5
  7

 75
    16
147
1.0
148
0.0
149
0.0
100
AcDbLayout
  1
Layout1
 70
     1
 71
     1
 10
0.0
 20
0.0
 11
420.0
 21
297.0
 12
0.0
 22
0.0
 32
0.0
 14
1.0000000000E+20
 24
1.0000000000E+20
 34
1.0000000000E+20
 15
-1.0000000000E+20
 25
-1.0000000000E+20
 35
-1.0000000000E+20
146
0.0
 13
0.0
 23
0.0
 33
0.0
 16
1.0
 26
0.0
 36
0.0
 17
0.0
 27
1.0
 37
0.0
 76
     0
330
1B
  0
LAYOUT
  5
26
102
{ACAD_REACTORS
330
1A
102
}
330
1A
100
AcDbPlotSettings
  1

  2
none_device
  4

  6

 40
0.0
 41
0.0
 42
0.0
 43
0.0
 44
0.0
 45
0.0
 46
0.0
 47
0.0
 48
0.0
 49
0.0
140
0.0
141
0.0
142
1.0
143
1.0
 70
   688
 72
     1
 73
     0
 74
     5
  7

 75
    16
147
1.0
148
0.0
149
0.0
100
AcDbLayout
  1
Layout2
 70
     1
 71
     2
 10
0.0
 20
0.0
 11
0.0
 21
0.0
 12
0.0
 22
0.0
 32
0.0
 14
0.0
 24
0.0
 34
0.0
 15
0.0
 25
0.0
 35
0.0
146
0.0
 13
0.0
 23
0.0
 33
0.0
 16
1.0
 26
0.0
 36
0.0
 17
0.0
 27
1.0
 37
0.0
 76
     0
330
23
  0
LAYOUT
  5
22
102
{ACAD_REACTORS
330
1A
102
}
330
1A
100
AcDbPlotSettings
  1

  2
none_device
  4
Letter_(8.50_x_11.00_Inches)
  6

 40
6.35
 41
6.35
 42
6.35000508
 43
6.35000508
 44
215.9
 45
279.4
 46
0.0
 47
0.0
 48
0.0
 49
0.0
140
0.0
141
0.0
142
1.0
143
1.0
 70
  1712
 72
     1
 73
     0
 74
     0
  7

 75
     0
147
1.0
148
0.0
149
0.0
100
AcDbLayout
  1
Model
 70
     1
 71
     0
 10
0.0
 20
0.0
 11
1189.0
 21
841.0
 12
0.0
 22
0.0
 32
0.0
 14
0.0
 24
0.0
 34
0.0
 15
1189.0
 25
841.0
 35
0.0
146
0.0
 13
0.0
 23
0.0
 33
0.0
 16
1.0
 26
0.0
 36
0.0
 17
0.0
 27
1.0
 37
0.0
 76
     0
330
1F
331
29
  0
MLINESTYLE
  5
18
102
{ACAD_REACTORS
330
17
102
}
330
17
100
AcDbMlineStyle
  2
Standard
 70
     0
  3

 62
   256
 51
90.0
 52
90.0
 71
     2
 49
0.5
 62
   256
  6
BYLAYER
 49
-0.5
 62
   256
  6
BYLAYER
  0
ACDBPLACEHOLDER
  5
F
102
{ACAD_REACTORS
330
E
102
}
330
E
  0
SCALE
  5
48
102
{ACAD_REACTORS
330
47
102
}
330
47
100
AcDbScale
 70
     0
300
1:1
140
1.0
141
1.0
290
     1
  0
SCALE
  5
49
102
{ACAD_REACTORS
330
47
102
}
330
47
100
AcDbScale
 70
     0
300
1:2
140
1.0
141
2.0
290
     0
  0
SCALE
  5
4A
102
{ACAD_REACTORS
330
47
102
}
330
47
100
AcDbScale
 70
     0
300
1:4
140
1.0
141
4.0
290
     0
  0
SCALE
  5
4B
102
{ACAD_REACTORS
330
47
102
}
330
47
100
AcDbScale
 70
     0
300
1:5
140
1.0
141
5.0
290
     0
  0
SCALE
  5
4C
102
{ACAD_REACTORS
330
47
102
}
330
47
100
AcDbScale
 70
     0
300
1:8
140
1.0
141
8.0
290
     0
  0
SCALE
  5
4D
102
{ACAD_REACTORS
330
47
102
}
330
47
100
AcDbScale
 70
     0
300
1:10
140
1.0
141
10.0
290
     0
  0
SCALE
  5
4E
102
{ACAD_REACTORS
330
47
102
}
330
47
100
AcDbScale
 70
     0
300
1:16
140
1.0
141
16.0
290
     0
  0
SCALE
  5
4F
102
{ACAD_REACTORS
330
47
102
}
330
47
100
AcDbScale
 70
     0
300
1:20
140
1.0
141
20.0
290
     0
  0
SCALE
  5
50
102
{ACAD_REACTORS
330
47
102
}
330
47
100
AcDbScale
 70
     0
300
1:30
140
1.0
141
30.0
290
     0
  0
SCALE
  5
51
102
{ACAD_REACTORS
330
47
102
}
330
47
100
AcDbScale
 70
     0
300
1:40
140
1.0
141
40.0
290
     0
  0
SCALE
  5
52
102
{ACAD_REACTORS
330
47
102
}
330
47
100
AcDbScale
 70
     0
300
1:50
140
1.0
141
50.0
290
     0
  0
SCALE
  5
53
102
{ACAD_REACTORS
330
47
102
}
330
47
100
AcDbScale
 70
     0
300
1:100
140
1.0
141
100.0
290
     0
  0
SCALE
  5
54
102
{ACAD_REACTORS
330
47
102
}
330
47
100
AcDbScale
 70
     0
300
2:1
140
2.0
141
1.0
290
     0
  0
SCALE
  5
55
102
{ACAD_REACTORS
330
47
102
}
330
47
100
AcDbScale
 70
     0
300
4:1
140
4.0
141
1.0
290
     0
  0
SCALE
  5
56
102
{ACAD_REACTORS
330
47
102
}
330
47
100
AcDbScale
 70
     0
300
8:1
140
8.0
141
1.0
290
     0
  0
SCALE
  5
57
102
{ACAD_REACTORS
330
47
102
}
330
47
100
AcDbScale
 70
     0
300
10:1
140
10.0
141
1.0
290
     0
  0
SCALE
  5
58
102
{ACAD_REACTORS
330
47
102
}
330
47
100
AcDbScale
 70
     0
300
100:1
140
100.0
141
1.0
290
     0
  0
SCALE
  5
59
102
{ACAD_REACTORS
330
47
102
}
330
47
100
AcDbScale
 70
     0
300
1/128" = 1'-0"
140
0.0078125
141
12.0
290
     0
  0
SCALE
  5
5A
102
{ACAD_REACTORS
330
47
102
}
330
47
100
AcDbScale
 70
     0
300
1/64" = 1'-0"
140
0.015625
141
12.0
290
     0
  0
SCALE
  5
5B
102
{ACAD_REACTORS
330
47
102
}
330
47
100
AcDbScale
 70
     0
300
1/32" = 1'-0"
140
0.03125
141
12.0
290
     0
  0
SCALE
  5
5C
102
{ACAD_REACTORS
330
47
102
}
330
47
100
AcDbScale
 70
     0
300
1/16" = 1'-0"
140
0.0625
141
12.0
290
     0
  0
SCALE
  5
5D
102
{ACAD_REACTORS
330
47
102
}
330
47
100
AcDbScale
 70
     0
300
3/32" = 1'-0"
140
0.09375
141
12.0
290
     0
  0
SCALE
  5
5E
102
{ACAD_REACTORS
330
47
102
}
330
47
100
AcDbScale
 70
     0
300
1/8" = 1'-0"
140
0.125
141
12.0
290
     0
  0
SCALE
  5
5F
102
{ACAD_REACTORS
330
47
102
}
330
47
100
AcDbScale
 70
     0
300
3/16" = 1'-0"
140
0.1875
141
12.0
290
     0
  0
SCALE
  5
60
102
{ACAD_REACTORS
330
47
102
}
330
47
100
AcDbScale
 70
     0
300
1/4" = 1'-0"
140
0.25
141
12.0
290
     0
  0
SCALE
  5
61
102
{ACAD_REACTORS
330
47
102
}
330
47
100
AcDbScale
 70
     0
300
3/8" = 1'-0"
140
0.375
141
12.0
290
     0
  0
SCALE
  5
62
102
{ACAD_REACTORS
330
47
102
}
330
47
100
AcDbScale
 70
     0
300
1/2" = 1'-0"
140
0.5
141
12.0
290
     0
  0
SCALE
  5
63
102
{ACAD_REACTORS
330
47
102
}
330
47
100
AcDbScale
 70
     0
300
3/4" = 1'-0"
140
0.75
141
12.0
290
     0
  0
SCALE
  5
64
102
{ACAD_REACTORS
330
47
102
}
330
47
100
AcDbScale
 70
     0
300
1" = 1'-0"
140
1.0
141
12.0
290
     0
  0
SCALE
  5
65
102
{ACAD_REACTORS
330
47
102
}
330
47
100
AcDbScale
 70
     0
300
1-1/2" = 1'-0"
140
1.5
141
12.0
290
     0
  0
SCALE
  5
66
102
{ACAD_REACTORS
330
47
102
}
330
47
100
AcDbScale
 70
     0
300
3" = 1'-0"
140
3.0
141
12.0
290
     0
  0
SCALE
  5
67
102
{ACAD_REACTORS
330
47
102
}
330
47
100
AcDbScale
 70
     0
300
6" = 1'-0"
140
6.0
141
12.0
290
     0
  0
SCALE
  5
68
102
{ACAD_REACTORS
330
47
102
}
330
47
100
AcDbScale
 70
     0
300
1'-0" = 1'-0"
140
12.0
141
12.0
290
     0
  0
ENDSEC
  0
EOF
