  0
SECTION
  2
HEADER
  9
$ACADVER
  1
AC1015
  9
$ACADMAINTVER
 70
     6
  9
$DWGCODEPAGE
  3
ANSI_1251
  9
$INSBASE
 10
0.0
 20
0.0
 30
0.0
  9
$EXTMIN
 10
-597.5
 20
-441.3960795183
 30
0.0
  9
$EXTMAX
 10
1022.2425633454
 20
0.0
 30
0.0
  9
$LIMMIN
 10
0.0
 20
0.0
  9
$LIMMAX
 10
420.0
 20
297.0
  9
$ORTHOMODE
 70
     0
  9
$REGENMODE
 70
     1
  9
$FILLMODE
 70
     1
  9
$QTEXTMODE
 70
     0
  9
$MIRRTEXT
 70
     1
  9
$LTSCALE
 40
1.0
  9
$ATTMODE
 70
     1
  9
$TEXTSIZE
 40
4.0
  9
$TRACEWID
 40
1.0
  9
$TEXTSTYLE
  7
Standard
  9
$CLAYER
  8
0
  9
$CELTYPE
  6
ByLayer
  9
$CECOLOR
 62
   256
  9
$CELTSCALE
 40
1.0
  9
$DISPSILH
 70
     0
  9
$DIMSCALE
 40
1.0
  9
$DIMASZ
 40
6.0
  9
$DIMEXO
 40
1.0
  9
$DIMDLI
 40
3.75
  9
$DIMRND
 40
0.0
  9
$DIMDLE
 40
0.0
  9
$DIMEXE
 40
1.0
  9
$DIMTP
 40
0.0
  9
$DIMTM
 40
0.0
  9
$DIMTXT
 40
4.0
  9
$DIMCEN
 40
2.5
  9
$DIMTSZ
 40
0.0
  9
$DIMTOL
 70
     0
  9
$DIMLIM
 70
     0
  9
$DIMTIH
 70
     1
  9
$DIMTOH
 70
     1
  9
$DIMSE1
 70
     0
  9
$DIMSE2
 70
     0
  9
$DIMTAD
 70
     1
  9
$DIMZIN
 70
     0
  9
$DIMBLK
  1

  9
$DIMASO
 70
     1
  9
$DIMSHO
 70
     1
  9
$DIMPOST
  1

  9
$DIMAPOST
  1

  9
$DIMALT
 70
     0
  9
$DIMALTD
 70
     3
  9
$DIMALTF
 40
0.0393700787
  9
$DIMLFAC
 40
1.0
  9
$DIMTOFL
 70
     1
  9
$DIMTVP
 40
0.0
  9
$DIMTIX
 70
     0
  9
$DIMSOXD
 70
     0
  9
$DIMSAH
 70
     0
  9
$DIMBLK1
  1

  9
$DIMBLK2
  1

  9
$DIMSTYLE
  2
ISO-25
  9
$DIMCLRD
 70
     0
  9
$DIMCLRE
 70
     0
  9
$DIMCLRT
 70
     0
  9
$DIMTFAC
 40
1.0
  9
$DIMGAP
 40
3.0
  9
$DIMJUST
 70
     0
  9
$DIMSD1
 70
     0
  9
$DIMSD2
 70
     0
  9
$DIMTOLJ
 70
     0
  9
$DIMTZIN
 70
     0
  9
$DIMALTZ
 70
     0
  9
$DIMALTTZ
 70
     0
  9
$DIMUPT
 70
     0
  9
$DIMDEC
 70
     2
  9
$DIMTDEC
 70
     4
  9
$DIMALTU
 70
     2
  9
$DIMALTTD
 70
     3
  9
$DIMTXSTY
  7
Standard
  9
$DIMAUNIT
 70
     0
  9
$DIMADEC
 70
     2
  9
$DIMALTRND
 40
0.0
  9
$DIMAZIN
 70
     0
  9
$DIMDSEP
 70
    44
  9
$DIMATFIT
 70
     3
  9
$DIMFRAC
 70
     0
  9
$DIMLDRBLK
  1

  9
$DIMLUNIT
 70
     2
  9
$DIMLWD
 70
    -2
  9
$DIMLWE
 70
    -2
  9
$DIMTMOVE
 70
     0
  9
$LUNITS
 70
     2
  9
$LUPREC
 70
     2
  9
$SKETCHINC
 40
1.0
  9
$FILLETRAD
 40
10.0
  9
$AUNITS
 70
     0
  9
$AUPREC
 70
     2
  9
$MENU
  1
.
  9
$ELEVATION
 40
0.0
  9
$PELEVATION
 40
0.0
  9
$THICKNESS
 40
0.0
  9
$LIMCHECK
 70
     0
  9
$CHAMFERA
 40
0.0
  9
$CHAMFERB
 40
0.0
  9
$CHAMFERC
 40
0.0
  9
$CHAMFERD
 40
0.0
  9
$SKPOLY
 70
     0
  9
$TDCREATE
 40
2458879.509781632
  9
$TDUCREATE
 40
2458879.384781632
  9
$TDUPDATE
 40
2458879.509798599
  9
$TDUUPDATE
 40
2458879.384798599
  9
$TDINDWG
 40
0.0000000116
  9
$TDUSRTIMER
 40
0.0000000116
  9
$USRTIMER
 70
     1
  9
$ANGBASE
 50
0.0
  9
$ANGDIR
 70
     0
  9
$PDMODE
 70
     0
  9
$PDSIZE
 40
-1.0
  9
$PLINEWID
 40
0.0
  9
$SPLFRAME
 70
     0
  9
$SPLINETYPE
 70
     6
  9
$SPLINESEGS
 70
     8
  9
$HANDSEED
  5
281
  9
$SURFTAB1
 70
     6
  9
$SURFTAB2
 70
     6
  9
$SURFTYPE
 70
     6
  9
$SURFU
 70
     6
  9
$SURFV
 70
     6
  9
$UCSBASE
  2

  9
$UCSNAME
  2

  9
$UCSORG
 10
0.0
 20
0.0
 30
0.0
  9
$UCSXDIR
 10
1.0
 20
0.0
 30
0.0
  9
$UCSYDIR
 10
0.0
 20
1.0
 30
0.0
  9
$UCSORTHOREF
  2

  9
$UCSORTHOVIEW
 70
     0
  9
$UCSORGTOP
 10
0.0
 20
0.0
 30
0.0
  9
$UCSORGBOTTOM
 10
0.0
 20
0.0
 30
0.0
  9
$UCSORGLEFT
 10
0.0
 20
0.0
 30
0.0
  9
$UCSORGRIGHT
 10
0.0
 20
0.0
 30
0.0
  9
$UCSORGFRONT
 10
0.0
 20
0.0
 30
0.0
  9
$UCSORGBACK
 10
0.0
 20
0.0
 30
0.0
  9
$PUCSBASE
  2

  9
$PUCSNAME
  2

  9
$PUCSORG
 10
0.0
 20
0.0
 30
0.0
  9
$PUCSXDIR
 10
1.0
 20
0.0
 30
0.0
  9
$PUCSYDIR
 10
0.0
 20
1.0
 30
0.0
  9
$PUCSORTHOREF
  2

  9
$PUCSORTHOVIEW
 70
     0
  9
$PUCSORGTOP
 10
0.0
 20
0.0
 30
0.0
  9
$PUCSORGBOTTOM
 10
0.0
 20
0.0
 30
0.0
  9
$PUCSORGLEFT
 10
0.0
 20
0.0
 30
0.0
  9
$PUCSORGRIGHT
 10
0.0
 20
0.0
 30
0.0
  9
$PUCSORGFRONT
 10
0.0
 20
0.0
 30
0.0
  9
$PUCSORGBACK
 10
0.0
 20
0.0
 30
0.0
  9
$USERI1
 70
     0
  9
$USERI2
 70
     0
  9
$USERI3
 70
     0
  9
$USERI4
 70
     0
  9
$USERI5
 70
     0
  9
$USERR1
 40
0.0
  9
$USERR2
 40
0.0
  9
$USERR3
 40
0.0
  9
$USERR4
 40
0.0
  9
$USERR5
 40
0.0
  9
$WORLDVIEW
 70
     1
  9
$SHADEDGE
 70
     3
  9
$SHADEDIF
 70
    70
  9
$TILEMODE
 70
     1
  9
$MAXACTVP
 70
    64
  9
$PINSBASE
 10
0.0
 20
0.0
 30
0.0
  9
$PLIMCHECK
 70
     0
  9
$PEXTMIN
 10
1.0000000000E+20
 20
1.0000000000E+20
 30
1.0000000000E+20
  9
$PEXTMAX
 10
-1.0000000000E+20
 20
-1.0000000000E+20
 30
-1.0000000000E+20
  9
$PLIMMIN
 10
0.0
 20
0.0
  9
$PLIMMAX
 10
420.0
 20
297.0
  9
$UNITMODE
 70
     0
  9
$VISRETAIN
 70
     1
  9
$PLINEGEN
 70
     0
  9
$PSLTSCALE
 70
     1
  9
$TREEDEPTH
 70
  3020
  9
$CMLSTYLE
  2
Standard
  9
$CMLJUST
 70
     0
  9
$CMLSCALE
 40
20.0
  9
$PROXYGRAPHICS
 70
     1
  9
$MEASUREMENT
 70
     1
  9
$CELWEIGHT
370
    -1
  9
$ENDCAPS
280
     0
  9
$JOINSTYLE
280
     0
  9
$LWDISPLAY
290
     1
  9
$INSUNITS
 70
     4
  9
$HYPERLINKBASE
  1

  9
$STYLESHEET
  1

  9
$XEDIT
290
     1
  9
$CEPSNTYPE
380
     0
  9
$PSTYLEMODE
290
     1
  9
$FINGERPRINTGUID
  2
{08811b9a-5c15-4aa4-801f-e8a6e3500875}
  9
$VERSIONGUID
  2
{FAEB1C32-E019-11D5-929B-00C0DF256EC4}
  9
$EXTNAMES
290
     1
  9
$PSVPSCALE
 40
0.0
  9
$OLESTARTUP
290
     0
  0
ENDSEC
  0
SECTION
  2
CLASSES
  0
CLASS
  1
ACDBDICTIONARYWDFLT
  2
AcDbDictionaryWithDefault
  3
ObjectDBX Classes
 90
        0
280
     0
281
     0
  0
CLASS
  1
VISUALSTYLE
  2
AcDbVisualStyle
  3
ObjectDBX Classes
 90
     4095
280
     0
281
     0
  0
CLASS
  1
MATERIAL
  2
AcDbMaterial
  3
ObjectDBX Classes
 90
     1153
280
     0
281
     0
  0
CLASS
  1
SCALE
  2
AcDbScale
  3
ObjectDBX Classes
 90
     1153
280
     0
281
     0
  0
CLASS
  1
TABLESTYLE
  2
AcDbTableStyle
  3
ObjectDBX Classes
 90
     4095
280
     0
281
     0
  0
CLASS
  1
MLEADERSTYLE
  2
AcDbMLeaderStyle
  3
ACDB_MLEADERSTYLE_CLASS
 90
     4095
280
     0
281
     0
  0
CLASS
  1
SUN
  2
AcDbSun
  3
SCENEOE
 90
     1153
280
     0
281
     0
  0
CLASS
  1
ACDBPLACEHOLDER
  2
AcDbPlaceHolder
  3
ObjectDBX Classes
 90
        0
280
     0
281
     0
  0
CLASS
  1
LAYOUT
  2
AcDbLayout
  3
ObjectDBX Classes
 90
        0
280
     0
281
     0
  0
ENDSEC
  0
SECTION
  2
TABLES
  0
TABLE
  2
VPORT
  5
8
330
0
100
AcDbSymbolTable
 70
     1
  0
VPORT
  5
29
330
8
100
AcDbSymbolTableRecord
100
AcDbViewportTableRecord
  2
*Active
 70
     0
 10
0.0
 20
0.0
 11
1.0
 21
1.0
 12
212.3712816727
 22
-220.6980397592
 13
0.0
 23
0.0
 14
10.0
 24
10.0
 15
10.0
 25
10.0
 16
0.0
 26
0.0
 36
1.0
 17
0.0
 27
0.0
 37
0.0
 40
450.2240011087
 41
3.6695898276
 42
50.0
 43
0.0
 44
0.0
 50
0.0
 51
0.0
 71
     0
 72
   100
 73
     1
 74
     3
 75
     0
 76
     0
 77
     0
 78
     0
281
     0
 65
     1
110
0.0
120
0.0
130
0.0
111
1.0
121
0.0
131
0.0
112
0.0
122
1.0
132
0.0
 79
     0
146
0.0
  0
ENDTAB
  0
TABLE
  2
LTYPE
  5
5
330
0
100
AcDbSymbolTable
 70
     6
  0
LTYPE
  5
14
330
5
100
AcDbSymbolTableRecord
100
AcDbLinetypeTableRecord
  2
ByBlock
 70
     0
  3

 72
    65
 73
     0
 40
0.0
  0
LTYPE
  5
15
330
5
100
AcDbSymbolTableRecord
100
AcDbLinetypeTableRecord
  2
ByLayer
 70
     0
  3

 72
    65
 73
     0
 40
0.0
  0
LTYPE
  5
16
330
5
100
AcDbSymbolTableRecord
100
AcDbLinetypeTableRecord
  2
Continuous
 70
     0
  3
Solid line
 72
    65
 73
     0
 40
0.0
  0
LTYPE
  5
6E
330
5
100
AcDbSymbolTableRecord
100
AcDbLinetypeTableRecord
  2
HIDDEN
 70
     0
  3
Hidden __ __ __ __ __ __ __ __ __ __ __ __ __ __
 72
    65
 73
     2
 40
1.905
 49
1.27
 74
     0
 49
-0.635
 74
     0
  0
LTYPE
  5
6F
330
5
100
AcDbSymbolTableRecord
100
AcDbLinetypeTableRecord
  2
PHANTOM
 70
     0
  3
Phantom ______  __  __  ______  __  __  ______
 72
    65
 73
     6
 40
12.7
 49
6.35
 74
     0
 49
-1.27
 74
     0
 49
1.27
 74
     0
 49
-1.27
 74
     0
 49
1.27
 74
     0
 49
-1.27
 74
     0
  0
LTYPE
  5
70
330
5
100
AcDbSymbolTableRecord
100
AcDbLinetypeTableRecord
  2
CENTER
 70
     0
  3
Center ____ _ ____ _ ____ _ ____ _ ____ _ ____
 72
    65
 73
     4
 40
10.16
 49
6.35
 74
     0
 49
-1.27
 74
     0
 49
1.27
 74
     0
 49
-1.27
 74
     0
  0
LTYPE
  5
71
330
5
100
AcDbSymbolTableRecord
100
AcDbLinetypeTableRecord
  2
CENTERX2
 70
     0
  3
Center (2x) ________  __  ________  __  _____
 72
    65
 73
     4
 40
20.32
 49
12.7
 74
     0
 49
-2.54
 74
     0
 49
2.54
 74
     0
 49
-2.54
 74
     0
  0
LTYPE
  5
72
330
5
100
AcDbSymbolTableRecord
100
AcDbLinetypeTableRecord
  2
DOT2
 70
     0
  3
Dot (.5x) ........................................
 72
    65
 73
     2
 40
0.635
 49
0.0
 74
     0
 49
-0.635
 74
     0
  0
ENDTAB
  0
TABLE
  2
LAYER
  5
2
330
0
100
AcDbSymbolTable
 70
     1
  0
LAYER
  5
10
330
2
100
AcDbSymbolTableRecord
100
AcDbLayerTableRecord
  2
0
 70
     0
 62
     7
  6
Continuous
370
    -3
390
F
  0
ENDTAB
  0
TABLE
  2
STYLE
  5
3
330
0
100
AcDbSymbolTable
 70
     1
  0
STYLE
  5
11
330
3
100
AcDbSymbolTableRecord
100
AcDbTextStyleTableRecord
  2
Standard
 70
     0
 40
0.0
 41
1.0
 50
0.0
 71
     0
 42
4.0
  3
txt
  4

  0
ENDTAB
  0
TABLE
  2
VIEW
  5
6
330
0
100
AcDbSymbolTable
 70
     0
  0
ENDTAB
  0
TABLE
  2
UCS
  5
7
330
0
100
AcDbSymbolTable
 70
     0
  0
ENDTAB
  0
TABLE
  2
APPID
  5
9
330
0
100
AcDbSymbolTable
 70
     1
  0
APPID
  5
12
330
9
100
AcDbSymbolTableRecord
100
AcDbRegAppTableRecord
  2
ACAD
 70
     0
  0
ENDTAB
  0
TABLE
  2
DIMSTYLE
  5
A
330
0
100
AcDbSymbolTable
 70
     1
100
AcDbDimStyleTable
  0
DIMSTYLE
105
27
330
A
100
AcDbSymbolTableRecord
100
AcDbDimStyleTableRecord
  2
ISO-25
 70
     0
 41
2.5
 42
0.625
 43
3.75
 44
1.25
 73
     0
 74
     0
 77
     1
 78
     8
140
2.5
141
2.5
143
0.0393700787
147
0.625
171
     3
172
     1
178
     0
271
     2
272
     2
274
     3
278
    44
283
     0
284
     8
340
11
  0
ENDTAB
  0
TABLE
  2
BLOCK_RECORD
  5
1
330
0
100
AcDbSymbolTable
 70
     1
  0
BLOCK_RECORD
  5
1F
330
1
100
AcDbSymbolTableRecord
100
AcDbBlockTableRecord
  2
*Model_Space
340
22
  0
BLOCK_RECORD
  5
1B
330
1
100
AcDbSymbolTableRecord
100
AcDbBlockTableRecord
  2
*Paper_Space
340
1E
  0
BLOCK_RECORD
  5
23
330
1
100
AcDbSymbolTableRecord
100
AcDbBlockTableRecord
  2
*Paper_Space0
340
26
  0
ENDTAB
  0
ENDSEC
  0
SECTION
  2
BLOCKS
  0
BLOCK
  5
20
330
1F
100
AcDbEntity
  8
0
100
AcDbBlockBegin
  2
*Model_Space
 70
     0
 10
0.0
 20
0.0
 30
0.0
  3
*Model_Space
  1

  0
ENDBLK
  5
21
330
1F
100
AcDbEntity
  8
0
100
AcDbBlockEnd
  0
BLOCK
  5
1C
330
1B
100
AcDbEntity
 67
     1
  8
0
100
AcDbBlockBegin
  2
*Paper_Space
 70
     0
 10
0.0
 20
0.0
 30
0.0
  3
*Paper_Space
  1

  0
ENDBLK
  5
1D
330
1B
100
AcDbEntity
 67
     1
  8
0
100
AcDbBlockEnd
  0
BLOCK
  5
24
330
23
100
AcDbEntity
  8
0
100
AcDbBlockBegin
  2
*Paper_Space0
 70
     0
 10
0.0
 20
0.0
 30
0.0
  3
*Paper_Space0
  1

  0
ENDBLK
  5
25
330
23
100
AcDbEntity
  8
0
100
AcDbBlockEnd
  0
ENDSEC
  0
SECTION
  2
ENTITIES
  0
SPLINE
  5
75
330
1F
100
AcDbEntity
  8
0
  6
Continuous
 62
   144
370
    18
100
AcDbSpline
210
0.0
220
0.0
230
1.0
 70
    24
 71
     3
 72
    14
 73
    10
 74
     0
 42
0.000000001
 43
0.00000001
 40
0.0
 40
0.0
 40
0.0
 40
0.0
 40
0.25
 40
0.25
 40
0.5
 40
0.5
 40
0.75
 40
0.75
 40
1.0
 40
1.0
 40
1.0
 40
1.0
 10
-596.0999999999999
 20
-0.0225035612607949
 30
0.0
 10
-596.0999999999999
 20
-0.0432905467428746
 30
0.0
 10
-596.0999999999999
 20
-0.0798420732455452
 30
0.0
 10
-596.0999999999998
 20
-0.1865104410845309
 30
0.0
 10
-596.0999999999999
 20
-0.2566688557707753
 30
0.0
 10
-596.0999999999999
 20
-0.4208339281970563
 30
0.0
 10
-596.0999999999999
 20
-0.5145506734279548
 30
0.0
 10
-596.0999999999999
 20
-0.7075231254028147
 30
0.0
 10
-596.0999999999999
 20
-0.8064585653306533
 30
0.0
 10
-596.0999999999999
 20
-0.9000000000000119
 30
0.0
  0
SPLINE
  5
76
330
1F
100
AcDbEntity
  8
0
  6
Continuous
 62
   144
370
    18
100
AcDbSpline
210
0.0
220
0.0
230
1.0
 70
    24
 71
     3
 72
    14
 73
    10
 74
     0
 42
0.000000001
 43
0.00000001
 40
0.0
 40
0.0
 40
0.0
 40
0.0
 40
0.25
 40
0.25
 40
0.5
 40
0.5
 40
0.75
 40
0.75
 40
1.0
 40
1.0
 40
1.0
 40
1.0
 10
596.0999999999999
 20
-0.9000000000000119
 30
0.0
 10
596.1
 20
-0.8064585653317358
 30
0.0
 10
596.1000000000001
 20
-0.7075231254051739
 30
0.0
 10
596.1000000000001
 20
-0.514550673432701
 30
0.0
 10
596.1
 20
-0.420833928202885
 30
0.0
 10
596.1000000000001
 20
-0.2566688557778252
 30
0.0
 10
596.1
 20
-0.186510441091664
 30
0.0
 10
596.0999999999999
 20
-0.0798420732517069
 30
0.0
 10
596.1
 20
-0.0432905467479539
 30
0.0
 10
596.0999999999999
 20
-0.0225035612644309
 30
0.0
  0
SPLINE
  5
77
330
1F
100
AcDbEntity
  8
0
  6
Continuous
 62
   144
370
    18
100
AcDbSpline
210
0.0
220
0.0
230
1.0
 70
     8
 71
     3
 72
    10
 73
     6
 74
     0
 42
0.000000001
 43
0.00000001
 40
0.0
 40
0.0
 40
0.0
 40
0.0
 40
0.3351938552391345
 40
0.66774117707513
 40
0.9999999999999999
 40
0.9999999999999999
 40
0.9999999999999999
 40
0.9999999999999999
 10
596.1000000000006
 20
-0.0225035612608504
 30
0.0
 10
596.100641449122
 20
-0.0179351832965136
 30
0.0
 10
596.1019192827838
 20
-0.008834497136706
 30
0.0
 10
596.1116650058041
 20
-0.0014221951939453
 30
0.0
 10
596.1233430957072
 20
-0.0004739278948451
 30
0.0
 10
596.12917960675
 20
-0.0000000000000555
 30
0.0
  0
SPLINE
  5
78
330
1F
100
AcDbEntity
  8
0
  6
Continuous
 62
   144
370
    18
100
AcDbSpline
210
0.0
220
0.0
230
1.0
 70
     8
 71
     3
 72
    10
 73
     6
 74
     0
 42
0.000000001
 43
0.00000001
 40
0.0
 40
0.0
 40
0.0
 40
0.0
 40
0.3322588229267208
 40
0.6648061447625749
 40
1.0
 40
1.0
 40
1.0
 40
1.0
 10
-596.12917960675
 20
-0.0000000000000555
 30
0.0
 10
-596.1233430957071
 20
-0.0004739278948451
 30
0.0
 10
-596.1116650058043
 20
-0.001422195193973
 30
0.0
 10
-596.1019192827829
 20
-0.0088344971367615
 30
0.0
 10
-596.1006414491212
 20
-0.0179351832965413
 30
0.0
 10
-596.0999999999998
 20
-0.0225035612608504
 30
0.0
  0
SPLINE
  5
82
330
1F
100
AcDbEntity
  8
0
  6
Continuous
 62
   144
370
    18
100
AcDbSpline
210
0.0
220
0.0
230
1.0
 70
    11
 71
     3
 72
    38
 73
    34
 74
     0
 42
0.000000001
 43
0.00000001
 40
0.0
 40
0.0
 40
0.0
 40
0.0
 40
0.0625
 40
0.0625
 40
0.125
 40
0.125
 40
0.1875
 40
0.1875
 40
0.25
 40
0.25
 40
0.3125
 40
0.3125
 40
0.375
 40
0.375
 40
0.4375
 40
0.4375
 40
0.5
 40
0.5
 40
0.5625
 40
0.5625
 40
0.625
 40
0.625
 40
0.6875
 40
0.6875
 40
0.75
 40
0.75
 40
0.8125
 40
0.8125
 40
0.875
 40
0.875
 40
0.9375
 40
0.9375
 40
1.0
 40
1.0
 40
1.0
 40
1.0
 10
589.850130512356
 20
-27.4996870131701
 30
0.0
 10
589.8501305123559
 20
-27.29344753532403
 30
0.0
 10
589.8877183052798
 20
-27.07094093460863
 30
0.0
 10
590.0582836657138
 20
-26.64010160826505
 30
0.0
 10
590.1918392676383
 20
-26.43310452373482
 30
0.0
 10
590.5335480229207
 20
-26.09139576845246
 30
0.0
 10
590.7405451074512
 20
-25.95784016652797
 30
0.0
 10
591.1713844337942
 20
-25.78727480609372
 30
0.0
 10
591.3938910345104
 20
-25.7496870131701
 30
0.0
 10
591.806369990202
 20
-25.7496870131701
 30
0.0
 10
592.0288765909178
 20
-25.78727480609372
 30
0.0
 10
592.4597159172612
 20
-25.95784016652797
 30
0.0
 10
592.6667130017912
 20
-26.09139576845246
 30
0.0
 10
593.0084217570737
 20
-26.43310452373485
 30
0.0
 10
593.141977358998
 20
-26.64010160826505
 30
0.0
 10
593.3125427194325
 20
-27.07094093460863
 30
0.0
 10
593.350130512356
 20
-27.29344753532403
 30
0.0
 10
593.3501305123559
 20
-27.70592649101616
 30
0.0
 10
593.3125427194324
 20
-27.92843309173157
 30
0.0
 10
593.1419773589985
 20
-28.35927241807515
 30
0.0
 10
593.0084217570736
 20
-28.56626950260535
 30
0.0
 10
592.6667130017913
 20
-28.90797825788774
 30
0.0
 10
592.4597159172611
 20
-29.04153385981223
 30
0.0
 10
592.0288765909175
 20
-29.21209922024648
 30
0.0
 10
591.8063699902023
 20
-29.24968701317013
 30
0.0
 10
591.3938910345099
 20
-29.2496870131701
 30
0.0
 10
591.1713844337946
 20
-29.21209922024648
 30
0.0
 10
590.7405451074509
 20
-29.0415338598122
 30
0.0
 10
590.5335480229206
 20
-28.90797825788771
 30
0.0
 10
590.1918392676381
 20
-28.56626950260535
 30
0.0
 10
590.0582836657137
 20
-28.35927241807515
 30
0.0
 10
589.8877183052795
 20
-27.92843309173154
 30
0.0
 10
589.8501305123561
 20
-27.70592649101616
 30
0.0
 10
589.850130512356
 20
-27.4996870131701
 30
0.0
  0
SPLINE
  5
84
330
1F
100
AcDbEntity
  8
0
  6
Continuous
 62
   144
370
    18
100
AcDbSpline
210
0.0
220
0.0
230
1.0
 70
    24
 71
     3
 72
    14
 73
    10
 74
     0
 42
0.000000001
 43
0.00000001
 40
0.0
 40
0.0
 40
0.0
 40
0.0
 40
0.25
 40
0.25
 40
0.5
 40
0.5
 40
0.75
 40
0.75
 40
1.0
 40
1.0
 40
1.0
 40
1.0
 10
-596.4085786437631
 20
-44.1
 30
0.0
 10
-596.4085786437631
 20
-44.20606601717797
 30
0.0
 10
-596.4085786437631
 20
-44.32049798326021
 30
0.0
 10
-596.4085786437631
 20
-44.54207249395117
 30
0.0
 10
-596.4085786437631
 20
-44.64852813742387
 30
0.0
 10
-596.4085786437632
 20
-44.82426406871195
 30
0.0
 10
-596.4085786437631
 20
-44.89294980684455
 30
0.0
 10
-596.4085786437632
 20
-44.98066913506788
 30
0.0
 10
-596.4085786437631
 20
-45.00000000000001
 30
0.0
 10
-596.4085786437631
 20
-44.99999999999999
 30
0.0
  0
SPLINE
  5
85
330
1F
100
AcDbEntity
  8
0
  6
Continuous
 62
   144
370
    18
100
AcDbSpline
210
0.0
220
0.0
230
1.0
 70
    24
 71
     3
 72
    14
 73
    10
 74
     0
 42
0.000000001
 43
0.00000001
 40
0.0
 40
0.0
 40
0.0
 40
0.0
 40
0.25
 40
0.25
 40
0.5
 40
0.5
 40
0.75
 40
0.75
 40
1.0
 40
1.0
 40
1.0
 40
1.0
 10
597.0
 20
-44.99999999999999
 30
0.0
 10
597.0
 20
-44.99999999999999
 30
0.0
 10
596.9999999999999
 20
-44.98066913506785
 30
0.0
 10
596.9999999999999
 20
-44.8929498068445
 30
0.0
 10
597.0
 20
-44.82426406871193
 30
0.0
 10
597.0000000000001
 20
-44.64852813742385
 30
0.0
 10
597.0
 20
-44.54207249395117
 30
0.0
 10
597.0000000000001
 20
-44.32049798326018
 30
0.0
 10
597.0
 20
-44.20606601717797
 30
0.0
 10
597.0
 20
-44.1
 30
0.0
  0
SPLINE
  5
86
330
1F
100
AcDbEntity
  8
0
  6
Continuous
 62
   144
370
    18
100
AcDbSpline
210
0.0
220
0.0
230
1.0
 70
     8
 71
     3
 72
    11
 73
     7
 74
     0
 42
0.000000001
 43
0.00000001
 40
0.0
 40
0.0
 40
0.0
 40
0.0
 40
0.2550715012693002
 40
0.5069041677664771
 40
0.7552032007696093
 40
0.9999999999999999
 40
0.9999999999999999
 40
0.9999999999999999
 40
0.9999999999999999
 10
-596.1000000000006
 20
-0.4968871125851093
 30
0.0
 10
-596.1003422431028
 20
-0.4894954018384856
 30
0.0
 10
-596.1010223835889
 20
-0.4748058384582143
 30
0.0
 10
-596.1067251312979
 20
-0.4605021031045264
 30
0.0
 10
-596.1155406850847
 20
-0.4515554979508674
 30
0.0
 10
-596.1246548775059
 20
-0.4505160383819762
 30
0.0
 10
-596.12917960675
 20
-0.4500000000000615
 30
0.0
  0
SPLINE
  5
87
330
1F
100
AcDbEntity
  8
0
  6
Continuous
 62
   144
370
    18
100
AcDbSpline
210
0.0
220
0.0
230
1.0
 70
     8
 71
     3
 72
    11
 73
     7
 74
     0
 42
0.000000001
 43
0.00000001
 40
0.0
 40
0.0
 40
0.0
 40
0.0
 40
0.2447967992329947
 40
0.4930958322372554
 40
0.7449284987335612
 40
0.9999999999999999
 40
0.9999999999999999
 40
0.9999999999999999
 40
0.9999999999999999
 10
596.12917960675
 20
-0.4500000000000615
 30
0.0
 10
596.1246548775057
 20
-0.4505160383819762
 30
0.0
 10
596.1155406850843
 20
-0.4515554979508951
 30
0.0
 10
596.1067251312982
 20
-0.4605021031046652
 30
0.0
 10
596.1010223835876
 20
-0.4748058384583809
 30
0.0
 10
596.1003422431015
 20
-0.4894954018385411
 30
0.0
 10
596.0999999999996
 20
-0.4968871125851093
 30
0.0
  0
LWPOLYLINE
  5
89
330
1F
100
AcDbEntity
  8
0
  6
Continuous
 62
   144
370
    18
100
AcDbPolyline
 90
        2
 70
   128
 43
0.0
 10
597.05
 20
-0.95
 10
597.05
 20
-0.95
  0
LWPOLYLINE
  5
8A
330
1F
100
AcDbEntity
  8
0
  6
Continuous
 62
   144
370
    18
100
AcDbPolyline
 90
        2
 70
   128
 43
0.0
 10
597.05
 20
-0.95
 10
597.05
 20
-0.95
  0
LWPOLYLINE
  5
8C
330
1F
100
AcDbEntity
  8
0
  6
Continuous
 62
   144
370
    18
100
AcDbPolyline
 90
        2
 70
   128
 43
0.0
 10
597.5
 20
-0.95
 10
597.5
 20
-0.95
  0
LWPOLYLINE
  5
8E
330
1F
100
AcDbEntity
  8
0
  6
Continuous
 62
   144
370
    18
100
AcDbPolyline
 90
        2
 70
   128
 43
0.0
 10
597.5
 20
-0.95
 10
597.5
 20
-0.95
  0
SPLINE
  5
8F
330
1F
100
AcDbEntity
  8
0
  6
Continuous
 62
   144
370
    18
100
AcDbSpline
210
0.0
220
0.0
230
1.0
 70
    24
 71
     3
 72
    10
 73
     6
 74
     0
 42
0.000000001
 43
0.00000001
 40
0.0
 40
0.0
 40
0.0
 40
0.0
 40
0.5
 40
0.5
 40
1.0
 40
1.0
 40
1.0
 40
1.0
 10
596.12917960675
 20
0.0
 30
0.0
 10
596.1608863013013
 20
0.0
 30
0.0
 10
596.2215314238712
 20
0.0
 30
0.0
 10
596.3885190824675
 20
0.0
 30
0.0
 10
596.4936525134623
 20
0.0
 30
0.0
 10
596.6
 20
0.0
 30
0.0
  0
SPLINE
  5
90
330
1F
100
AcDbEntity
  8
0
  6
Continuous
 62
   144
370
    18
100
AcDbSpline
210
0.0
220
0.0
230
1.0
 70
    24
 71
     3
 72
    10
 73
     6
 74
     0
 42
0.000000001
 43
0.00000001
 40
0.0
 40
0.0
 40
0.0
 40
0.0
 40
0.5
 40
0.5
 40
1.0
 40
1.0
 40
1.0
 40
1.0
 10
-596.6
 20
0.0
 30
0.0
 10
-596.4936525134623
 20
0.0
 30
0.0
 10
-596.3885190824675
 20
0.0
 30
0.0
 10
-596.2215314238709
 20
0.0
 30
0.0
 10
-596.1608863013009
 20
0.0
 30
0.0
 10
-596.12917960675
 20
0.0
 30
0.0
  0
SPLINE
  5
91
330
1F
100
AcDbEntity
  8
0
  6
Continuous
 62
   144
370
    18
100
AcDbSpline
210
0.0
220
0.0
230
1.0
 70
    24
 71
     3
 72
    10
 73
     6
 74
     0
 42
0.000000001
 43
0.00000001
 40
0.0
 40
0.0
 40
0.0
 40
0.0
 40
0.5
 40
0.5
 40
1.0
 40
1.0
 40
1.0
 40
1.0
 10
-596.12917960675
 20
-0.450000000000006
 30
0.0
 10
-596.1608863013013
 20
-0.450000000000006
 30
0.0
 10
-596.2215314238712
 20
-0.450000000000006
 30
0.0
 10
-596.3885190824675
 20
-0.450000000000006
 30
0.0
 10
-596.4936525134623
 20
-0.450000000000006
 30
0.0
 10
-596.6
 20
-0.450000000000006
 30
0.0
  0
SPLINE
  5
92
330
1F
100
AcDbEntity
  8
0
  6
Continuous
 62
   144
370
    18
100
AcDbSpline
210
0.0
220
0.0
230
1.0
 70
    24
 71
     3
 72
    10
 73
     6
 74
     0
 42
0.000000001
 43
0.00000001
 40
0.0
 40
0.0
 40
0.0
 40
0.0
 40
0.5
 40
0.5
 40
1.0
 40
1.0
 40
1.0
 40
1.0
 10
596.6
 20
-0.450000000000006
 30
0.0
 10
596.4936525134623
 20
-0.450000000000006
 30
0.0
 10
596.3885190824675
 20
-0.450000000000006
 30
0.0
 10
596.2215314238709
 20
-0.450000000000006
 30
0.0
 10
596.1608863013009
 20
-0.450000000000006
 30
0.0
 10
596.12917960675
 20
-0.450000000000006
 30
0.0
  0
LWPOLYLINE
  5
93
330
1F
100
AcDbEntity
  8
0
  6
Continuous
 62
   144
370
    18
100
AcDbPolyline
 90
        2
 70
   128
 43
0.0
 10
597.0
 20
-45.0
 10
597.0
 20
-45.0
  0
LWPOLYLINE
  5
94
330
1F
100
AcDbEntity
  8
0
  6
Continuous
 62
   144
370
    18
100
AcDbPolyline
 90
        2
 70
   128
 43
0.0
 10
-596.4085786438
 20
-45.0
 10
-596.4085786438
 20
-45.0
  0
SPLINE
  5
95
330
1F
100
AcDbEntity
  8
0
  6
Continuous
 62
   144
370
    18
100
AcDbSpline
210
0.0
220
0.0
230
1.0
 70
     8
 71
     3
 72
    14
 73
    10
 74
     0
 42
0.000000001
 43
0.00000001
 40
0.0
 40
0.0
 40
0.0
 40
0.0
 40
0.25
 40
0.25
 40
0.5
 40
0.5
 40
0.75
 40
0.75
 40
1.0
 40
1.0
 40
1.0
 40
1.0
 10
-596.6
 20
-44.55
 30
0.0
 10
-596.706066017178
 20
-44.54999999999998
 30
0.0
 10
-596.8204979832602
 20
-44.53066913506781
 30
0.0
 10
-597.0420724939511
 20
-44.44294980684443
 30
0.0
 10
-597.1485281374237
 20
-44.37426406871187
 30
0.0
 10
-597.324264068712
 20
-44.19852813742381
 30
0.0
 10
-597.3929498068444
 20
-44.09207249395116
 30
0.0
 10
-597.480669135068
 20
-43.8704979832602
 30
0.0
 10
-597.4999999999999
 20
-43.75606601717799
 30
0.0
 10
-597.5
 20
-43.64999999999999
 30
0.0
  0
LWPOLYLINE
  5
98
330
1F
100
AcDbEntity
  8
0
  6
Continuous
 62
   144
370
    18
100
AcDbPolyline
 90
        2
 70
   128
 43
0.0
 10
-597.05
 20
-42.2834697342
 10
-597.05
 20
-42.2834697342
  0
LWPOLYLINE
  5
9A
330
1F
100
AcDbEntity
  8
0
  6
Continuous
 62
   144
370
    18
100
AcDbPolyline
 90
        2
 70
   128
 43
0.0
 10
-597.05
 20
-42.7834697342
 10
-597.05
 20
-42.7834697342
  0
LWPOLYLINE
  5
9C
330
1F
100
AcDbEntity
  8
0
  6
Continuous
 62
   144
370
    18
100
AcDbPolyline
 90
        2
 70
   128
 43
0.0
 10
-597.05
 20
-43.65
 10
-597.05
 20
-43.65
  0
LWPOLYLINE
  5
9D
330
1F
100
AcDbEntity
  8
0
  6
Continuous
 62
   144
370
    18
100
AcDbPolyline
 90
        2
 70
   128
 43
0.0
 10
-597.05
 20
-42.7834697342
 10
-597.05
 20
-42.7834697342
  0
LWPOLYLINE
  5
9E
330
1F
100
AcDbEntity
  8
0
  6
Continuous
 62
   144
370
    18
100
AcDbPolyline
 90
        2
 70
   128
 43
0.0
 10
-597.05
 20
-42.2834697342
 10
-597.05
 20
-42.2834697342
  0
LWPOLYLINE
  5
A0
330
1F
100
AcDbEntity
  8
0
  6
Continuous
 62
   144
370
    18
100
AcDbPolyline
 90
        2
 70
   128
 43
0.0
 10
-597.5
 20
-42.2834697342
 10
-597.5
 20
-42.2834697342
  0
LWPOLYLINE
  5
A1
330
1F
100
AcDbEntity
  8
0
  6
Continuous
 62
   144
370
    18
100
AcDbPolyline
 90
        2
 70
   128
 43
0.0
 10
-597.5
 20
-42.7834697342
 10
-597.5
 20
-42.7834697342
  0
LWPOLYLINE
  5
A3
330
1F
100
AcDbEntity
  8
0
  6
Continuous
 62
   144
370
    18
100
AcDbPolyline
 90
        2
 70
   128
 43
0.0
 10
-597.5
 20
-42.7834697342
 10
-597.5
 20
-42.7834697342
  0
LWPOLYLINE
  5
A5
330
1F
100
AcDbEntity
  8
0
  6
Continuous
 62
   144
370
    18
100
AcDbPolyline
 90
        2
 70
   128
 43
0.0
 10
-597.5
 20
-42.2834697342
 10
-597.5
 20
-42.2834697342
  0
SPLINE
  5
A8
330
1F
100
AcDbEntity
  8
0
  6
Continuous
 62
   144
370
    18
100
AcDbSpline
210
0.0
220
0.0
230
1.0
 70
     8
 71
     3
 72
    14
 73
    10
 74
     0
 42
0.000000001
 43
0.00000001
 40
0.0
 40
0.0
 40
0.0
 40
0.0
 40
0.25
 40
0.25
 40
0.5
 40
0.5
 40
0.75
 40
0.75
 40
1.0
 40
1.0
 40
1.0
 40
1.0
 10
-597.5
 20
-0.9000000000000119
 30
0.0
 10
-597.4999999999999
 20
-0.806458565330681
 30
0.0
 10
-597.4850605822566
 20
-0.7075231254028425
 30
0.0
 10
-597.4196391877914
 20
-0.5145506734279826
 30
0.0
 10
-597.3690415759822
 20
-0.4208339281970841
 30
0.0
 10
-597.2380831519645
 20
-0.2566688557707753
 30
0.0
 10
-597.1579536099331
 20
-0.1865104410845309
 30
0.0
 10
-596.9843443205
 20
-0.0798420732455452
 30
0.0
 10
-596.8912025286633
 20
-0.0432905467428468
 30
0.0
 10
-596.8
 20
-0.0225035612607671
 30
0.0
  0
SPLINE
  5
A9
330
1F
100
AcDbEntity
  8
0
  6
Continuous
 62
   144
370
    18
100
AcDbSpline
210
0.0
220
0.0
230
1.0
 70
     8
 71
     3
 72
    10
 73
     6
 74
     0
 42
0.000000001
 43
0.00000001
 40
0.0
 40
0.0
 40
0.0
 40
0.0
 40
0.3351938552467991
 40
0.6677411770821614
 40
1.0
 40
1.0
 40
1.0
 40
1.0
 10
-596.8000000000002
 20
-0.0225035612608226
 30
0.0
 10
-596.7776165597646
 20
-0.0179351832963748
 30
0.0
 10
-596.7330264084356
 20
-0.0088344971365117
 30
0.0
 10
-596.6656690342313
 20
-0.0014221951938342
 30
0.0
 10
-596.6218833443389
 20
-0.0004739278947619
 30
0.0
 10
-596.6
 20
0.0
 30
0.0
  0
SPLINE
  5
AA
330
1F
100
AcDbEntity
  8
0
  6
Continuous
 62
   144
370
    18
100
AcDbSpline
210
0.0
220
0.0
230
1.0
 70
     8
 71
     3
 72
    11
 73
     7
 74
     0
 42
0.000000001
 43
0.00000001
 40
0.0
 40
0.0
 40
0.0
 40
0.0
 40
0.2550715012671647
 40
0.5069041677640176
 40
0.7552032007678343
 40
1.0
 40
1.0
 40
1.0
 40
1.0
 10
596.8000000000002
 20
-0.4968871125848873
 30
0.0
 10
596.7837284646389
 20
-0.4894954018382913
 30
0.0
 10
596.7513920058436
 20
-0.4748058384580756
 30
0.0
 10
596.7006313011831
 20
-0.4605021031043877
 30
0.0
 10
596.649848467632
 20
-0.4515554979505898
 30
0.0
 10
596.6165372912029
 20
-0.4505160383816709
 30
0.0
 10
596.6000000000001
 20
-0.4499999999997284
 30
0.0
  0
SPLINE
  5
AB
330
1F
100
AcDbEntity
  8
0
  6
Continuous
 62
   144
370
    18
100
AcDbSpline
210
0.0
220
0.0
230
1.0
 70
     8
 71
     3
 72
    10
 73
     6
 74
     0
 42
0.000000001
 43
0.00000001
 40
0.0
 40
0.0
 40
0.0
 40
0.0
 40
0.5
 40
0.5
 40
1.0
 40
1.0
 40
1.0
 40
1.0
 10
596.8
 20
-0.4968871125850816
 30
0.0
 10
596.8708197154665
 20
-0.5320235310314336
 30
0.0
 10
596.9373774391987
 20
-0.5901898064113731
 30
0.0
 10
597.0274754878395
 20
-0.7354685445633835
 30
0.0
 10
597.0499999999998
 20
-0.8209430584957544
 30
0.0
 10
597.05
 20
-0.9000000000000119
 30
0.0
  0
SPLINE
  5
AC
330
1F
100
AcDbEntity
  8
0
  6
Continuous
 62
   144
370
    18
100
AcDbSpline
210
0.0
220
0.0
230
1.0
 70
     8
 71
     3
 72
    14
 73
    10
 74
     0
 42
0.000000001
 43
0.00000001
 40
0.0
 40
0.0
 40
0.0
 40
0.0
 40
0.25
 40
0.25
 40
0.5
 40
0.5
 40
0.75
 40
0.75
 40
1.0
 40
1.0
 40
1.0
 40
1.0
 10
596.8
 20
-0.0225035612607949
 30
0.0
 10
596.8912025286634
 20
-0.0432905467428746
 30
0.0
 10
596.9843443205002
 20
-0.0798420732456007
 30
0.0
 10
597.157953609933
 20
-0.1865104410845864
 30
0.0
 10
597.2380831519646
 20
-0.2566688557708308
 30
0.0
 10
597.3690415759824
 20
-0.4208339281971119
 30
0.0
 10
597.4196391877916
 20
-0.5145506734280103
 30
0.0
 10
597.4850605822564
 20
-0.7075231254028425
 30
0.0
 10
597.4999999999999
 20
-0.806458565330681
 30
0.0
 10
597.5
 20
-0.9000000000000119
 30
0.0
  0
SPLINE
  5
AD
330
1F
100
AcDbEntity
  8
0
  6
Continuous
 62
   144
370
    18
100
AcDbSpline
210
0.0
220
0.0
230
1.0
 70
     8
 71
     3
 72
    10
 73
     6
 74
     0
 42
0.000000001
 43
0.00000001
 40
0.0
 40
0.0
 40
0.0
 40
0.0
 40
0.3322588229181719
 40
0.6648061447539453
 40
0.9999999999999999
 40
0.9999999999999999
 40
0.9999999999999999
 40
0.9999999999999999
 10
596.6
 20
0.000000000000111
 30
0.0
 10
596.6218833443389
 20
-0.0004739278946508
 30
0.0
 10
596.6656690342311
 20
-0.0014221951937232
 30
0.0
 10
596.7330264084355
 20
-0.008834497136373
 30
0.0
 10
596.7776165597646
 20
-0.0179351832962638
 30
0.0
 10
596.8
 20
-0.0225035612607116
 30
0.0
  0
SPLINE
  5
AE
330
1F
100
AcDbEntity
  8
0
  6
Continuous
 62
   144
370
    18
100
AcDbSpline
210
0.0
220
0.0
230
1.0
 70
     8
 71
     3
 72
    10
 73
     6
 74
     0
 42
0.000000001
 43
0.00000001
 40
0.0
 40
0.0
 40
0.0
 40
0.0
 40
0.5
 40
0.5
 40
1.0
 40
1.0
 40
1.0
 40
1.0
 10
-596.8
 20
-0.4968871125850816
 30
0.0
 10
-596.8708197154665
 20
-0.5320235310314336
 30
0.0
 10
-596.9373774391987
 20
-0.5901898064113731
 30
0.0
 10
-597.0274754878395
 20
-0.7354685445633835
 30
0.0
 10
-597.0499999999998
 20
-0.8209430584957544
 30
0.0
 10
-597.05
 20
-0.9000000000000119
 30
0.0
  0
SPLINE
  5
AF
330
1F
100
AcDbEntity
  8
0
  6
Continuous
 62
   144
370
    18
100
AcDbSpline
210
0.0
220
0.0
230
1.0
 70
     8
 71
     3
 72
    11
 73
     7
 74
     0
 42
0.000000001
 43
0.00000001
 40
0.0
 40
0.0
 40
0.0
 40
0.0
 40
0.2447967992322425
 40
0.4930958322362327
 40
0.7449284987331893
 40
0.9999999999999999
 40
0.9999999999999999
 40
0.9999999999999999
 40
0.9999999999999999
 10
-596.6000000000001
 20
-0.4499999999999782
 30
0.0
 10
-596.6165372912027
 20
-0.4505160383818929
 30
0.0
 10
-596.6498484676317
 20
-0.4515554979508118
 30
0.0
 10
-596.7006313011833
 20
-0.4605021031045542
 30
0.0
 10
-596.7513920058434
 20
-0.4748058384581866
 30
0.0
 10
-596.7837284646388
 20
-0.4894954018384301
 30
0.0
 10
-596.8000000000001
 20
-0.496887112585026
 30
0.0
  0
LWPOLYLINE
  5
B0
330
1F
100
AcDbEntity
  8
0
  6
Continuous
 62
   144
370
    18
100
AcDbPolyline
 90
        2
 70
   128
 43
0.0
 10
-596.4085786438
 20
-45.0
 10
-596.4085786438
 20
-45.0
  0
SPLINE
  5
B2
330
1F
100
AcDbEntity
  8
0
  6
Continuous
 62
   144
370
    18
100
AcDbSpline
210
0.0
220
0.0
230
1.0
 70
     8
 71
     3
 72
    13
 73
     9
 74
     0
 42
0.000000001
 43
0.00000001
 40
0.0
 40
0.0
 40
0.0
 40
0.0
 40
0.1490448496288876
 40
0.3049135717913062
 40
0.4679925112016217
 40
0.6383893297242491
 40
0.8159016331496682
 40
0.9999999999999999
 40
0.9999999999999999
 40
0.9999999999999999
 40
0.9999999999999999
 10
597.050130512356
 20
-44.54968701317
 30
0.0
 10
597.0493941809295
 20
-44.5774605768999
 30
0.0
 10
597.047887805863
 20
-44.63427928978631
 30
0.0
 10
597.0348206883606
 20
-44.72273815623426
 30
0.0
 10
597.0121951365162
 20
-44.81443235913313
 30
0.0
 10
596.9777489562134
 20
-44.9078079971435
 30
0.0
 10
596.9316098855049
 20
-45.00144571961665
 30
0.0
 10
596.8909691134387
 20
-45.05978735666355
 30
0.0
 10
596.8702786295013
 20
-45.08948946720007
 30
0.0
  0
SPLINE
  5
B3
330
1F
100
AcDbEntity
  8
0
  6
Continuous
 62
   144
370
    18
100
AcDbSpline
210
0.0
220
0.0
230
1.0
 70
     8
 71
     3
 72
    10
 73
     6
 74
     0
 42
0.000000001
 43
0.00000001
 40
0.0
 40
0.0
 40
0.0
 40
0.0
 40
0.5
 40
0.5
 40
1.0
 40
1.0
 40
1.0
 40
1.0
 10
596.2404684806329
 20
-45.44514167505289
 30
0.0
 10
596.3631609063881
 20
-45.43276384629485
 30
0.0
 10
596.4849195002816
 20
-45.39433246877439
 30
0.0
 10
596.7017154381944
 20
-45.27167340798957
 30
0.0
 10
596.7966106557496
 20
-45.18776010589468
 30
0.0
 10
596.8702536176289
 20
-45.0895228338167
 30
0.0
  0
SPLINE
  5
B4
330
1F
100
AcDbEntity
  8
0
  6
Continuous
 62
   144
370
    18
100
AcDbSpline
210
0.0
220
0.0
230
1.0
 70
     8
 71
     3
 72
     8
 73
     4
 74
     0
 42
0.000000001
 43
0.00000001
 40
0.0
 40
0.0
 40
0.0
 40
0.0
 40
1.0
 40
1.0
 40
1.0
 40
1.0
 10
596.150130512355
 20
-45.44968701317001
 30
0.0
 10
596.180280583033
 20
-45.44968702960783
 30
0.0
 10
596.2104706100005
 20
-45.44816802519696
 30
0.0
 10
596.240468409725
 20
-45.44514168219948
 30
0.0
  0
SPLINE
  5
B7
330
1F
100
AcDbEntity
  8
0
  6
Continuous
 62
   144
370
    18
100
AcDbSpline
210
0.0
220
0.0
230
1.0
 70
    24
 71
     3
 72
    10
 73
     6
 74
     0
 42
0.000000001
 43
0.00000001
 40
0.0
 40
0.0
 40
0.0
 40
0.0
 40
0.5
 40
0.5
 40
1.0
 40
1.0
 40
1.0
 40
1.0
 10
594.983866517586
 20
-45.44968701317001
 30
0.0
 10
594.8644452618584
 20
-45.44968701317001
 30
0.0
 10
594.7409243732646
 20
-45.44968701317001
 30
0.0
 10
594.5102811275416
 20
-45.44968701317001
 30
0.0
 10
594.4036669062839
 20
-45.44968701317001
 30
0.0
 10
594.3149017859639
 20
-45.44968701317001
 30
0.0
  0
SPLINE
  5
BC
330
1F
100
AcDbEntity
  8
0
  6
Continuous
 62
     7
370
    25
100
AcDbSpline
210
0.0
220
0.0
230
1.0
 70
    24
 71
     3
 72
    14
 73
    10
 74
     0
 42
0.000000001
 43
0.00000001
 40
0.0
 40
0.0
 40
0.0
 40
0.0
 40
0.25
 40
0.25
 40
0.5
 40
0.5
 40
0.75
 40
0.75
 40
1.0
 40
1.0
 40
1.0
 40
1.0
 10
728.6425633453792
 20
-0.0225035612606284
 30
0.0
 10
728.6425633453792
 20
-0.0432905467427358
 30
0.0
 10
728.6425633453792
 20
-0.0798420732454619
 30
0.0
 10
728.642563345379
 20
-0.1865104410844476
 30
0.0
 10
728.6425633453792
 20
-0.2566688557706642
 30
0.0
 10
728.6425633453791
 20
-0.4208339281969453
 30
0.0
 10
728.6425633453794
 20
-0.514550673427816
 30
0.0
 10
728.6425633453794
 20
-0.7075231254026759
 30
0.0
 10
728.6425633453792
 20
-0.8064585653305145
 30
0.0
 10
728.6425633453792
 20
-0.8999999999998731
 30
0.0
  0
SPLINE
  5
BD
330
1F
100
AcDbEntity
  8
0
  6
Continuous
 62
   144
370
    18
100
AcDbSpline
210
0.0
220
0.0
230
1.0
 70
    24
 71
     3
 72
    14
 73
    10
 74
     0
 42
0.000000001
 43
0.00000001
 40
0.0
 40
0.0
 40
0.0
 40
0.0
 40
0.25
 40
0.25
 40
0.5
 40
0.5
 40
0.75
 40
0.75
 40
1.0
 40
1.0
 40
1.0
 40
1.0
 10
1020.842563345379
 20
-0.8999999999999286
 30
0.0
 10
1020.842563345379
 20
-0.8064585653305978
 30
0.0
 10
1020.842563345379
 20
-0.7075231254027592
 30
0.0
 10
1020.842563345379
 20
-0.5145506734278993
 30
0.0
 10
1020.842563345379
 20
-0.4208339281970008
 30
0.0
 10
1020.842563345379
 20
-0.256668855770692
 30
0.0
 10
1020.842563345379
 20
-0.1865104410844476
 30
0.0
 10
1020.842563345379
 20
-0.0798420732454619
 30
0.0
 10
1020.842563345379
 20
-0.0432905467427913
 30
0.0
 10
1020.842563345379
 20
-0.0225035612607116
 30
0.0
  0
SPLINE
  5
BE
330
1F
100
AcDbEntity
  8
0
  6
Continuous
 62
   144
370
    18
100
AcDbSpline
210
0.0
220
0.0
230
1.0
 70
     8
 71
     3
 72
    10
 73
     6
 74
     0
 42
0.000000001
 43
0.00000001
 40
0.0
 40
0.0
 40
0.0
 40
0.0
 40
0.3351938552466032
 40
0.667741177081852
 40
0.9999999999999999
 40
0.9999999999999999
 40
0.9999999999999999
 40
0.9999999999999999
 10
1020.842563345379
 20
-0.0225035612607394
 30
0.0
 10
1020.8432047945
 20
-0.0179351832963193
 30
0.0
 10
1020.844482628162
 20
-0.0088344971364285
 30
0.0
 10
1020.854228351183
 20
-0.001422195193751
 30
0.0
 10
1020.865906441086
 20
-0.0004739278946786
 30
0.0
 10
1020.871742952129
 20
0.0000000000000555
 30
0.0
  0
SPLINE
  5
BF
330
1F
100
AcDbEntity
  8
0
  6
Continuous
 62
   144
370
    18
100
AcDbSpline
210
0.0
220
0.0
230
1.0
 70
     8
 71
     3
 72
    10
 73
     6
 74
     0
 42
0.000000001
 43
0.00000001
 40
0.0
 40
0.0
 40
0.0
 40
0.0
 40
0.3322588229163895
 40
0.6648061447514958
 40
1.0
 40
1.0
 40
1.0
 40
1.0
 10
728.6133837386293
 20
0.000000000000111
 30
0.0
 10
728.6192202496721
 20
-0.0004739278946231
 30
0.0
 10
728.6308983395759
 20
-0.0014221951936955
 30
0.0
 10
728.6406440625964
 20
-0.0088344971363175
 30
0.0
 10
728.6419218962579
 20
-0.017935183296236
 30
0.0
 10
728.6425633453794
 20
-0.0225035612606839
 30
0.0
  0
LWPOLYLINE
  5
C1
330
1F
100
AcDbEntity
  8
0
  6
Continuous
 62
   144
370
    18
100
AcDbPolyline
 90
        2
 70
   128
 43
0.0
 10
728.6425633454
 20
-1.65
 10
728.6425633454
 20
-1.65
  0
SPLINE
  5
C3
330
1F
100
AcDbEntity
  8
0
  6
Continuous
 62
   144
370
    18
100
AcDbSpline
210
0.0
220
0.0
230
1.0
 70
    24
 71
     3
 72
    14
 73
    10
 74
     0
 42
0.000000001
 43
0.00000001
 40
0.0
 40
0.0
 40
0.0
 40
0.0
 40
0.25
 40
0.25
 40
0.5
 40
0.5
 40
0.75
 40
0.75
 40
1.0
 40
1.0
 40
1.0
 40
1.0
 10
728.6425633453792
 20
-1.649999999999874
 30
0.0
 10
728.5364973282012
 20
-1.649999999999874
 30
0.0
 10
728.4220653621193
 20
-1.649999999999874
 30
0.0
 10
728.2004908514282
 20
-1.649999999999874
 30
0.0
 10
728.0940352079554
 20
-1.649999999999874
 30
0.0
 10
727.9182992766673
 20
-1.649999999999874
 30
0.0
 10
727.8496135385348
 20
-1.649999999999874
 30
0.0
 10
727.7618942103115
 20
-1.649999999999874
 30
0.0
 10
727.7425633453793
 20
-1.649999999999874
 30
0.0
 10
727.7425633453793
 20
-1.649999999999874
 30
0.0
  0
SPLINE
  5
C5
330
1F
100
AcDbEntity
  8
0
  6
Continuous
 62
   144
370
    18
100
AcDbSpline
210
0.0
220
0.0
230
1.0
 70
    24
 71
     3
 72
    14
 73
    10
 74
     0
 42
0.000000001
 43
0.00000001
 40
0.0
 40
0.0
 40
0.0
 40
0.0
 40
0.25
 40
0.25
 40
0.5
 40
0.5
 40
0.75
 40
0.75
 40
1.0
 40
1.0
 40
1.0
 40
1.0
 10
727.7425633453793
 20
-42.28346973415687
 30
0.0
 10
727.742563345379
 20
-42.28346973415687
 30
0.0
 10
727.7618942103113
 20
-42.2834697341569
 30
0.0
 10
727.8496135385343
 20
-42.28346973415687
 30
0.0
 10
727.9182992766673
 20
-42.28346973415687
 30
0.0
 10
728.0940352079551
 20
-42.2834697341569
 30
0.0
 10
728.2004908514281
 20
-42.28346973415687
 30
0.0
 10
728.422065362119
 20
-42.2834697341569
 30
0.0
 10
728.5364973282012
 20
-42.28346973415687
 30
0.0
 10
728.6425633453792
 20
-42.28346973415687
 30
0.0
  0
SPLINE
  5
C9
330
1F
100
AcDbEntity
  8
0
  6
Continuous
 62
   144
370
    18
100
AcDbSpline
210
0.0
220
0.0
230
1.0
 70
    24
 71
     3
 72
    14
 73
    10
 74
     0
 42
0.000000001
 43
0.00000001
 40
0.0
 40
0.0
 40
0.0
 40
0.0
 40
0.25
 40
0.25
 40
0.5
 40
0.5
 40
0.75
 40
0.75
 40
1.0
 40
1.0
 40
1.0
 40
1.0
 10
1021.151141989142
 20
-44.54999999999993
 30
0.0
 10
1021.151141989142
 20
-44.5499999999999
 30
0.0
 10
1021.151141989142
 20
-44.53066913506773
 30
0.0
 10
1021.151141989142
 20
-44.44294980684435
 30
0.0
 10
1021.151141989142
 20
-44.37426406871178
 30
0.0
 10
1021.151141989142
 20
-44.19852813742375
 30
0.0
 10
1021.151141989142
 20
-44.09207249395109
 30
0.0
 10
1021.151141989142
 20
-43.87049798326012
 30
0.0
 10
1021.151141989142
 20
-43.75606601717791
 30
0.0
 10
1021.151141989142
 20
-43.64999999999991
 30
0.0
  0
SPLINE
  5
CA
330
1F
100
AcDbEntity
  8
0
  6
Continuous
 62
   144
370
    18
100
AcDbSpline
210
0.0
220
0.0
230
1.0
 70
    24
 71
     3
 72
    14
 73
    10
 74
     0
 42
0.000000001
 43
0.00000001
 40
0.0
 40
0.0
 40
0.0
 40
0.0
 40
0.25
 40
0.25
 40
0.5
 40
0.5
 40
0.75
 40
0.75
 40
1.0
 40
1.0
 40
1.0
 40
1.0
 10
728.3339847016161
 20
-44.54999999999987
 30
0.0
 10
728.3339847016161
 20
-44.54999999999984
 30
0.0
 10
728.333984701616
 20
-44.5306691350677
 30
0.0
 10
728.3339847016156
 20
-44.4429498068443
 30
0.0
 10
728.3339847016163
 20
-44.37426406871175
 30
0.0
 10
728.3339847016164
 20
-44.1985281374237
 30
0.0
 10
728.3339847016161
 20
-44.09207249395103
 30
0.0
 10
728.3339847016164
 20
-43.87049798326007
 30
0.0
 10
728.3339847016161
 20
-43.75606601717785
 30
0.0
 10
728.3339847016161
 20
-43.64999999999988
 30
0.0
  0
SPLINE
  5
D4
330
1F
100
AcDbEntity
  8
0
  6
Continuous
 62
   144
370
    18
100
AcDbSpline
210
0.0
220
0.0
230
1.0
 70
     8
 71
     3
 72
    11
 73
     7
 74
     0
 42
0.000000001
 43
0.00000001
 40
0.0
 40
0.0
 40
0.0
 40
0.0
 40
0.255071501267316
 40
0.5069041677635954
 40
0.7552032007678201
 40
1.0
 40
1.0
 40
1.0
 40
1.0
 10
728.6425633453792
 20
-0.496887112584915
 30
0.0
 10
728.6422211022772
 20
-0.4894954018383468
 30
0.0
 10
728.6415409617907
 20
-0.4748058384581588
 30
0.0
 10
728.6358382140818
 20
-0.4605021031044154
 30
0.0
 10
728.6270226602945
 20
-0.4515554979507008
 30
0.0
 10
728.6179084678736
 20
-0.4505160383817819
 30
0.0
 10
728.6133837386294
 20
-0.4499999999998672
 30
0.0
  0
SPLINE
  5
D5
330
1F
100
AcDbEntity
  8
0
  6
Continuous
 62
   144
370
    18
100
AcDbSpline
210
0.0
220
0.0
230
1.0
 70
     8
 71
     3
 72
    11
 73
     7
 74
     0
 42
0.000000001
 43
0.00000001
 40
0.0
 40
0.0
 40
0.0
 40
0.0
 40
0.2447967992323179
 40
0.4930958322361637
 40
0.7449284987332268
 40
0.9999999999999999
 40
0.9999999999999999
 40
0.9999999999999999
 40
0.9999999999999999
 10
1020.871742952129
 20
-0.4499999999999227
 30
0.0
 10
1020.867218222885
 20
-0.4505160383818374
 30
0.0
 10
1020.858104030464
 20
-0.4515554979507286
 30
0.0
 10
1020.849288476677
 20
-0.4605021031044987
 30
0.0
 10
1020.843585728968
 20
-0.4748058384581033
 30
0.0
 10
1020.842905588481
 20
-0.4894954018383468
 30
0.0
 10
1020.842563345379
 20
-0.4968871125849428
 30
0.0
  0
LWPOLYLINE
  5
D6
330
1F
100
AcDbEntity
  8
0
  6
Continuous
 62
   144
370
    18
100
AcDbPolyline
 90
        2
 70
   128
 43
0.0
 10
727.2425633454
 20
-0.95
 10
727.2425633454
 20
-0.95
  0
LWPOLYLINE
  5
D8
330
1F
100
AcDbEntity
  8
0
  6
Continuous
 62
   144
370
    18
100
AcDbPolyline
 90
        2
 70
   128
 43
0.0
 10
727.2425633454
 20
-43.7334697342
 10
727.2425633454
 20
-43.7334697342
  0
LWPOLYLINE
  5
DA
330
1F
100
AcDbEntity
  8
0
  6
Continuous
 62
   144
370
    18
100
AcDbPolyline
 90
        2
 70
   128
 43
0.0
 10
727.2425633454
 20
-0.95
 10
727.2425633454
 20
-0.95
  0
LWPOLYLINE
  5
DC
330
1F
100
AcDbEntity
  8
0
  6
Continuous
 62
   144
370
    18
100
AcDbPolyline
 90
        2
 70
   128
 43
0.0
 10
1021.7925633454
 20
-0.95
 10
1021.7925633454
 20
-0.95
  0
LWPOLYLINE
  5
DD
330
1F
100
AcDbEntity
  8
0
  6
Continuous
 62
   144
370
    18
100
AcDbPolyline
 90
        2
 70
   128
 43
0.0
 10
1021.7925633454
 20
-44.1
 10
1021.7925633454
 20
-44.1
  0
LWPOLYLINE
  5
DF
330
1F
100
AcDbEntity
  8
0
  6
Continuous
 62
   144
370
    18
100
AcDbPolyline
 90
        2
 70
   128
 43
0.0
 10
1021.7925633454
 20
-43.7334697342
 10
1021.7925633454
 20
-43.7334697342
  0
LWPOLYLINE
  5
E1
330
1F
100
AcDbEntity
  8
0
  6
Continuous
 62
   144
370
    18
100
AcDbPolyline
 90
        2
 70
   128
 43
0.0
 10
1021.7925633454
 20
-0.95
 10
1021.7925633454
 20
-0.95
  0
LWPOLYLINE
  5
E4
330
1F
100
AcDbEntity
  8
0
  6
Continuous
 62
   144
370
    18
100
AcDbPolyline
 90
        2
 70
   128
 43
0.0
 10
1022.2425633454
 20
-0.95
 10
1022.2425633454
 20
-0.95
  0
LWPOLYLINE
  5
E6
330
1F
100
AcDbEntity
  8
0
  6
Continuous
 62
   144
370
    18
100
AcDbPolyline
 90
        2
 70
   128
 43
0.0
 10
1022.2425633454
 20
-43.7334697342
 10
1022.2425633454
 20
-43.7334697342
  0
LWPOLYLINE
  5
E8
330
1F
100
AcDbEntity
  8
0
  6
Continuous
 62
   144
370
    18
100
AcDbPolyline
 90
        2
 70
   128
 43
0.0
 10
1022.2425633454
 20
-0.95
 10
1022.2425633454
 20
-0.95
  0
LWPOLYLINE
  5
EA
330
1F
100
AcDbEntity
  8
0
  6
Continuous
 62
   144
370
    18
100
AcDbPolyline
 90
        2
 70
   128
 43
0.0
 10
727.6925633454
 20
-0.95
 10
727.6925633454
 20
-0.95
  0
LWPOLYLINE
  5
EC
330
1F
100
AcDbEntity
  8
0
  6
Continuous
 62
   144
370
    18
100
AcDbPolyline
 90
        2
 70
   128
 43
0.0
 10
727.6925633454
 20
-43.7334697342
 10
727.6925633454
 20
-43.7334697342
  0
LWPOLYLINE
  5
EE
330
1F
100
AcDbEntity
  8
0
  6
Continuous
 62
   144
370
    18
100
AcDbPolyline
 90
        2
 70
   128
 43
0.0
 10
727.6925633454
 20
-44.1
 10
727.6925633454
 20
-44.1
  0
LWPOLYLINE
  5
EF
330
1F
100
AcDbEntity
  8
0
  6
Continuous
 62
   144
370
    18
100
AcDbPolyline
 90
        2
 70
   128
 43
0.0
 10
727.6925633454
 20
-0.95
 10
727.6925633454
 20
-0.95
  0
SPLINE
  5
F0
330
1F
100
AcDbEntity
  8
0
  6
Continuous
 62
   144
370
    18
100
AcDbSpline
210
0.0
220
0.0
230
1.0
 70
    24
 71
     3
 72
    10
 73
     6
 74
     0
 42
0.000000001
 43
0.00000001
 40
0.0
 40
0.0
 40
0.0
 40
0.0
 40
0.5
 40
0.5
 40
1.0
 40
1.0
 40
1.0
 40
1.0
 10
728.6133837386293
 20
0.000000000000111
 30
0.0
 10
728.5816770440782
 20
0.000000000000111
 30
0.0
 10
728.5210319215084
 20
0.000000000000111
 30
0.0
 10
728.3540442629119
 20
0.000000000000111
 30
0.0
 10
728.2489108319169
 20
0.000000000000111
 30
0.0
 10
728.1425633453792
 20
0.000000000000111
 30
0.0
  0
SPLINE
  5
F1
330
1F
100
AcDbEntity
  8
0
  6
Continuous
 62
   144
370
    18
100
AcDbSpline
210
0.0
220
0.0
230
1.0
 70
    24
 71
     3
 72
    10
 73
     6
 74
     0
 42
0.000000001
 43
0.00000001
 40
0.0
 40
0.0
 40
0.0
 40
0.0
 40
0.5
 40
0.5
 40
1.0
 40
1.0
 40
1.0
 40
1.0
 10
1020.871742952129
 20
0.0000000000000833
 30
0.0
 10
1020.90344964668
 20
0.0000000000000833
 30
0.0
 10
1020.964094769251
 20
0.0000000000000833
 30
0.0
 10
1021.131082427847
 20
0.0000000000000833
 30
0.0
 10
1021.236215858842
 20
0.0000000000000833
 30
0.0
 10
1021.342563345379
 20
0.0000000000000833
 30
0.0
  0
SPLINE
  5
F2
330
1F
100
AcDbEntity
  8
0
  6
Continuous
 62
   144
370
    18
100
AcDbSpline
210
0.0
220
0.0
230
1.0
 70
    24
 71
     3
 72
    10
 73
     6
 74
     0
 42
0.000000001
 43
0.00000001
 40
0.0
 40
0.0
 40
0.0
 40
0.0
 40
0.5
 40
0.5
 40
1.0
 40
1.0
 40
1.0
 40
1.0
 10
1021.342563345379
 20
-0.4499999999999227
 30
0.0
 10
1021.236215858841
 20
-0.4499999999999227
 30
0.0
 10
1021.131082427847
 20
-0.4499999999999227
 30
0.0
 10
1020.96409476925
 20
-0.4499999999999227
 30
0.0
 10
1020.90344964668
 20
-0.4499999999999227
 30
0.0
 10
1020.871742952129
 20
-0.4499999999999227
 30
0.0
  0
SPLINE
  5
F3
330
1F
100
AcDbEntity
  8
0
  6
Continuous
 62
   144
370
    18
100
AcDbSpline
210
0.0
220
0.0
230
1.0
 70
    24
 71
     3
 72
    10
 73
     6
 74
     0
 42
0.000000001
 43
0.00000001
 40
0.0
 40
0.0
 40
0.0
 40
0.0
 40
0.5
 40
0.5
 40
1.0
 40
1.0
 40
1.0
 40
1.0
 10
728.1425633453792
 20
-0.4499999999998672
 30
0.0
 10
728.2489108319168
 20
-0.4499999999998672
 30
0.0
 10
728.3540442629117
 20
-0.4499999999998672
 30
0.0
 10
728.5210319215082
 20
-0.4499999999998672
 30
0.0
 10
728.5816770440781
 20
-0.4499999999998672
 30
0.0
 10
728.6133837386293
 20
-0.4499999999998672
 30
0.0
  0
LWPOLYLINE
  5
F4
330
1F
100
AcDbEntity
  8
0
  6
Continuous
 62
   144
370
    18
100
AcDbPolyline
 90
        2
 70
   128
 43
0.0
 10
1021.1511419891
 20
-44.55
 10
1021.1511419891
 20
-44.55
  0
LWPOLYLINE
  5
F5
330
1F
100
AcDbEntity
  8
0
  6
Continuous
 62
   144
370
    18
100
AcDbPolyline
 90
        2
 70
   128
 43
0.0
 10
728.3339847016
 20
-44.55
 10
728.3339847016
 20
-44.55
  0
SPLINE
  5
F6
330
1F
100
AcDbEntity
  8
0
  6
Continuous
 62
   144
370
    18
100
AcDbSpline
210
0.0
220
0.0
230
1.0
 70
     8
 71
     3
 72
    14
 73
    10
 74
     0
 42
0.000000001
 43
0.00000001
 40
0.0
 40
0.0
 40
0.0
 40
0.0
 40
0.25
 40
0.25
 40
0.5
 40
0.5
 40
0.75
 40
0.75
 40
1.0
 40
1.0
 40
1.0
 40
1.0
 10
727.2425633453792
 20
-44.09999999999986
 30
0.0
 10
727.2425633453792
 20
-44.20606601717786
 30
0.0
 10
727.2618942103113
 20
-44.3204979832601
 30
0.0
 10
727.3496135385345
 20
-44.54207249395106
 30
0.0
 10
727.4182992766673
 20
-44.64852813742376
 30
0.0
 10
727.5940352079551
 20
-44.82426406871184
 30
0.0
 10
727.7004908514278
 20
-44.89294980684441
 30
0.0
 10
727.9220653621189
 20
-44.98066913506774
 30
0.0
 10
728.0364973282012
 20
-44.99999999999987
 30
0.0
 10
728.1425633453792
 20
-44.99999999999987
 30
0.0
  0
SPLINE
  5
F9
330
1F
100
AcDbEntity
  8
0
  6
Continuous
 62
   144
370
    18
100
AcDbSpline
210
0.0
220
0.0
230
1.0
 70
     8
 71
     3
 72
    14
 73
    10
 74
     0
 42
0.000000001
 43
0.00000001
 40
0.0
 40
0.0
 40
0.0
 40
0.0
 40
0.25
 40
0.25
 40
0.5
 40
0.5
 40
0.75
 40
0.75
 40
1.0
 40
1.0
 40
1.0
 40
1.0
 10
1022.242563345379
 20
-44.09999999999992
 30
0.0
 10
1022.242563345379
 20
-44.20606601717792
 30
0.0
 10
1022.223232480447
 20
-44.32049798326013
 30
0.0
 10
1022.135513152223
 20
-44.54207249395109
 30
0.0
 10
1022.066827414091
 20
-44.64852813742382
 30
0.0
 10
1021.891091482803
 20
-44.82426406871184
 30
0.0
 10
1021.78463583933
 20
-44.89294980684447
 30
0.0
 10
1021.563061328639
 20
-44.98066913506779
 30
0.0
 10
1021.448629362557
 20
-44.99999999999993
 30
0.0
 10
1021.342563345379
 20
-44.99999999999993
 30
0.0
  0
SPLINE
  5
FC
330
1F
100
AcDbEntity
  8
0
  6
Continuous
 62
   144
370
    18
100
AcDbSpline
210
0.0
220
0.0
230
1.0
 70
     8
 71
     3
 72
    10
 73
     6
 74
     0
 42
0.000000001
 43
0.00000001
 40
0.0
 40
0.0
 40
0.0
 40
0.0
 40
0.5
 40
0.5
 40
1.0
 40
1.0
 40
1.0
 40
1.0
 10
727.9425633453792
 20
-0.4968871125849428
 30
0.0
 10
727.8717436299127
 20
-0.5320235310312671
 30
0.0
 10
727.8051859061802
 20
-0.5901898064112343
 30
0.0
 10
727.7150878575395
 20
-0.7354685445632725
 30
0.0
 10
727.6925633453791
 20
-0.8209430584956712
 30
0.0
 10
727.6925633453792
 20
-0.8999999999998731
 30
0.0
  0
SPLINE
  5
FD
330
1F
100
AcDbEntity
  8
0
  6
Continuous
 62
   144
370
    18
100
AcDbSpline
210
0.0
220
0.0
230
1.0
 70
     8
 71
     3
 72
    11
 73
     7
 74
     0
 42
0.000000001
 43
0.00000001
 40
0.0
 40
0.0
 40
0.0
 40
0.0
 40
0.2447967992321733
 40
0.4930958322349521
 40
0.7449284987315132
 40
1.0
 40
1.0
 40
1.0
 40
1.0
 10
728.1425633453794
 20
-0.4499999999998672
 30
0.0
 10
728.1260260541767
 20
-0.4505160383817819
 30
0.0
 10
728.0927148777477
 20
-0.4515554979506731
 30
0.0
 10
728.0419320441962
 20
-0.4605021031044154
 30
0.0
 10
727.991171339536
 20
-0.4748058384581033
 30
0.0
 10
727.9588348807407
 20
-0.4894954018383468
 30
0.0
 10
727.9425633453792
 20
-0.4968871125849428
 30
0.0
  0
SPLINE
  5
FE
330
1F
100
AcDbEntity
  8
0
  6
Continuous
 62
   144
370
    18
100
AcDbSpline
210
0.0
220
0.0
230
1.0
 70
     8
 71
     3
 72
    11
 73
     7
 74
     0
 42
0.000000001
 43
0.00000001
 40
0.0
 40
0.0
 40
0.0
 40
0.0
 40
0.2550715012697101
 40
0.5069041677663
 40
0.7552032007692745
 40
0.9999999999999999
 40
0.9999999999999999
 40
0.9999999999999999
 40
0.9999999999999999
 10
1021.542563345379
 20
-0.496887112585026
 30
0.0
 10
1021.526291810017
 20
-0.4894954018384023
 30
0.0
 10
1021.493955351222
 20
-0.4748058384581866
 30
0.0
 10
1021.443194646561
 20
-0.4605021031044432
 30
0.0
 10
1021.392411813011
 20
-0.4515554979507841
 30
0.0
 10
1021.359100636582
 20
-0.4505160383818929
 30
0.0
 10
1021.342563345379
 20
-0.4499999999999782
 30
0.0
  0
SPLINE
  5
FF
330
1F
100
AcDbEntity
  8
0
  6
Continuous
 62
   144
370
    18
100
AcDbSpline
210
0.0
220
0.0
230
1.0
 70
     8
 71
     3
 72
    10
 73
     6
 74
     0
 42
0.000000001
 43
0.00000001
 40
0.0
 40
0.0
 40
0.0
 40
0.0
 40
0.5
 40
0.5
 40
1.0
 40
1.0
 40
1.0
 40
1.0
 10
1021.542563345379
 20
-0.4968871125849983
 30
0.0
 10
1021.613383060846
 20
-0.5320235310313226
 30
0.0
 10
1021.679940784579
 20
-0.5901898064112621
 30
0.0
 10
1021.770038833219
 20
-0.735468544563328
 30
0.0
 10
1021.792563345379
 20
-0.8209430584956989
 30
0.0
 10
1021.792563345379
 20
-0.8999999999999286
 30
0.0
  0
SPLINE
  5
100
330
1F
100
AcDbEntity
  8
0
  6
Continuous
 62
   144
370
    18
100
AcDbSpline
210
0.0
220
0.0
230
1.0
 70
     8
 71
     3
 72
    10
 73
     6
 74
     0
 42
0.000000001
 43
0.00000001
 40
0.0
 40
0.0
 40
0.0
 40
0.0
 40
0.3351938552372445
 40
0.6677411770723974
 40
1.0
 40
1.0
 40
1.0
 40
1.0
 10
727.9425633453791
 20
-0.0225035612606839
 30
0.0
 10
727.9649467856138
 20
-0.0179351832964025
 30
0.0
 10
728.009536936942
 20
-0.0088344971366505
 30
0.0
 10
728.0768943111469
 20
-0.0014221951937787
 30
0.0
 10
728.1206800010397
 20
-0.0004739278946786
 30
0.0
 10
728.1425633453792
 20
0.000000000000111
 30
0.0
  0
SPLINE
  5
101
330
1F
100
AcDbEntity
  8
0
  6
Continuous
 62
   144
370
    18
100
AcDbSpline
210
0.0
220
0.0
230
1.0
 70
     8
 71
     3
 72
    14
 73
    10
 74
     0
 42
0.000000001
 43
0.00000001
 40
0.0
 40
0.0
 40
0.0
 40
0.0
 40
0.2500000000000001
 40
0.2500000000000001
 40
0.5000000000000001
 40
0.5000000000000001
 40
0.75
 40
0.75
 40
1.0
 40
1.0
 40
1.0
 40
1.0
 10
727.2425633453792
 20
-0.8999999999998731
 30
0.0
 10
727.2425633453789
 20
-0.8064585653305145
 30
0.0
 10
727.257502763123
 20
-0.7075231254026759
 30
0.0
 10
727.3229241575876
 20
-0.514550673427816
 30
0.0
 10
727.3735217693967
 20
-0.4208339281969453
 30
0.0
 10
727.5044801934143
 20
-0.2566688557706642
 30
0.0
 10
727.5846097354464
 20
-0.1865104410844198
 30
0.0
 10
727.7582190248794
 20
-0.0798420732454619
 30
0.0
 10
727.8513608167161
 20
-0.0432905467427636
 30
0.0
 10
727.9425633453792
 20
-0.0225035612606561
 30
0.0
  0
SPLINE
  5
102
330
1F
100
AcDbEntity
  8
0
  6
Continuous
 62
   144
370
    18
100
AcDbSpline
210
0.0
220
0.0
230
1.0
 70
     8
 71
     3
 72
    14
 73
    10
 74
     0
 42
0.000000001
 43
0.00000001
 40
0.0
 40
0.0
 40
0.0
 40
0.0
 40
0.25
 40
0.25
 40
0.5
 40
0.5
 40
0.75
 40
0.75
 40
1.0
 40
1.0
 40
1.0
 40
1.0
 10
1021.542563345379
 20
-0.0225035612607116
 30
0.0
 10
1021.633765874043
 20
-0.0432905467427913
 30
0.0
 10
1021.726907665879
 20
-0.0798420732454896
 30
0.0
 10
1021.900516955312
 20
-0.1865104410844476
 30
0.0
 10
1021.980646497344
 20
-0.256668855770692
 30
0.0
 10
1022.111604921362
 20
-0.4208339281969731
 30
0.0
 10
1022.162202533171
 20
-0.5145506734278715
 30
0.0
 10
1022.227623927636
 20
-0.7075231254027314
 30
0.0
 10
1022.242563345379
 20
-0.80645856533057
 30
0.0
 10
1022.242563345379
 20
-0.8999999999999286
 30
0.0
  0
SPLINE
  5
103
330
1F
100
AcDbEntity
  8
0
  6
Continuous
 62
   144
370
    18
100
AcDbSpline
210
0.0
220
0.0
230
1.0
 70
     8
 71
     3
 72
    10
 73
     6
 74
     0
 42
0.000000001
 43
0.00000001
 40
0.0
 40
0.0
 40
0.0
 40
0.0
 40
0.3322588229267981
 40
0.664806144761349
 40
1.0
 40
1.0
 40
1.0
 40
1.0
 10
1021.342563345379
 20
0.0
 30
0.0
 10
1021.364446689719
 20
-0.0004739278947619
 30
0.0
 10
1021.408232379612
 20
-0.001422195193862
 30
0.0
 10
1021.475589753816
 20
-0.0088344971367338
 30
0.0
 10
1021.520179905144
 20
-0.0179351832964858
 30
0.0
 10
1021.542563345379
 20
-0.0225035612607949
 30
0.0
  0
LWPOLYLINE
  5
104
330
1F
100
AcDbEntity
  8
0
  6
Continuous
 62
   144
370
    18
100
AcDbPolyline
 90
        2
 70
   128
 43
0.0
 10
738.2425633454
 20
-44.55
 10
738.2425633454
 20
-44.55
  0
LWPOLYLINE
  5
107
330
1F
100
AcDbEntity
  8
0
  6
Continuous
 62
   144
370
    18
100
AcDbPolyline
 90
        2
 70
   128
 43
0.0
 10
1011.2425633454
 20
-44.55
 10
1011.2425633454
 20
-44.55
  0
LWPOLYLINE
  5
10D
330
1F
100
AcDbEntity
  8
0
  6
Continuous
 62
   144
370
    18
100
AcDbPolyline
 90
        2
 70
   128
 43
0.0
 10
1021.7425633454
 20
-16.0
 10
1021.7425633454
 20
-16.0
  0
LWPOLYLINE
  5
10E
330
1F
100
AcDbEntity
  8
0
  6
Continuous
 62
   144
370
    18
100
AcDbPolyline
 90
        2
 70
   128
 43
0.0
 10
1021.2925633454
 20
-42.2834697342
 10
1021.2925633454
 20
-42.2834697342
  0
LWPOLYLINE
  5
10F
330
1F
100
AcDbEntity
  8
0
  6
Continuous
 62
   144
370
    18
100
AcDbPolyline
 90
        2
 70
   128
 43
0.0
 10
1021.2925633454
 20
-1.65
 10
1021.2925633454
 20
-1.65
  0
LWPOLYLINE
  5
111
330
1F
100
AcDbEntity
  8
0
  6
Continuous
 62
   144
370
    18
100
AcDbPolyline
 90
        2
 70
   128
 43
0.0
 10
729.1425633454
 20
-45.4496870132
 10
729.1425633454
 20
-45.4496870132
  0
SPLINE
  5
112
330
1F
100
AcDbEntity
  8
0
  6
Continuous
 62
   144
370
    18
100
AcDbSpline
210
0.0
220
0.0
230
1.0
 70
    24
 71
     3
 72
    10
 73
     6
 74
     0
 42
0.000000001
 43
0.00000001
 40
0.0
 40
0.0
 40
0.0
 40
0.0
 40
0.5
 40
0.5
 40
1.0
 40
1.0
 40
1.0
 40
1.0
 10
729.1425633453791
 20
-45.44968701317006
 30
0.0
 10
729.1425633453792
 20
-45.44968701317009
 30
0.0
 10
729.1646898748161
 20
-45.44968701317009
 30
0.0
 10
729.253195992563
 20
-45.44968701317006
 30
0.0
 10
729.3193805908443
 20
-45.44968701317009
 30
0.0
 10
729.3992691991322
 20
-45.44968701317006
 30
0.0
  0
SPLINE
  5
116
330
1F
100
AcDbEntity
  8
0
  6
Continuous
 62
   144
370
    18
100
AcDbSpline
210
0.0
220
0.0
230
1.0
 70
    24
 71
     3
 72
    10
 73
     6
 74
     0
 42
0.000000001
 43
0.00000001
 40
0.0
 40
0.0
 40
0.0
 40
0.0
 40
0.5
 40
0.5
 40
1.0
 40
1.0
 40
1.0
 40
1.0
 10
1020.342563345379
 20
-45.44968701317012
 30
0.0
 10
1020.342563345379
 20
-45.44968701317012
 30
0.0
 10
1020.320436815942
 20
-45.44968701317012
 30
0.0
 10
1020.231930698195
 20
-45.44968701317012
 30
0.0
 10
1020.165746099914
 20
-45.44968701317012
 30
0.0
 10
1020.085857491626
 20
-45.44968701317012
 30
0.0
  0
LWPOLYLINE
  5
117
330
1F
100
AcDbEntity
  8
0
  6
Continuous
 62
   144
370
    18
100
AcDbPolyline
 90
        2
 70
   128
 43
0.0
 10
1020.3425633454
 20
-45.4496870132
 10
1020.3425633454
 20
-45.4496870132
  0
SPLINE
  5
11B
330
1F
100
AcDbEntity
  8
0
  6
Continuous
 62
   144
370
    18
100
AcDbSpline
210
0.0
220
0.0
230
1.0
 70
     8
 71
     3
 72
    13
 73
     9
 74
     0
 42
0.000000001
 43
0.00000001
 40
0.0
 40
0.0
 40
0.0
 40
0.0
 40
0.1490448496288864
 40
0.304913571791171
 40
0.4679925112016755
 40
0.6383893297243635
 40
0.815901633149753
 40
1.0
 40
1.0
 40
1.0
 40
1.0
 10
1020.449534790405
 20
-44.54968701317011
 30
0.0
 10
1020.440040722653
 20
-44.57746057690002
 30
0.0
 10
1020.42061791055
 20
-44.63427928978636
 30
0.0
 10
1020.397422577791
 20
-44.72273815623448
 30
0.0
 10
1020.377663842003
 20
-44.81443235913319
 30
0.0
 10
1020.361945464902
 20
-44.90780799714356
 30
0.0
 10
1020.349775917629
 20
-45.00144571961673
 30
0.0
 10
1020.344996549358
 20
-45.05978735666366
 30
0.0
 10
1020.342563341586
 20
-45.0894894672002
 30
0.0
  0
SPLINE
  5
11C
330
1F
100
AcDbEntity
  8
0
  6
Continuous
 62
   144
370
    18
100
AcDbSpline
210
0.0
220
0.0
230
1.0
 70
     8
 71
     3
 72
    10
 73
     6
 74
     0
 42
0.000000001
 43
0.00000001
 40
0.0
 40
0.0
 40
0.0
 40
0.0
 40
0.5
 40
0.5
 40
1.0
 40
1.0
 40
1.0
 40
1.0
 10
1020.342563267982
 20
-45.44514167505301
 30
0.0
 10
1020.341800142108
 20
-45.43276384629497
 30
0.0
 10
1020.338309062832
 20
-45.39433246877456
 30
0.0
 10
1020.335198972058
 20
-45.27167340798962
 30
0.0
 10
1020.335579960563
 20
-45.18776010589479
 30
0.0
 10
1020.342560970247
 20
-45.08952283381682
 30
0.0
  0
SPLINE
  5
11D
330
1F
100
AcDbEntity
  8
0
  6
Continuous
 62
   144
370
    18
100
AcDbSpline
210
0.0
220
0.0
230
1.0
 70
     8
 71
     3
 72
    10
 73
     6
 74
     0
 42
0.000000001
 43
0.00000001
 40
0.0
 40
0.0
 40
0.0
 40
0.0
 40
0.5
 40
0.5
 40
1.0
 40
1.0
 40
1.0
 40
1.0
 10
729.1425634227761
 20
-45.44514167505287
 30
0.0
 10
729.143326548653
 20
-45.4327638462948
 30
0.0
 10
729.1468176279269
 20
-45.39433246877422
 30
0.0
 10
729.1499277186985
 20
-45.2716734079896
 30
0.0
 10
729.1495467301954
 20
-45.18776010589476
 30
0.0
 10
729.142565720511
 20
-45.08952283381667
 30
0.0
  0
SPLINE
  5
11E
330
1F
100
AcDbEntity
  8
0
  6
Continuous
 62
   144
370
    18
100
AcDbSpline
210
0.0
220
0.0
230
1.0
 70
     8
 71
     3
 72
    14
 73
    10
 74
     0
 42
0.000000001
 43
0.00000001
 40
0.0
 40
0.0
 40
0.0
 40
0.0
 40
0.1581893212348851
 40
0.3116084093312764
 40
0.4598793715377055
 40
0.6028022008014707
 40
0.7403497565532782
 40
0.8726560926616953
 40
1.0
 40
1.0
 40
1.0
 40
1.0
 10
729.1425633491723
 20
-45.0894894672001
 30
0.0
 10
729.1405170141497
 20
-45.06405768804539
 30
0.0
 10
729.1364860517792
 20
-45.01396103052765
 30
0.0
 10
729.1267688862022
 20
-44.93405723840563
 30
0.0
 10
729.1144166522034
 20
-44.85390273627715
 30
0.0
 10
729.0992094035553
 20
-44.77436060032186
 30
0.0
 10
729.081095900623
 20
-44.69672772418159
 30
0.0
 10
729.060438472232
 20
-44.6217310558244
 30
0.0
 10
729.0437678883897
 20
-44.57339375362957
 30
0.0
 10
729.0355919003531
 20
-44.54968701316986
 30
0.0
  0
LWPOLYLINE
  5
122
330
1F
100
AcDbEntity
  8
0
  6
Continuous
 62
   144
370
    18
100
AcDbPolyline
 90
        2
 70
   128
 43
0.0
 10
1021.3425633454
 20
-43.9996870132
 10
1021.3425633454
 20
-43.9996870132
  0
LWPOLYLINE
  5
123
330
1F
100
AcDbEntity
  8
0
  6
Continuous
 62
   144
370
    18
100
AcDbPolyline
 90
        2
 70
   128
 43
0.0
 10
728.1425633454
 20
-43.9996870132
 10
728.1425633454
 20
-43.9996870132
  0
SPLINE
  5
125
330
1F
100
AcDbEntity
  8
0
  6
Continuous
 62
   144
370
    18
100
AcDbSpline
210
0.0
220
0.0
230
1.0
 70
     8
 71
     3
 72
     9
 73
     5
 74
     0
 42
0.000000001
 43
0.00000001
 40
0.0
 40
0.0
 40
0.0
 40
0.0
 40
0.0108308113974844
 40
1.0
 40
1.0
 40
1.0
 40
1.0
 10
727.7425633453793
 20
-40.14407247379611
 30
0.0
 10
727.7420374755864
 20
-40.14313151720086
 30
0.0
 10
727.6934843456627
 20
-40.05625376070498
 30
0.0
 10
727.6930213381476
 20
-39.95256536562691
 30
0.0
 10
727.6925633453791
 20
-39.85000000000005
 30
0.0
  0
LWPOLYLINE
  5
127
330
1F
100
AcDbEntity
  8
0
  6
Continuous
 62
   144
370
    18
100
AcDbPolyline
 90
        2
 70
   128
 43
0.0
 10
1021.3425633454
 20
-10.75
 10
1021.3425633454
 20
-10.75
  0
LWPOLYLINE
  5
12A
330
1F
100
AcDbEntity
  8
0
  6
Continuous
 62
   144
370
    18
100
AcDbPolyline
 90
        2
 70
   128
 43
0.0
 10
1020.8925633454
 20
-40.75
 10
1020.8925633454
 20
-40.75
  0
SPLINE
  5
12D
330
1F
100
AcDbEntity
  8
0
  6
Continuous
 62
   144
370
    18
100
AcDbSpline
210
0.0
220
0.0
230
1.0
 70
    24
 71
     3
 72
    14
 73
    10
 74
     0
 42
0.000000001
 43
0.00000001
 40
0.0
 40
0.0
 40
0.0
 40
0.0
 40
0.25
 40
0.25
 40
0.5
 40
0.5
 40
0.75
 40
0.75
 40
1.0
 40
1.0
 40
1.0
 40
1.0
 10
596.8
 20
-439.9960795183192
 30
0.0
 10
596.8912025286634
 20
-439.9960795183192
 30
0.0
 10
596.9843443205002
 20
-439.9960795183193
 30
0.0
 10
597.157953609933
 20
-439.9960795183193
 30
0.0
 10
597.2380831519646
 20
-439.9960795183193
 30
0.0
 10
597.3690415759824
 20
-439.9960795183193
 30
0.0
 10
597.4196391877916
 20
-439.9960795183193
 30
0.0
 10
597.4850605822564
 20
-439.9960795183193
 30
0.0
 10
597.4999999999999
 20
-439.9960795183193
 30
0.0
 10
597.5
 20
-439.9960795183192
 30
0.0
  0
SPLINE
  5
12E
330
1F
100
AcDbEntity
  8
0
  6
Continuous
 62
   144
370
    18
100
AcDbSpline
210
0.0
220
0.0
230
1.0
 70
    24
 71
     3
 72
    14
 73
    10
 74
     0
 42
0.000000001
 43
0.00000001
 40
0.0
 40
0.0
 40
0.0
 40
0.0
 40
0.25
 40
0.25
 40
0.5
 40
0.5
 40
0.75
 40
0.75
 40
1.0
 40
1.0
 40
1.0
 40
1.0
 10
597.5
 20
-147.7960795183192
 30
0.0
 10
597.4999999999999
 20
-147.7960795183192
 30
0.0
 10
597.4850605822564
 20
-147.7960795183192
 30
0.0
 10
597.4196391877916
 20
-147.7960795183193
 30
0.0
 10
597.3690415759825
 20
-147.7960795183192
 30
0.0
 10
597.2380831519647
 20
-147.7960795183192
 30
0.0
 10
597.1579536099334
 20
-147.7960795183192
 30
0.0
 10
596.9843443205002
 20
-147.7960795183193
 30
0.0
 10
596.8912025286634
 20
-147.7960795183192
 30
0.0
 10
596.8
 20
-147.7960795183192
 30
0.0
  0
SPLINE
  5
12F
330
1F
100
AcDbEntity
  8
0
  6
Continuous
 62
   144
370
    18
100
AcDbSpline
210
0.0
220
0.0
230
1.0
 70
     8
 71
     3
 72
    10
 73
     6
 74
     0
 42
0.000000001
 43
0.00000001
 40
0.0
 40
0.0
 40
0.0
 40
0.0
 40
0.335193855246425
 40
0.6677411770819425
 40
1.0
 40
1.0
 40
1.0
 40
1.0
 10
596.8000000000001
 20
-147.7960795183194
 30
0.0
 10
596.7776165597646
 20
-147.7954380691978
 30
0.0
 10
596.7330264084356
 20
-147.7941602355361
 30
0.0
 10
596.6656690342311
 20
-147.7844145125158
 30
0.0
 10
596.6218833443388
 20
-147.7727364226122
 30
0.0
 10
596.6
 20
-147.7668999115692
 30
0.0
  0
SPLINE
  5
130
330
1F
100
AcDbEntity
  8
0
  6
Continuous
 62
   144
370
    18
100
AcDbSpline
210
0.0
220
0.0
230
1.0
 70
     8
 71
     3
 72
    10
 73
     6
 74
     0
 42
0.000000001
 43
0.00000001
 40
0.0
 40
0.0
 40
0.0
 40
0.0
 40
0.3322588229181719
 40
0.6648061447539453
 40
0.9999999999999999
 40
0.9999999999999999
 40
0.9999999999999999
 40
0.9999999999999999
 10
596.6
 20
-440.0252591250692
 30
0.0
 10
596.6218833443389
 20
-440.0194226140262
 30
0.0
 10
596.6656690342311
 20
-440.0077445241228
 30
0.0
 10
596.7330264084355
 20
-439.9979988011022
 30
0.0
 10
596.7776165597646
 20
-439.9967209674406
 30
0.0
 10
596.8
 20
-439.996079518319
 30
0.0
  0
SPLINE
  5
131
330
1F
100
AcDbEntity
  8
0
  6
Continuous
 62
     7
370
    25
100
AcDbSpline
210
0.0
220
0.0
230
1.0
 70
    11
 71
     3
 72
    38
 73
    34
 74
     0
 42
0.000000001
 43
0.00000001
 40
0.0
 40
0.0
 40
0.0
 40
0.0
 40
0.0625
 40
0.0625
 40
0.125
 40
0.125
 40
0.1875
 40
0.1875
 40
0.25
 40
0.25
 40
0.3125
 40
0.3125
 40
0.375
 40
0.375
 40
0.4375
 40
0.4375
 40
0.5
 40
0.5
 40
0.5625
 40
0.5625
 40
0.625
 40
0.625
 40
0.6875
 40
0.6875
 40
0.75
 40
0.75
 40
0.8125
 40
0.8125
 40
0.875
 40
0.875
 40
0.9375
 40
0.9375
 40
1.0
 40
1.0
 40
1.0
 40
1.0
 10
-295.3249673719109
 20
-362.1460795183192
 30
0.0
 10
-295.3249673719108
 20
-361.9575177100027
 30
0.0
 10
-295.2906013898095
 20
-361.7540831036345
 30
0.0
 10
-295.1346559174123
 20
-361.3601728624058
 30
0.0
 10
-295.0125479385101
 20
-361.1709183851213
 30
0.0
 10
-294.7001285051089
 20
-360.85849895172
 30
0.0
 10
-294.5108740278243
 20
-360.7363909728178
 30
0.0
 10
-294.1169637865957
 20
-360.5804455004208
 30
0.0
 10
-293.9135291802274
 20
-360.5460795183193
 30
0.0
 10
-293.5364055635946
 20
-360.5460795183191
 30
0.0
 10
-293.3329709572262
 20
-360.5804455004207
 30
0.0
 10
-292.9390607159978
 20
-360.7363909728178
 30
0.0
 10
-292.7498062387131
 20
-360.8584989517202
 30
0.0
 10
-292.4373868053121
 20
-361.1709183851211
 30
0.0
 10
-292.3152788264097
 20
-361.360172862406
 30
0.0
 10
-292.1593333540127
 20
-361.7540831036344
 30
0.0
 10
-292.1249673719109
 20
-361.9575177100029
 30
0.0
 10
-292.1249673719111
 20
-362.3346413266356
 30
0.0
 10
-292.1593333540126
 20
-362.538075933004
 30
0.0
 10
-292.3152788264096
 20
-362.9319861742325
 30
0.0
 10
-292.4373868053121
 20
-363.121240651517
 30
0.0
 10
-292.7498062387131
 20
-363.4336600849181
 30
0.0
 10
-292.939060715998
 20
-363.5557680638206
 30
0.0
 10
-293.3329709572261
 20
-363.7117135362176
 30
0.0
 10
-293.5364055635946
 20
-363.7460795183191
 30
0.0
 10
-293.9135291802274
 20
-363.7460795183191
 30
0.0
 10
-294.1169637865958
 20
-363.7117135362176
 30
0.0
 10
-294.5108740278243
 20
-363.5557680638204
 30
0.0
 10
-294.7001285051091
 20
-363.4336600849185
 30
0.0
 10
-295.0125479385101
 20
-363.1212406515172
 30
0.0
 10
-295.1346559174123
 20
-362.9319861742326
 30
0.0
 10
-295.2906013898095
 20
-362.5380759330039
 30
0.0
 10
-295.324967371911
 20
-362.3346413266357
 30
0.0
 10
-295.3249673719109
 20
-362.1460795183192
 30
0.0
  0
SPLINE
  5
132
330
1F
100
AcDbEntity
  8
0
  6
Continuous
 62
     7
370
    25
100
AcDbSpline
210
0.0
220
0.0
230
1.0
 70
    11
 71
     3
 72
    38
 73
    34
 74
     0
 42
0.000000001
 43
0.00000001
 40
0.0
 40
0.0
 40
0.0
 40
0.0
 40
0.0625
 40
0.0625
 40
0.125
 40
0.125
 40
0.1875
 40
0.1875
 40
0.25
 40
0.25
 40
0.3125
 40
0.3125
 40
0.375
 40
0.375
 40
0.4375
 40
0.4375
 40
0.5
 40
0.5
 40
0.5625
 40
0.5625
 40
0.625
 40
0.625
 40
0.6875
 40
0.6875
 40
0.75
 40
0.75
 40
0.8125
 40
0.8125
 40
0.875
 40
0.875
 40
0.9375
 40
0.9375
 40
1.0
 40
1.0
 40
1.0
 40
1.0
 10
-530.324967371911
 20
-225.6460795183192
 30
0.0
 10
-530.324967371911
 20
-225.4575177100027
 30
0.0
 10
-530.2906013898094
 20
-225.2540831036345
 30
0.0
 10
-530.1346559174121
 20
-224.8601728624059
 30
0.0
 10
-530.0125479385102
 20
-224.6709183851213
 30
0.0
 10
-529.7001285051089
 20
-224.3584989517201
 30
0.0
 10
-529.5108740278245
 20
-224.2363909728179
 30
0.0
 10
-529.1169637865953
 20
-224.0804455004207
 30
0.0
 10
-528.9135291802277
 20
-224.0460795183193
 30
0.0
 10
-528.5364055635945
 20
-224.0460795183191
 30
0.0
 10
-528.3329709572264
 20
-224.0804455004208
 30
0.0
 10
-527.9390607159975
 20
-224.2363909728177
 30
0.0
 10
-527.7498062387131
 20
-224.3584989517202
 30
0.0
 10
-527.4373868053119
 20
-224.6709183851211
 30
0.0
 10
-527.3152788264098
 20
-224.8601728624059
 30
0.0
 10
-527.1593333540125
 20
-225.2540831036343
 30
0.0
 10
-527.1249673719108
 20
-225.4575177100028
 30
0.0
 10
-527.124967371911
 20
-225.8346413266355
 30
0.0
 10
-527.1593333540126
 20
-226.0380759330039
 30
0.0
 10
-527.3152788264094
 20
-226.4319861742323
 30
0.0
 10
-527.437386805312
 20
-226.621240651517
 30
0.0
 10
-527.7498062387132
 20
-226.9336600849181
 30
0.0
 10
-527.9390607159977
 20
-227.0557680638205
 30
0.0
 10
-528.3329709572264
 20
-227.2117135362176
 30
0.0
 10
-528.5364055635944
 20
-227.2460795183192
 30
0.0
 10
-528.9135291802273
 20
-227.2460795183192
 30
0.0
 10
-529.116963786596
 20
-227.2117135362176
 30
0.0
 10
-529.5108740278242
 20
-227.0557680638206
 30
0.0
 10
-529.7001285051089
 20
-226.9336600849181
 30
0.0
 10
-530.0125479385098
 20
-226.6212406515171
 30
0.0
 10
-530.1346559174123
 20
-226.4319861742324
 30
0.0
 10
-530.2906013898094
 20
-226.038075933004
 30
0.0
 10
-530.3249673719109
 20
-225.8346413266357
 30
0.0
 10
-530.324967371911
 20
-225.6460795183192
 30
0.0
  0
SPLINE
  5
133
330
1F
100
AcDbEntity
  8
0
  6
Continuous
 62
     7
370
    25
100
AcDbSpline
210
0.0
220
0.0
230
1.0
 70
    11
 71
     3
 72
    38
 73
    34
 74
     0
 42
0.000000001
 43
0.00000001
 40
0.0
 40
0.0
 40
0.0
 40
0.0
 40
0.0625
 40
0.0625
 40
0.125
 40
0.125
 40
0.1875
 40
0.1875
 40
0.25
 40
0.25
 40
0.3125
 40
0.3125
 40
0.375
 40
0.375
 40
0.4375
 40
0.4375
 40
0.5
 40
0.5
 40
0.5625
 40
0.5625
 40
0.625
 40
0.625
 40
0.6875
 40
0.6875
 40
0.75
 40
0.75
 40
0.8125
 40
0.8125
 40
0.875
 40
0.875
 40
0.9375
 40
0.9375
 40
1.0
 40
1.0
 40
1.0
 40
1.0
 10
60.32496737191098
 20
-362.1460795183192
 30
0.0
 10
60.32496737191095
 20
-362.3346413266355
 30
0.0
 10
60.2906013898094
 20
-362.5380759330041
 30
0.0
 10
60.13465591741237
 20
-362.9319861742323
 30
0.0
 10
60.01254793850999
 20
-363.1212406515173
 30
0.0
 10
59.70012850510897
 20
-363.4336600849181
 30
0.0
 10
59.51087402782421
 20
-363.5557680638204
 30
0.0
 10
59.11696378659575
 20
-363.7117135362174
 30
0.0
 10
58.91352918022741
 20
-363.7460795183193
 30
0.0
 10
58.5364055635946
 20
-363.7460795183192
 30
0.0
 10
58.33297095722622
 20
-363.7117135362176
 30
0.0
 10
57.93906071599778
 20
-363.5557680638204
 30
0.0
 10
57.74980623871303
 20
-363.4336600849183
 30
0.0
 10
57.43738680531199
 20
-363.1212406515172
 30
0.0
 10
57.31527882640963
 20
-362.9319861742325
 30
0.0
 10
57.15933335401257
 20
-362.5380759330039
 30
0.0
 10
57.12496737191103
 20
-362.3346413266357
 30
0.0
 10
57.124967371911
 20
-361.9575177100027
 30
0.0
 10
57.15933335401263
 20
-361.7540831036345
 30
0.0
 10
57.31527882640963
 20
-361.360172862406
 30
0.0
 10
57.43738680531204
 20
-361.1709183851214
 30
0.0
 10
57.74980623871306
 20
-360.8584989517202
 30
0.0
 10
57.93906071599778
 20
-360.7363909728179
 30
0.0
 10
58.33297095722622
 20
-360.5804455004207
 30
0.0
 10
58.5364055635946
 20
-360.5460795183192
 30
0.0
 10
58.91352918022741
 20
-360.5460795183191
 30
0.0
 10
59.11696378659578
 20
-360.5804455004209
 30
0.0
 10
59.51087402782421
 20
-360.7363909728179
 30
0.0
 10
59.70012850510897
 20
-360.8584989517203
 30
0.0
 10
60.01254793850999
 20
-361.1709183851212
 30
0.0
 10
60.13465591741237
 20
-361.3601728624061
 30
0.0
 10
60.2906013898094
 20
-361.7540831036345
 30
0.0
 10
60.32496737191101
 20
-361.9575177100028
 30
0.0
 10
60.32496737191098
 20
-362.1460795183192
 30
0.0
  0
SPLINE
  5
134
330
1F
100
AcDbEntity
  8
0
  6
Continuous
 62
     7
370
    25
100
AcDbSpline
210
0.0
220
0.0
230
1.0
 70
    11
 71
     3
 72
    38
 73
    34
 74
     0
 42
0.000000001
 43
0.00000001
 40
0.0
 40
0.0
 40
0.0
 40
0.0
 40
0.0625
 40
0.0625
 40
0.125
 40
0.125
 40
0.1875
 40
0.1875
 40
0.25
 40
0.25
 40
0.3125
 40
0.3125
 40
0.375
 40
0.375
 40
0.4375
 40
0.4375
 40
0.5
 40
0.5
 40
0.5625
 40
0.5625
 40
0.625
 40
0.625
 40
0.6875
 40
0.6875
 40
0.75
 40
0.75
 40
0.8125
 40
0.8125
 40
0.875
 40
0.875
 40
0.9375
 40
0.9375
 40
1.0
 40
1.0
 40
1.0
 40
1.0
 10
295.3249673719109
 20
-225.6460795183192
 30
0.0
 10
295.3249673719109
 20
-225.8346413266355
 30
0.0
 10
295.2906013898095
 20
-226.038075933004
 30
0.0
 10
295.1346559174122
 20
-226.4319861742323
 30
0.0
 10
295.01254793851
 20
-226.6212406515173
 30
0.0
 10
294.700128505109
 20
-226.9336600849181
 30
0.0
 10
294.5108740278242
 20
-227.0557680638206
 30
0.0
 10
294.1169637865958
 20
-227.2117135362176
 30
0.0
 10
293.9135291802273
 20
-227.2460795183193
 30
0.0
 10
293.5364055635946
 20
-227.2460795183192
 30
0.0
 10
293.3329709572262
 20
-227.2117135362177
 30
0.0
 10
292.9390607159979
 20
-227.0557680638206
 30
0.0
 10
292.7498062387133
 20
-226.9336600849182
 30
0.0
 10
292.437386805312
 20
-226.6212406515171
 30
0.0
 10
292.3152788264096
 20
-226.4319861742324
 30
0.0
 10
292.1593333540126
 20
-226.0380759330039
 30
0.0
 10
292.1249673719111
 20
-225.8346413266356
 30
0.0
 10
292.1249673719109
 20
-225.4575177100028
 30
0.0
 10
292.1593333540127
 20
-225.2540831036344
 30
0.0
 10
292.3152788264097
 20
-224.860172862406
 30
0.0
 10
292.4373868053119
 20
-224.6709183851211
 30
0.0
 10
292.7498062387129
 20
-224.3584989517202
 30
0.0
 10
292.9390607159978
 20
-224.2363909728178
 30
0.0
 10
293.3329709572261
 20
-224.0804455004207
 30
0.0
 10
293.5364055635945
 20
-224.0460795183191
 30
0.0
 10
293.9135291802274
 20
-224.0460795183191
 30
0.0
 10
294.1169637865957
 20
-224.0804455004207
 30
0.0
 10
294.5108740278242
 20
-224.2363909728178
 30
0.0
 10
294.7001285051091
 20
-224.3584989517203
 30
0.0
 10
295.01254793851
 20
-224.6709183851211
 30
0.0
 10
295.1346559174125
 20
-224.860172862406
 30
0.0
 10
295.2906013898095
 20
-225.2540831036344
 30
0.0
 10
295.324967371911
 20
-225.4575177100028
 30
0.0
 10
295.3249673719109
 20
-225.6460795183192
 30
0.0
  0
SPLINE
  5
135
330
1F
100
AcDbEntity
  8
0
  6
Continuous
 62
     7
370
    25
100
AcDbSpline
210
0.0
220
0.0
230
1.0
 70
    11
 71
     3
 72
    38
 73
    34
 74
     0
 42
0.000000001
 43
0.00000001
 40
0.0
 40
0.0
 40
0.0
 40
0.0
 40
0.0625
 40
0.0625
 40
0.125
 40
0.125
 40
0.1875
 40
0.1875
 40
0.25
 40
0.25
 40
0.3125
 40
0.3125
 40
0.375
 40
0.375
 40
0.4375
 40
0.4375
 40
0.5
 40
0.5
 40
0.5625
 40
0.5625
 40
0.625
 40
0.625
 40
0.6875
 40
0.6875
 40
0.75
 40
0.75
 40
0.8125
 40
0.8125
 40
0.875
 40
0.875
 40
0.9375
 40
0.9375
 40
1.0
 40
1.0
 40
1.0
 40
1.0
 10
60.32496737191099
 20
-225.6460795183192
 30
0.0
 10
60.32496737191098
 20
-225.8346413266355
 30
0.0
 10
60.2906013898094
 20
-226.038075933004
 30
0.0
 10
60.13465591741237
 20
-226.4319861742323
 30
0.0
 10
60.01254793851002
 20
-226.6212406515172
 30
0.0
 10
59.70012850510897
 20
-226.9336600849181
 30
0.0
 10
59.51087402782421
 20
-227.0557680638206
 30
0.0
 10
59.11696378659575
 20
-227.2117135362176
 30
0.0
 10
58.91352918022741
 20
-227.2460795183193
 30
0.0
 10
58.53640556359457
 20
-227.2460795183192
 30
0.0
 10
58.33297095722622
 20
-227.2117135362177
 30
0.0
 10
57.9390607159978
 20
-227.0557680638206
 30
0.0
 10
57.74980623871303
 20
-226.9336600849183
 30
0.0
 10
57.43738680531199
 20
-226.6212406515171
 30
0.0
 10
57.31527882640966
 20
-226.4319861742324
 30
0.0
 10
57.1593333540126
 20
-226.038075933004
 30
0.0
 10
57.124967371911
 20
-225.8346413266356
 30
0.0
 10
57.12496737191103
 20
-225.4575177100027
 30
0.0
 10
57.15933335401257
 20
-225.2540831036344
 30
0.0
 10
57.31527882640963
 20
-224.8601728624059
 30
0.0
 10
57.43738680531202
 20
-224.6709183851212
 30
0.0
 10
57.74980623871306
 20
-224.3584989517202
 30
0.0
 10
57.93906071599783
 20
-224.2363909728177
 30
0.0
 10
58.33297095722622
 20
-224.0804455004208
 30
0.0
 10
58.5364055635946
 20
-224.0460795183192
 30
0.0
 10
58.91352918022741
 20
-224.0460795183191
 30
0.0
 10
59.11696378659578
 20
-224.0804455004208
 30
0.0
 10
59.51087402782421
 20
-224.2363909728178
 30
0.0
 10
59.700128505109
 20
-224.3584989517202
 30
0.0
 10
60.01254793850999
 20
-224.6709183851212
 30
0.0
 10
60.13465591741237
 20
-224.860172862406
 30
0.0
 10
60.2906013898094
 20
-225.2540831036344
 30
0.0
 10
60.32496737191101
 20
-225.4575177100028
 30
0.0
 10
60.32496737191099
 20
-225.6460795183192
 30
0.0
  0
SPLINE
  5
136
330
1F
100
AcDbEntity
  8
0
  6
Continuous
 62
     7
370
    25
100
AcDbSpline
210
0.0
220
0.0
230
1.0
 70
     8
 71
     3
 72
    22
 73
    18
 74
     0
 42
0.000000001
 43
0.00000001
 40
0.0
 40
0.0
 40
0.0
 40
0.0
 40
0.125
 40
0.125
 40
0.25
 40
0.25
 40
0.375
 40
0.375
 40
0.5
 40
0.5
 40
0.625
 40
0.625
 40
0.75
 40
0.75
 40
0.875
 40
0.875
 40
1.0
 40
1.0
 40
1.0
 40
1.0
 10
-254.1800539932671
 20
-169.9838296236082
 30
0.0
 10
-254.1800539932671
 20
-170.1723914319246
 30
0.0
 10
-254.1456880111656
 20
-170.375826038293
 30
0.0
 10
-253.9897425387684
 20
-170.7697362795214
 30
0.0
 10
-253.8676345598662
 20
-170.9589907568062
 30
0.0
 10
-253.5552151264651
 20
-171.2714101902072
 30
0.0
 10
-253.3659606491803
 20
-171.3935181691096
 30
0.0
 10
-252.9720504079519
 20
-171.5494636415066
 30
0.0
 10
-252.7686158015835
 20
-171.5838296236082
 30
0.0
 10
-252.3914921849507
 20
-171.5838296236082
 30
0.0
 10
-252.1880575785823
 20
-171.5494636415067
 30
0.0
 10
-251.7941473373539
 20
-171.3935181691095
 30
0.0
 10
-251.6048928600692
 20
-171.2714101902072
 30
0.0
 10
-251.2924734266682
 20
-170.9589907568062
 30
0.0
 10
-251.1703654477657
 20
-170.7697362795215
 30
0.0
 10
-251.0144199753687
 20
-170.375826038293
 30
0.0
 10
-250.9800539932671
 20
-170.1723914319246
 30
0.0
 10
-250.980053993267
 20
-169.9838296236082
 30
0.0
  0
SPLINE
  5
139
330
1F
100
AcDbEntity
  8
0
  6
Continuous
 62
     7
370
    25
100
AcDbSpline
210
0.0
220
0.0
230
1.0
 70
    11
 71
     3
 72
    54
 73
    50
 74
     0
 42
0.000000001
 43
0.00000001
 40
0.0
 40
0.0
 40
0.0
 40
0.0
 40
0.0624999999999996
 40
0.0624999999999996
 40
0.0937499999999993
 40
0.0937499999999993
 40
0.1249999999999991
 40
0.1249999999999991
 40
0.1562499999999989
 40
0.1562499999999989
 40
0.1874999999999987
 40
0.1874999999999987
 40
0.2499999999999982
 40
0.2499999999999982
 40
0.3124999999999978
 40
0.3124999999999978
 40
0.3437499999999988
 40
0.3437499999999988
 40
0.3749999999999998
 40
0.3749999999999998
 40
0.4062500000000008
 40
0.4062500000000008
 40
0.4375000000000018
 40
0.4375000000000018
 40
0.5000000000000038
 40
0.5000000000000038
 40
0.5625000000000058
 40
0.5625000000000058
 40
0.5937500000000056
 40
0.5937500000000056
 40
0.6250000000000053
 40
0.6250000000000053
 40
0.6562500000000051
 40
0.6562500000000051
 40
0.6875000000000049
 40
0.6875000000000049
 40
0.7500000000000044
 40
0.7500000000000044
 40
0.812500000000004
 40
0.812500000000004
 40
0.8437500000000033
 40
0.8437500000000033
 40
0.8750000000000027
 40
0.8750000000000027
 40
0.906250000000002
 40
0.906250000000002
 40
0.9375000000000013
 40
0.9375000000000013
 40
1.0
 40
1.0
 40
1.0
 40
1.0
 10
-165.590467657477
 20
-182.2476752446682
 30
0.0
 10
-166.1797233084658
 20
-182.2476752446682
 30
0.0
 10
-166.815456453367
 20
-182.1402815506007
 30
0.0
 10
-167.7386835812462
 20
-181.7747843496702
 30
0.0
 10
-168.0406692405272
 20
-181.6195335723997
 30
0.0
 10
-168.6123636082783
 20
-181.2457720291231
 30
0.0
 10
-168.8819238810653
 20
-181.0272868329455
 30
0.0
 10
-169.3700792457544
 20
-180.5391314682565
 30
0.0
 10
-169.5885644419319
 20
-180.2695711954694
 30
0.0
 10
-169.9623259852087
 20
-179.6978768277184
 30
0.0
 10
-170.117576762479
 20
-179.3958911684372
 30
0.0
 10
-170.4830739634096
 20
-178.4726640405582
 30
0.0
 10
-170.5904676574769
 20
-177.8369308956569
 30
0.0
 10
-170.590467657477
 20
-176.6584195936794
 30
0.0
 10
-170.4830739634096
 20
-176.0226864487782
 30
0.0
 10
-170.117576762479
 20
-175.0994593208991
 30
0.0
 10
-169.9623259852086
 20
-174.797473661618
 30
0.0
 10
-169.5885644419319
 20
-174.225779293867
 30
0.0
 10
-169.3700792457543
 20
-173.9562190210801
 30
0.0
 10
-168.8819238810651
 20
-173.468063656391
 30
0.0
 10
-168.6123636082783
 20
-173.2495784602133
 30
0.0
 10
-168.0406692405273
 20
-172.8758169169367
 30
0.0
 10
-167.7386835812461
 20
-172.7205661396663
 30
0.0
 10
-166.815456453367
 20
-172.3550689387357
 30
0.0
 10
-166.1797233084658
 20
-172.2476752446682
 30
0.0
 10
-165.0012120064882
 20
-172.2476752446681
 30
0.0
 10
-164.3654788615871
 20
-172.3550689387357
 30
0.0
 10
-163.442251733708
 20
-172.7205661396662
 30
0.0
 10
-163.1402660744268
 20
-172.8758169169366
 30
0.0
 10
-162.5685717066758
 20
-173.2495784602133
 30
0.0
 10
-162.2990114338889
 20
-173.4680636563909
 30
0.0
 10
-161.8108560691998
 20
-173.95621902108
 30
0.0
 10
-161.5923708730221
 20
-174.225779293867
 30
0.0
 10
-161.2186093297454
 20
-174.797473661618
 30
0.0
 10
-161.0633585524751
 20
-175.0994593208991
 30
0.0
 10
-160.6978613515446
 20
-176.0226864487784
 30
0.0
 10
-160.5904676574771
 20
-176.6584195936794
 30
0.0
 10
-160.5904676574769
 20
-177.8369308956569
 30
0.0
 10
-160.6978613515444
 20
-178.472664040558
 30
0.0
 10
-161.063358552475
 20
-179.3958911684373
 30
0.0
 10
-161.2186093297454
 20
-179.6978768277185
 30
0.0
 10
-161.5923708730219
 20
-180.2695711954695
 30
0.0
 10
-161.8108560691998
 20
-180.5391314682565
 30
0.0
 10
-162.2990114338888
 20
-181.0272868329456
 30
0.0
 10
-162.5685717066757
 20
-181.2457720291232
 30
0.0
 10
-163.1402660744267
 20
-181.6195335723997
 30
0.0
 10
-163.4422517337079
 20
-181.7747843496702
 30
0.0
 10
-164.365478861587
 20
-182.1402815506007
 30
0.0
 10
-165.0012120064883
 20
-182.2476752446682
 30
0.0
 10
-165.590467657477
 20
-182.2476752446682
 30
0.0
  0
SPLINE
  5
13C
330
1F
100
AcDbEntity
  8
0
  6
Continuous
 62
     7
370
    25
100
AcDbSpline
210
0.0
220
0.0
230
1.0
 70
     8
 71
     3
 72
    22
 73
    18
 74
     0
 42
0.000000001
 43
0.00000001
 40
0.0
 40
0.0
 40
0.0
 40
0.0
 40
0.125
 40
0.125
 40
0.25
 40
0.25
 40
0.375
 40
0.375
 40
0.5
 40
0.5
 40
0.625
 40
0.625
 40
0.75
 40
0.75
 40
0.875
 40
0.875
 40
1.0
 40
1.0
 40
1.0
 40
1.0
 10
378.617381796419
 20
-170.0551736425752
 30
0.0
 10
378.617381796419
 20
-170.2437354508916
 30
0.0
 10
378.6517477785206
 20
-170.44717005726
 30
0.0
 10
378.8076932509175
 20
-170.8410802984884
 30
0.0
 10
378.92980122982
 20
-171.0303347757732
 30
0.0
 10
379.2422206632211
 20
-171.3427542091741
 30
0.0
 10
379.4314751405057
 20
-171.4648621880766
 30
0.0
 10
379.8253853817342
 20
-171.6208076604736
 30
0.0
 10
380.0288199881026
 20
-171.6551736425752
 30
0.0
 10
380.4059436047355
 20
-171.6551736425752
 30
0.0
 10
380.6093782111038
 20
-171.6208076604736
 30
0.0
 10
381.0032884523322
 20
-171.4648621880766
 30
0.0
 10
381.1925429296169
 20
-171.3427542091743
 30
0.0
 10
381.504962363018
 20
-171.0303347757732
 30
0.0
 10
381.6270703419204
 20
-170.8410802984884
 30
0.0
 10
381.7830158143175
 20
-170.44717005726
 30
0.0
 10
381.817381796419
 20
-170.2437354508916
 30
0.0
 10
381.817381796419
 20
-170.0551736425752
 30
0.0
  0
SPLINE
  5
13E
330
1F
100
AcDbEntity
  8
0
  6
Continuous
 62
     7
370
    25
100
AcDbSpline
210
0.0
220
0.0
230
1.0
 70
     8
 71
     3
 72
    22
 73
    18
 74
     0
 42
0.000000001
 43
0.00000001
 40
0.0
 40
0.0
 40
0.0
 40
0.0
 40
0.125
 40
0.125
 40
0.25
 40
0.25
 40
0.375
 40
0.375
 40
0.5
 40
0.5
 40
0.625
 40
0.625
 40
0.75
 40
0.75
 40
0.875
 40
0.875
 40
1.0
 40
1.0
 40
1.0
 40
1.0
 10
-570.424588233069
 20
-169.9838296235872
 30
0.0
 10
-570.4245882330666
 20
-170.2313169970025
 30
0.0
 10
-570.4696935845723
 20
-170.4983249178615
 30
0.0
 10
-570.674372017088
 20
-171.0153321094758
 30
0.0
 10
-570.8346387393952
 20
-171.2637286109137
 30
0.0
 10
-571.2446892457299
 20
-171.6737791172566
 30
0.0
 10
-571.4930857471644
 20
-171.8340458395684
 30
0.0
 10
-572.0100929387747
 20
-172.0387242720947
 30
0.0
 10
-572.2771008596327
 20
-172.0838296236057
 30
0.0
 10
-572.7720756064631
 20
-172.0838296236107
 30
0.0
 10
-573.0390835273222
 20
-172.0387242721049
 30
0.0
 10
-573.5560907189364
 20
-171.834045839589
 30
0.0
 10
-573.8044872203745
 20
-171.6737791172822
 30
0.0
 10
-574.2145377267174
 20
-171.2637286109474
 30
0.0
 10
-574.3748044490293
 20
-171.0153321095127
 30
0.0
 10
-574.5794828815555
 20
-170.4983249179025
 30
0.0
 10
-574.6245882330666
 20
-170.2313169970445
 30
0.0
 10
-574.6245882330691
 20
-169.9838296236292
 30
0.0
  0
SPLINE
  5
141
330
1F
100
AcDbEntity
  8
0
  6
Continuous
 62
   144
370
    18
100
AcDbSpline
210
0.0
220
0.0
230
1.0
 70
     8
 71
     3
 72
    10
 73
     6
 74
     0
 42
0.000000001
 43
0.00000001
 40
0.0
 40
0.0
 40
0.0
 40
0.0
 40
0.5
 40
0.5
 40
1.0
 40
1.0
 40
1.0
 40
1.0
 10
596.12917960675
 20
-440.4960795183192
 30
0.0
 10
596.1608863013013
 20
-440.3897320317815
 30
0.0
 10
596.2215314238712
 20
-440.2845986007869
 30
0.0
 10
596.3885190824675
 20
-440.1176109421902
 30
0.0
 10
596.4936525134623
 20
-440.0569658196204
 30
0.0
 10
596.6
 20
-440.0252591250692
 30
0.0
  0
SPLINE
  5
142
330
1F
100
AcDbEntity
  8
0
  6
Continuous
 62
   144
370
    18
100
AcDbSpline
210
0.0
220
0.0
230
1.0
 70
     8
 71
     3
 72
    10
 73
     6
 74
     0
 42
0.000000001
 43
0.00000001
 40
0.0
 40
0.0
 40
0.0
 40
0.0
 40
0.5
 40
0.5
 40
1.0
 40
1.0
 40
1.0
 40
1.0
 10
596.12917960675
 20
-147.2960795183192
 30
0.0
 10
596.1608863013013
 20
-147.4024270048568
 30
0.0
 10
596.2215314238712
 20
-147.5075604358516
 30
0.0
 10
596.3885190824675
 20
-147.6745480944481
 30
0.0
 10
596.4936525134623
 20
-147.735193217018
 30
0.0
 10
596.6
 20
-147.7668999115692
 30
0.0
  0
SPLINE
  5
143
330
1F
100
AcDbEntity
  8
0
  6
Continuous
 62
   144
370
    18
100
AcDbSpline
210
0.0
220
0.0
230
1.0
 70
     8
 71
     3
 72
    10
 73
     6
 74
     0
 42
0.000000001
 43
0.00000001
 40
0.0
 40
0.0
 40
0.0
 40
0.0
 40
0.5
 40
0.5
 40
1.0
 40
1.0
 40
1.0
 40
1.0
 10
-596.6
 20
-147.7668999115692
 30
0.0
 10
-596.4936525134623
 20
-147.735193217018
 30
0.0
 10
-596.3885190824675
 20
-147.6745480944481
 30
0.0
 10
-596.2215314238709
 20
-147.5075604358515
 30
0.0
 10
-596.1608863013009
 20
-147.4024270048567
 30
0.0
 10
-596.12917960675
 20
-147.2960795183192
 30
0.0
  0
SPLINE
  5
145
330
1F
100
AcDbEntity
  8
0
  6
Continuous
 62
   144
370
    18
100
AcDbSpline
210
0.0
220
0.0
230
1.0
 70
     8
 71
     3
 72
    10
 73
     6
 74
     0
 42
0.000000001
 43
0.00000001
 40
0.0
 40
0.0
 40
0.0
 40
0.0
 40
0.5
 40
0.5
 40
1.0
 40
1.0
 40
1.0
 40
1.0
 10
-596.6
 20
-440.0252591250692
 30
0.0
 10
-596.4936525134623
 20
-440.0569658196204
 30
0.0
 10
-596.3885190824675
 20
-440.1176109421903
 30
0.0
 10
-596.2215314238709
 20
-440.2845986007868
 30
0.0
 10
-596.1608863013009
 20
-440.3897320317817
 30
0.0
 10
-596.12917960675
 20
-440.4960795183192
 30
0.0
  0
SPLINE
  5
149
330
1F
100
AcDbEntity
  8
0
  6
Continuous
 62
   144
370
    18
100
AcDbSpline
210
0.0
220
0.0
230
1.0
 70
     8
 71
     3
 72
    22
 73
    18
 74
     0
 42
0.000000001
 43
0.00000001
 40
0.0
 40
0.0
 40
0.0
 40
0.0
 40
0.125
 40
0.125
 40
0.25
 40
0.25
 40
0.375
 40
0.375
 40
0.5
 40
0.5
 40
0.625
 40
0.625
 40
0.75
 40
0.75
 40
0.875
 40
0.875
 40
1.0
 40
1.0
 40
1.0
 40
1.0
 10
-574.124588233069
 20
-169.9838296236082
 30
0.0
 10
-574.124588233069
 20
-170.1723914319246
 30
0.0
 10
-574.0902222509675
 20
-170.375826038293
 30
0.0
 10
-573.9342767785705
 20
-170.7697362795214
 30
0.0
 10
-573.812168799668
 20
-170.9589907568061
 30
0.0
 10
-573.499749366267
 20
-171.2714101902071
 30
0.0
 10
-573.3104948889824
 20
-171.3935181691095
 30
0.0
 10
-572.9165846477537
 20
-171.5494636415066
 30
0.0
 10
-572.7131500413855
 20
-171.5838296236082
 30
0.0
 10
-572.3360264247525
 20
-171.5838296236082
 30
0.0
 10
-572.1325918183841
 20
-171.5494636415067
 30
0.0
 10
-571.7386815771558
 20
-171.3935181691095
 30
0.0
 10
-571.549427099871
 20
-171.2714101902072
 30
0.0
 10
-571.23700766647
 20
-170.9589907568061
 30
0.0
 10
-571.1148996875677
 20
-170.7697362795215
 30
0.0
 10
-570.9589542151708
 20
-170.375826038293
 30
0.0
 10
-570.9245882330689
 20
-170.1723914319246
 30
0.0
 10
-570.924588233069
 20
-169.9838296236082
 30
0.0
  0
SPLINE
  5
152
330
1F
100
AcDbEntity
  8
0
  6
Continuous
 62
   144
370
    18
100
AcDbSpline
210
0.0
220
0.0
230
1.0
 70
     8
 71
     3
 72
    22
 73
    18
 74
     0
 42
0.000000001
 43
0.00000001
 40
0.0
 40
0.0
 40
0.0
 40
0.0
 40
0.125
 40
0.125
 40
0.25
 40
0.25
 40
0.375
 40
0.375
 40
0.5
 40
0.5
 40
0.625
 40
0.625
 40
0.75
 40
0.75
 40
0.875
 40
0.875
 40
1.0
 40
1.0
 40
1.0
 40
1.0
 10
382.317381796419
 20
-170.0551736425532
 30
0.0
 10
382.3173817964216
 20
-170.3026610159685
 30
0.0
 10
382.272276444916
 20
-170.5696689368274
 30
0.0
 10
382.0675980124001
 20
-171.0866761284418
 30
0.0
 10
381.9073312900936
 20
-171.3350726298798
 30
0.0
 10
381.4972807837589
 20
-171.745123136223
 30
0.0
 10
381.2488842823245
 20
-171.905389858535
 30
0.0
 10
380.7318770907144
 20
-172.1100682910615
 30
0.0
 10
380.4648691698563
 20
-172.1551736425726
 30
0.0
 10
379.9698944230257
 20
-172.1551736425777
 30
0.0
 10
379.7028865021667
 20
-172.1100682910723
 30
0.0
 10
379.1858793105522
 20
-171.9053898585566
 30
0.0
 10
378.9374828091144
 20
-171.7451231362498
 30
0.0
 10
378.5274323027712
 20
-171.3350726299152
 30
0.0
 10
378.3671655804591
 20
-171.0866761284807
 30
0.0
 10
378.1624871479326
 20
-170.5696689368705
 30
0.0
 10
378.1173817964216
 20
-170.3026610160125
 30
0.0
 10
378.117381796419
 20
-170.0551736425972
 30
0.0
  0
SPLINE
  5
156
330
1F
100
AcDbEntity
  8
0
  6
Continuous
 62
   144
370
    18
100
AcDbSpline
210
0.0
220
0.0
230
1.0
 70
     8
 71
     3
 72
    22
 73
    18
 74
     0
 42
0.000000001
 43
0.00000001
 40
0.0
 40
0.0
 40
0.0
 40
0.0
 40
0.125
 40
0.125
 40
0.25
 40
0.25
 40
0.375
 40
0.375
 40
0.5
 40
0.5
 40
0.625
 40
0.625
 40
0.75
 40
0.75
 40
0.875
 40
0.875
 40
1.0
 40
1.0
 40
1.0
 40
1.0
 10
228.617381796419
 20
-170.0551736425752
 30
0.0
 10
228.617381796419
 20
-170.2437354508916
 30
0.0
 10
228.6517477785207
 20
-170.44717005726
 30
0.0
 10
228.8076932509176
 20
-170.8410802984884
 30
0.0
 10
228.9298012298201
 20
-171.0303347757732
 30
0.0
 10
229.242220663221
 20
-171.3427542091741
 30
0.0
 10
229.4314751405059
 20
-171.4648621880766
 30
0.0
 10
229.8253853817342
 20
-171.6208076604736
 30
0.0
 10
230.0288199881025
 20
-171.6551736425752
 30
0.0
 10
230.4059436047354
 20
-171.6551736425752
 30
0.0
 10
230.6093782111038
 20
-171.6208076604736
 30
0.0
 10
231.0032884523323
 20
-171.4648621880766
 30
0.0
 10
231.1925429296171
 20
-171.3427542091743
 30
0.0
 10
231.504962363018
 20
-171.0303347757732
 30
0.0
 10
231.6270703419204
 20
-170.8410802984884
 30
0.0
 10
231.7830158143175
 20
-170.44717005726
 30
0.0
 10
231.8173817964191
 20
-170.2437354508916
 30
0.0
 10
231.817381796419
 20
-170.0551736425752
 30
0.0
  0
SPLINE
  5
15A
330
1F
100
AcDbEntity
  8
0
  6
Continuous
 62
   144
370
    18
100
AcDbSpline
210
0.0
220
0.0
230
1.0
 70
     8
 71
     3
 72
    22
 73
    18
 74
     0
 42
0.000000001
 43
0.00000001
 40
0.0
 40
0.0
 40
0.0
 40
0.0
 40
0.125
 40
0.125
 40
0.25
 40
0.25
 40
0.375
 40
0.375
 40
0.5
 40
0.5
 40
0.625
 40
0.625
 40
0.75
 40
0.75
 40
0.875
 40
0.875
 40
1.0
 40
1.0
 40
1.0
 40
1.0
 10
232.317381796419
 20
-170.0551736425532
 30
0.0
 10
232.3173817964216
 20
-170.3026610159685
 30
0.0
 10
232.2722764449162
 20
-170.5696689368274
 30
0.0
 10
232.0675980124004
 20
-171.0866761284418
 30
0.0
 10
231.9073312900937
 20
-171.3350726298798
 30
0.0
 10
231.4972807837592
 20
-171.745123136223
 30
0.0
 10
231.2488842823246
 20
-171.905389858535
 30
0.0
 10
230.7318770907144
 20
-172.1100682910615
 30
0.0
 10
230.4648691698563
 20
-172.1551736425726
 30
0.0
 10
229.9698944230257
 20
-172.1551736425778
 30
0.0
 10
229.7028865021668
 20
-172.1100682910723
 30
0.0
 10
229.1858793105525
 20
-171.9053898585565
 30
0.0
 10
228.9374828091145
 20
-171.7451231362498
 30
0.0
 10
228.5274323027713
 20
-171.3350726299152
 30
0.0
 10
228.3671655804594
 20
-171.0866761284808
 30
0.0
 10
228.1624871479329
 20
-170.5696689368705
 30
0.0
 10
228.1173817964217
 20
-170.3026610160125
 30
0.0
 10
228.117381796419
 20
-170.0551736425972
 30
0.0
  0
SPLINE
  5
15E
330
1F
100
AcDbEntity
  8
0
  6
Continuous
 62
   144
370
    18
100
AcDbSpline
210
0.0
220
0.0
230
1.0
 70
     8
 71
     3
 72
    22
 73
    18
 74
     0
 42
0.000000001
 43
0.00000001
 40
0.0
 40
0.0
 40
0.0
 40
0.0
 40
0.125
 40
0.125
 40
0.25
 40
0.25
 40
0.375
 40
0.375
 40
0.5
 40
0.5
 40
0.625
 40
0.625
 40
0.75
 40
0.75
 40
0.875
 40
0.875
 40
1.0
 40
1.0
 40
1.0
 40
1.0
 10
528.6173817964191
 20
-170.0551736425752
 30
0.0
 10
528.617381796419
 20
-170.2437354508917
 30
0.0
 10
528.6517477785204
 20
-170.44717005726
 30
0.0
 10
528.8076932509173
 20
-170.8410802984884
 30
0.0
 10
528.9298012298199
 20
-171.0303347757732
 30
0.0
 10
529.2422206632208
 20
-171.3427542091742
 30
0.0
 10
529.4314751405058
 20
-171.4648621880766
 30
0.0
 10
529.8253853817342
 20
-171.6208076604736
 30
0.0
 10
530.0288199881028
 20
-171.6551736425753
 30
0.0
 10
530.4059436047356
 20
-171.6551736425752
 30
0.0
 10
530.6093782111038
 20
-171.6208076604736
 30
0.0
 10
531.0032884523323
 20
-171.4648621880766
 30
0.0
 10
531.1925429296172
 20
-171.3427542091743
 30
0.0
 10
531.5049623630182
 20
-171.0303347757732
 30
0.0
 10
531.6270703419207
 20
-170.8410802984884
 30
0.0
 10
531.7830158143179
 20
-170.4471700572601
 30
0.0
 10
531.8173817964192
 20
-170.2437354508916
 30
0.0
 10
531.817381796419
 20
-170.0551736425752
 30
0.0
  0
SPLINE
  5
162
330
1F
100
AcDbEntity
  8
0
  6
Continuous
 62
   144
370
    18
100
AcDbSpline
210
0.0
220
0.0
230
1.0
 70
     8
 71
     3
 72
    22
 73
    18
 74
     0
 42
0.000000001
 43
0.00000001
 40
0.0
 40
0.0
 40
0.0
 40
0.0
 40
0.125
 40
0.125
 40
0.25
 40
0.25
 40
0.375
 40
0.375
 40
0.5
 40
0.5
 40
0.625
 40
0.625
 40
0.75
 40
0.75
 40
0.875
 40
0.875
 40
1.0
 40
1.0
 40
1.0
 40
1.0
 10
532.3173817964191
 20
-170.0551736425532
 30
0.0
 10
532.3173817964215
 20
-170.3026610159685
 30
0.0
 10
532.2722764449161
 20
-170.5696689368274
 30
0.0
 10
532.0675980124003
 20
-171.0866761284418
 30
0.0
 10
531.9073312900935
 20
-171.3350726298798
 30
0.0
 10
531.497280783759
 20
-171.745123136223
 30
0.0
 10
531.2488842823245
 20
-171.905389858535
 30
0.0
 10
530.7318770907144
 20
-172.1100682910615
 30
0.0
 10
530.4648691698563
 20
-172.1551736425726
 30
0.0
 10
529.9698944230257
 20
-172.1551736425777
 30
0.0
 10
529.7028865021668
 20
-172.1100682910723
 30
0.0
 10
529.1858793105524
 20
-171.9053898585566
 30
0.0
 10
528.9374828091145
 20
-171.7451231362498
 30
0.0
 10
528.5274323027716
 20
-171.3350726299152
 30
0.0
 10
528.3671655804593
 20
-171.0866761284807
 30
0.0
 10
528.1624871479328
 20
-170.5696689368705
 30
0.0
 10
528.1173817964219
 20
-170.3026610160125
 30
0.0
 10
528.1173817964191
 20
-170.0551736425972
 30
0.0
  0
SPLINE
  5
165
330
1F
100
AcDbEntity
  8
0
  6
Continuous
 62
   144
370
    18
100
AcDbSpline
210
0.0
220
0.0
230
1.0
 70
     8
 71
     3
 72
    22
 73
    18
 74
     0
 42
0.000000001
 43
0.00000001
 40
0.0
 40
0.0
 40
0.0
 40
0.0
 40
0.125
 40
0.125
 40
0.25
 40
0.25
 40
0.375
 40
0.375
 40
0.5
 40
0.5
 40
0.625
 40
0.625
 40
0.75
 40
0.75
 40
0.875
 40
0.875
 40
1.0
 40
1.0
 40
1.0
 40
1.0
 10
78.6173817964187
 20
-170.0551736425752
 30
0.0
 10
78.6173817964187
 20
-170.2437354508916
 30
0.0
 10
78.6517477785203
 20
-170.44717005726
 30
0.0
 10
78.80769325091735
 20
-170.8410802984884
 30
0.0
 10
78.92980122981974
 20
-171.0303347757731
 30
0.0
 10
79.24222066322073
 20
-171.3427542091741
 30
0.0
 10
79.4314751405055
 20
-171.4648621880766
 30
0.0
 10
79.82538538173395
 20
-171.6208076604736
 30
0.0
 10
80.02881998810233
 20
-171.6551736425753
 30
0.0
 10
80.40594360473507
 20
-171.6551736425752
 30
0.0
 10
80.60937821110348
 20
-171.6208076604736
 30
0.0
 10
81.0032884523319
 20
-171.4648621880766
 30
0.0
 10
81.19254292961666
 20
-171.3427542091743
 30
0.0
 10
81.50496236301768
 20
-171.0303347757732
 30
0.0
 10
81.62707034192005
 20
-170.8410802984884
 30
0.0
 10
81.78301581431712
 20
-170.44717005726
 30
0.0
 10
81.8173817964187
 20
-170.2437354508916
 30
0.0
 10
81.8173817964187
 20
-170.0551736425752
 30
0.0
  0
SPLINE
  5
168
330
1F
100
AcDbEntity
  8
0
  6
Continuous
 62
   144
370
    18
100
AcDbSpline
210
0.0
220
0.0
230
1.0
 70
     8
 71
     3
 72
    22
 73
    18
 74
     0
 42
0.000000001
 43
0.00000001
 40
0.0
 40
0.0
 40
0.0
 40
0.0
 40
0.125
 40
0.125
 40
0.25
 40
0.25
 40
0.375
 40
0.375
 40
0.5
 40
0.5
 40
0.625
 40
0.625
 40
0.75
 40
0.75
 40
0.875
 40
0.875
 40
1.0
 40
1.0
 40
1.0
 40
1.0
 10
82.31738179641859
 20
-170.0551736425532
 30
0.0
 10
82.3173817964212
 20
-170.3026610159685
 30
0.0
 10
82.27227644491569
 20
-170.5696689368275
 30
0.0
 10
82.06759801240001
 20
-171.0866761284419
 30
0.0
 10
81.90733129009325
 20
-171.3350726298798
 30
0.0
 10
81.49728078375873
 20
-171.7451231362229
 30
0.0
 10
81.24888428232418
 20
-171.9053898585349
 30
0.0
 10
80.73187709071405
 20
-172.1100682910615
 30
0.0
 10
80.46486916985602
 20
-172.1551736425726
 30
0.0
 10
79.96989442302544
 20
-172.1551736425778
 30
0.0
 10
79.70288650216645
 20
-172.1100682910723
 30
0.0
 10
79.18587931055201
 20
-171.9053898585565
 30
0.0
 10
78.93748280911417
 20
-171.7451231362498
 30
0.0
 10
78.52743230277103
 20
-171.3350726299153
 30
0.0
 10
78.36716558045906
 20
-171.0866761284808
 30
0.0
 10
78.1624871479325
 20
-170.5696689368705
 30
0.0
 10
78.11738179642141
 20
-170.3026610160125
 30
0.0
 10
78.11738179641881
 20
-170.0551736425972
 30
0.0
  0
SPLINE
  5
169
330
1F
100
AcDbEntity
  8
0
  6
Continuous
 62
   144
370
    18
100
AcDbSpline
210
0.0
220
0.0
230
1.0
 70
    11
 71
     3
 72
    38
 73
    34
 74
     0
 42
0.000000001
 43
0.00000001
 40
0.0
 40
0.0
 40
0.0
 40
0.0
 40
0.0625
 40
0.0625
 40
0.125
 40
0.125
 40
0.1875
 40
0.1875
 40
0.25
 40
0.25
 40
0.3125
 40
0.3125
 40
0.375
 40
0.375
 40
0.4375
 40
0.4375
 40
0.5
 40
0.5
 40
0.5625
 40
0.5625
 40
0.625
 40
0.625
 40
0.6875
 40
0.6875
 40
0.75
 40
0.75
 40
0.8125
 40
0.8125
 40
0.875
 40
0.875
 40
0.9375
 40
0.9375
 40
1.0
 40
1.0
 40
1.0
 40
1.0
 10
-203.590467657477
 20
-169.1476752446682
 30
0.0
 10
-203.8143848048527
 20
-169.1476752446681
 30
0.0
 10
-204.0559633999152
 20
-169.1068656409226
 30
0.0
 10
-204.5237318113738
 20
-168.9216803924511
 30
0.0
 10
-204.7484715031496
 20
-168.7766771675045
 30
0.0
 10
-205.1194695803133
 20
-168.4056790903407
 30
0.0
 10
-205.2644728052599
 20
-168.1809393985651
 30
0.0
 10
-205.4496580537314
 20
-167.7131709871064
 30
0.0
 10
-205.490467657477
 20
-167.4715923920439
 30
0.0
 10
-205.490467657477
 20
-167.0237580972924
 30
0.0
 10
-205.4496580537314
 20
-166.78217950223
 30
0.0
 10
-205.2644728052598
 20
-166.3144110907712
 30
0.0
 10
-205.1194695803133
 20
-166.0896713989956
 30
0.0
 10
-204.7484715031497
 20
-165.7186733218319
 30
0.0
 10
-204.5237318113739
 20
-165.5736700968854
 30
0.0
 10
-204.0559633999151
 20
-165.3884848484138
 30
0.0
 10
-203.8143848048528
 20
-165.3476752446682
 30
0.0
 10
-203.3665505101012
 20
-165.3476752446682
 30
0.0
 10
-203.1249719150387
 20
-165.3884848484138
 30
0.0
 10
-202.6572035035801
 20
-165.5736700968853
 30
0.0
 10
-202.4324638118044
 20
-165.7186733218319
 30
0.0
 10
-202.0614657346407
 20
-166.0896713989956
 30
0.0
 10
-201.9164625096941
 20
-166.3144110907713
 30
0.0
 10
-201.7312772612227
 20
-166.7821795022301
 30
0.0
 10
-201.690467657477
 20
-167.0237580972924
 30
0.0
 10
-201.690467657477
 20
-167.4715923920439
 30
0.0
 10
-201.7312772612225
 20
-167.7131709871064
 30
0.0
 10
-201.9164625096941
 20
-168.1809393985651
 30
0.0
 10
-202.0614657346407
 20
-168.4056790903408
 30
0.0
 10
-202.4324638118044
 20
-168.7766771675045
 30
0.0
 10
-202.65720350358
 20
-168.9216803924511
 30
0.0
 10
-203.1249719150387
 20
-169.1068656409226
 30
0.0
 10
-203.3665505101013
 20
-169.1476752446682
 30
0.0
 10
-203.590467657477
 20
-169.1476752446682
 30
0.0
  0
SPLINE
  5
16A
330
1F
100
AcDbEntity
  8
0
  6
Continuous
 62
   144
370
    18
100
AcDbSpline
210
0.0
220
0.0
230
1.0
 70
    11
 71
     3
 72
    38
 73
    34
 74
     0
 42
0.000000001
 43
0.00000001
 40
0.0
 40
0.0
 40
0.0
 40
0.0
 40
0.0625
 40
0.0625
 40
0.125
 40
0.125
 40
0.1875
 40
0.1875
 40
0.25
 40
0.25
 40
0.3125
 40
0.3125
 40
0.375
 40
0.375
 40
0.4375
 40
0.4375
 40
0.5
 40
0.5
 40
0.5625
 40
0.5625
 40
0.625
 40
0.625
 40
0.6875
 40
0.6875
 40
0.75
 40
0.75
 40
0.8125
 40
0.8125
 40
0.875
 40
0.875
 40
0.9375
 40
0.9375
 40
1.0
 40
1.0
 40
1.0
 40
1.0
 10
-228.590467657477
 20
-179.3976752446683
 30
0.0
 10
-228.8438475874021
 20
-179.3976752446682
 30
0.0
 10
-229.1172128397097
 20
-179.3514959562193
 30
0.0
 10
-229.6465297263602
 20
-179.1419442276856
 30
0.0
 10
-229.9008404302118
 20
-178.9778616310356
 30
0.0
 10
-230.3206540438443
 20
-178.5580480174029
 30
0.0
 10
-230.4847366404944
 20
-178.3037373135516
 30
0.0
 10
-230.6942883690279
 20
-177.7744204269008
 30
0.0
 10
-230.740467657477
 20
-177.5010551745933
 30
0.0
 10
-230.7404676574769
 20
-176.994295314743
 30
0.0
 10
-230.6942883690282
 20
-176.7209300624356
 30
0.0
 10
-230.4847366404944
 20
-176.1916131757848
 30
0.0
 10
-230.3206540438444
 20
-175.9373024719335
 30
0.0
 10
-229.9008404302116
 20
-175.5174888583008
 30
0.0
 10
-229.6465297263602
 20
-175.3534062616507
 30
0.0
 10
-229.1172128397095
 20
-175.1438545331171
 30
0.0
 10
-228.8438475874022
 20
-175.0976752446682
 30
0.0
 10
-228.3370877275518
 20
-175.0976752446682
 30
0.0
 10
-228.0637224752444
 20
-175.1438545331172
 30
0.0
 10
-227.5344055885936
 20
-175.3534062616507
 30
0.0
 10
-227.2800948847422
 20
-175.5174888583009
 30
0.0
 10
-226.8602812711096
 20
-175.9373024719334
 30
0.0
 10
-226.6961986744595
 20
-176.1916131757849
 30
0.0
 10
-226.486646945926
 20
-176.7209300624355
 30
0.0
 10
-226.4404676574771
 20
-176.9942953147429
 30
0.0
 10
-226.4404676574769
 20
-177.5010551745934
 30
0.0
 10
-226.486646945926
 20
-177.7744204269009
 30
0.0
 10
-226.6961986744596
 20
-178.3037373135516
 30
0.0
 10
-226.8602812711096
 20
-178.558048017403
 30
0.0
 10
-227.2800948847422
 20
-178.9778616310357
 30
0.0
 10
-227.5344055885936
 20
-179.1419442276857
 30
0.0
 10
-228.0637224752442
 20
-179.3514959562192
 30
0.0
 10
-228.3370877275519
 20
-179.3976752446683
 30
0.0
 10
-228.590467657477
 20
-179.3976752446683
 30
0.0
  0
SPLINE
  5
16B
330
1F
100
AcDbEntity
  8
0
  6
Continuous
 62
   144
370
    18
100
AcDbSpline
210
0.0
220
0.0
230
1.0
 70
    11
 71
     3
 72
    38
 73
    34
 74
     0
 42
0.000000001
 43
0.00000001
 40
0.0
 40
0.0
 40
0.0
 40
0.0
 40
0.0625
 40
0.0625
 40
0.125
 40
0.125
 40
0.1875
 40
0.1875
 40
0.25
 40
0.25
 40
0.3125
 40
0.3125
 40
0.375
 40
0.375
 40
0.4375
 40
0.4375
 40
0.5
 40
0.5
 40
0.5625
 40
0.5625
 40
0.625
 40
0.625
 40
0.6875
 40
0.6875
 40
0.75
 40
0.75
 40
0.8125
 40
0.8125
 40
0.875
 40
0.875
 40
0.9375
 40
0.9375
 40
1.0
 40
1.0
 40
1.0
 40
1.0
 10
-203.590467657477
 20
-189.1476752446682
 30
0.0
 10
-203.8143848048526
 20
-189.1476752446681
 30
0.0
 10
-204.0559633999152
 20
-189.1068656409226
 30
0.0
 10
-204.5237318113738
 20
-188.9216803924511
 30
0.0
 10
-204.7484715031496
 20
-188.7766771675045
 30
0.0
 10
-205.1194695803133
 20
-188.4056790903407
 30
0.0
 10
-205.2644728052599
 20
-188.1809393985651
 30
0.0
 10
-205.4496580537314
 20
-187.7131709871063
 30
0.0
 10
-205.490467657477
 20
-187.471592392044
 30
0.0
 10
-205.490467657477
 20
-187.0237580972924
 30
0.0
 10
-205.4496580537314
 20
-186.78217950223
 30
0.0
 10
-205.2644728052598
 20
-186.3144110907713
 30
0.0
 10
-205.1194695803134
 20
-186.0896713989956
 30
0.0
 10
-204.7484715031496
 20
-185.7186733218319
 30
0.0
 10
-204.5237318113739
 20
-185.5736700968853
 30
0.0
 10
-204.0559633999152
 20
-185.3884848484138
 30
0.0
 10
-203.8143848048528
 20
-185.3476752446682
 30
0.0
 10
-203.3665505101013
 20
-185.3476752446681
 30
0.0
 10
-203.1249719150388
 20
-185.3884848484138
 30
0.0
 10
-202.6572035035801
 20
-185.5736700968852
 30
0.0
 10
-202.4324638118044
 20
-185.7186733218319
 30
0.0
 10
-202.0614657346407
 20
-186.0896713989955
 30
0.0
 10
-201.9164625096941
 20
-186.3144110907712
 30
0.0
 10
-201.7312772612226
 20
-186.78217950223
 30
0.0
 10
-201.690467657477
 20
-187.0237580972924
 30
0.0
 10
-201.6904676574771
 20
-187.4715923920439
 30
0.0
 10
-201.7312772612227
 20
-187.7131709871064
 30
0.0
 10
-201.9164625096942
 20
-188.1809393985651
 30
0.0
 10
-202.0614657346407
 20
-188.4056790903407
 30
0.0
 10
-202.4324638118044
 20
-188.7766771675044
 30
0.0
 10
-202.65720350358
 20
-188.9216803924511
 30
0.0
 10
-203.1249719150387
 20
-189.1068656409226
 30
0.0
 10
-203.3665505101013
 20
-189.1476752446682
 30
0.0
 10
-203.590467657477
 20
-189.1476752446682
 30
0.0
  0
SPLINE
  5
16D
330
1F
100
AcDbEntity
  8
0
  6
Continuous
 62
   144
370
    18
100
AcDbSpline
210
0.0
220
0.0
230
1.0
 70
     8
 71
     3
 72
    22
 73
    18
 74
     0
 42
0.000000001
 43
0.00000001
 40
0.0
 40
0.0
 40
0.0
 40
0.0
 40
0.125
 40
0.125
 40
0.25
 40
0.25
 40
0.375
 40
0.375
 40
0.5
 40
0.5
 40
0.625
 40
0.625
 40
0.75
 40
0.75
 40
0.875
 40
0.875
 40
1.0
 40
1.0
 40
1.0
 40
1.0
 10
-64.29786898097711
 20
-169.9838296235862
 30
0.0
 10
-64.2978689809745
 20
-170.2313169970015
 30
0.0
 10
-64.34297433248004
 20
-170.4983249178605
 30
0.0
 10
-64.54765276499575
 20
-171.0153321094749
 30
0.0
 10
-64.70791948730253
 20
-171.2637286109129
 30
0.0
 10
-65.11796999363706
 20
-171.6737791172559
 30
0.0
 10
-65.36636649507166
 20
-171.834045839568
 30
0.0
 10
-65.8833736866818
 20
-172.0387242720945
 30
0.0
 10
-66.15038160753983
 20
-172.0838296236056
 30
0.0
 10
-66.64535635437035
 20
-172.0838296236108
 30
0.0
 10
-66.9123642752294
 20
-172.0387242721053
 30
0.0
 10
-67.4293714668438
 20
-171.8340458395896
 30
0.0
 10
-67.67776796828173
 20
-171.6737791172827
 30
0.0
 10
-68.08781847462481
 20
-171.2637286109481
 30
0.0
 10
-68.24808519693681
 20
-171.0153321095137
 30
0.0
 10
-68.45276362946329
 20
-170.4983249179035
 30
0.0
 10
-68.49786898097443
 20
-170.2313169970455
 30
0.0
 10
-68.49786898097699
 20
-169.9838296236302
 30
0.0
  0
SPLINE
  5
170
330
1F
100
AcDbEntity
  8
0
  6
Continuous
 62
   144
370
    18
100
AcDbSpline
210
0.0
220
0.0
230
1.0
 70
     8
 71
     3
 72
    22
 73
    18
 74
     0
 42
0.000000001
 43
0.00000001
 40
0.0
 40
0.0
 40
0.0
 40
0.0
 40
0.125
 40
0.125
 40
0.25
 40
0.25
 40
0.375
 40
0.375
 40
0.5
 40
0.5
 40
0.625
 40
0.625
 40
0.75
 40
0.75
 40
0.875
 40
0.875
 40
1.0
 40
1.0
 40
1.0
 40
1.0
 10
-67.99786898097699
 20
-169.9838296236082
 30
0.0
 10
-67.99786898097705
 20
-170.1723914319246
 30
0.0
 10
-67.96350299887544
 20
-170.375826038293
 30
0.0
 10
-67.80755752647843
 20
-170.7697362795214
 30
0.0
 10
-67.68544954757604
 20
-170.9589907568061
 30
0.0
 10
-67.37303011417507
 20
-171.2714101902072
 30
0.0
 10
-67.18377563689026
 20
-171.3935181691096
 30
0.0
 10
-66.78986539566189
 20
-171.5494636415066
 30
0.0
 10
-66.58643078929349
 20
-171.5838296236082
 30
0.0
 10
-66.20930717266071
 20
-171.5838296236082
 30
0.0
 10
-66.00587256629231
 20
-171.5494636415067
 30
0.0
 10
-65.61196232506389
 20
-171.3935181691096
 30
0.0
 10
-65.42270784777915
 20
-171.2714101902072
 30
0.0
 10
-65.1102884143781
 20
-170.9589907568062
 30
0.0
 10
-64.98818043547571
 20
-170.7697362795214
 30
0.0
 10
-64.83223496307866
 20
-170.375826038293
 30
0.0
 10
-64.79786898097717
 20
-170.1723914319246
 30
0.0
 10
-64.79786898097711
 20
-169.9838296236082
 30
0.0
  0
SPLINE
  5
174
330
1F
100
AcDbEntity
  8
0
  6
Continuous
 62
   144
370
    18
100
AcDbSpline
210
0.0
220
0.0
230
1.0
 70
     8
 71
     3
 72
    22
 73
    18
 74
     0
 42
0.000000001
 43
0.00000001
 40
0.0
 40
0.0
 40
0.0
 40
0.0
 40
0.125
 40
0.125
 40
0.25
 40
0.25
 40
0.375
 40
0.375
 40
0.5
 40
0.5
 40
0.625
 40
0.625
 40
0.75
 40
0.75
 40
0.875
 40
0.875
 40
1.0
 40
1.0
 40
1.0
 40
1.0
 10
-250.480053993267
 20
-169.9838296235872
 30
0.0
 10
-250.4800539932646
 20
-170.2313169970024
 30
0.0
 10
-250.5251593447702
 20
-170.4983249178613
 30
0.0
 10
-250.729837777286
 20
-171.0153321094754
 30
0.0
 10
-250.8901044995929
 20
-171.2637286109133
 30
0.0
 10
-251.3001550059272
 20
-171.6737791172561
 30
0.0
 10
-251.5485515073618
 20
-171.8340458395681
 30
0.0
 10
-252.0655586989719
 20
-172.0387242720945
 30
0.0
 10
-252.3325666198297
 20
-172.0838296236056
 30
0.0
 10
-252.8275413666604
 20
-172.0838296236108
 30
0.0
 10
-253.0945492875193
 20
-172.0387242721053
 30
0.0
 10
-253.6115564791339
 20
-171.8340458395895
 30
0.0
 10
-253.8599529805717
 20
-171.6737791172828
 30
0.0
 10
-254.2700034869148
 20
-171.2637286109483
 30
0.0
 10
-254.4302702092268
 20
-171.0153321095138
 30
0.0
 10
-254.6349486417533
 20
-170.4983249179036
 30
0.0
 10
-254.6800539932645
 20
-170.2313169970455
 30
0.0
 10
-254.6800539932671
 20
-169.9838296236302
 30
0.0
  0
SPLINE
  5
179
330
1F
100
AcDbEntity
  8
0
  6
Continuous
 62
   144
370
    18
100
AcDbSpline
210
0.0
220
0.0
230
1.0
 70
    11
 71
     3
 72
    38
 73
    34
 74
     0
 42
0.000000001
 43
0.00000001
 40
0.0
 40
0.0
 40
0.0
 40
0.0
 40
0.0625
 40
0.0625
 40
0.125
 40
0.125
 40
0.1875
 40
0.1875
 40
0.25
 40
0.25
 40
0.3125
 40
0.3125
 40
0.375
 40
0.375
 40
0.4375
 40
0.4375
 40
0.5
 40
0.5
 40
0.5625
 40
0.5625
 40
0.625
 40
0.625
 40
0.6875
 40
0.6875
 40
0.75
 40
0.75
 40
0.8125
 40
0.8125
 40
0.875
 40
0.875
 40
0.9375
 40
0.9375
 40
1.0
 40
1.0
 40
1.0
 40
1.0
 10
-275.6
 20
-172.2960795183192
 30
0.0
 10
-275.6000000000001
 20
-172.0485921449039
 30
0.0
 10
-275.5548946484918
 20
-171.7815842240454
 30
0.0
 10
-275.3502162159706
 20
-171.2645770324331
 30
0.0
 10
-275.1899494936614
 20
-171.016180530997
 30
0.0
 10
-274.7798989873224
 20
-170.606130024658
 30
0.0
 10
-274.5315024858862
 20
-170.4458633023487
 30
0.0
 10
-274.0144952942738
 20
-170.2411848698275
 30
0.0
 10
-273.7474873734153
 20
-170.1960795183192
 30
0.0
 10
-273.2525126265848
 20
-170.1960795183192
 30
0.0
 10
-272.9855047057263
 20
-170.2411848698275
 30
0.0
 10
-272.4684975141139
 20
-170.4458633023486
 30
0.0
 10
-272.2201010126777
 20
-170.6061300246581
 30
0.0
 10
-271.8100505063388
 20
-171.0161805309968
 30
0.0
 10
-271.6497837840294
 20
-171.2645770324332
 30
0.0
 10
-271.4451053515083
 20
-171.7815842240454
 30
0.0
 10
-271.4
 20
-172.0485921449039
 30
0.0
 10
-271.4
 20
-172.5435668917345
 30
0.0
 10
-271.4451053515084
 20
-172.810574812593
 30
0.0
 10
-271.6497837840294
 20
-173.3275820042053
 30
0.0
 10
-271.8100505063389
 20
-173.5759785056416
 30
0.0
 10
-272.2201010126777
 20
-173.9860290119804
 30
0.0
 10
-272.468497514114
 20
-174.1462957342898
 30
0.0
 10
-272.9855047057262
 20
-174.3509741668108
 30
0.0
 10
-273.2525126265847
 20
-174.3960795183192
 30
0.0
 10
-273.7474873734153
 20
-174.3960795183192
 30
0.0
 10
-274.0144952942738
 20
-174.3509741668109
 30
0.0
 10
-274.5315024858861
 20
-174.1462957342897
 30
0.0
 10
-274.7798989873224
 20
-173.9860290119805
 30
0.0
 10
-275.1899494936612
 20
-173.5759785056416
 30
0.0
 10
-275.3502162159705
 20
-173.3275820042054
 30
0.0
 10
-275.5548946484917
 20
-172.810574812593
 30
0.0
 10
-275.6
 20
-172.5435668917345
 30
0.0
 10
-275.6
 20
-172.2960795183192
 30
0.0
  0
SPLINE
  5
17A
330
1F
100
AcDbEntity
  8
0
  6
Continuous
 62
   144
370
    18
100
AcDbSpline
210
0.0
220
0.0
230
1.0
 70
    11
 71
     3
 72
    38
 73
    34
 74
     0
 42
0.000000001
 43
0.00000001
 40
0.0
 40
0.0
 40
0.0
 40
0.0
 40
0.0625
 40
0.0625
 40
0.125
 40
0.125
 40
0.1875
 40
0.1875
 40
0.25
 40
0.25
 40
0.3125
 40
0.3125
 40
0.375
 40
0.375
 40
0.4375
 40
0.4375
 40
0.5
 40
0.5
 40
0.5625
 40
0.5625
 40
0.625
 40
0.625
 40
0.6875
 40
0.6875
 40
0.75
 40
0.75
 40
0.8125
 40
0.8125
 40
0.875
 40
0.875
 40
0.9375
 40
0.9375
 40
1.0
 40
1.0
 40
1.0
 40
1.0
 10
-555.5999999999999
 20
-172.2960795183192
 30
0.0
 10
-555.5999999999999
 20
-172.0485921449039
 30
0.0
 10
-555.5548946484919
 20
-171.7815842240454
 30
0.0
 10
-555.3502162159705
 20
-171.2645770324331
 30
0.0
 10
-555.1899494936611
 20
-171.0161805309969
 30
0.0
 10
-554.7798989873224
 20
-170.606130024658
 30
0.0
 10
-554.5315024858866
 20
-170.4458633023486
 30
0.0
 10
-554.0144952942737
 20
-170.2411848698275
 30
0.0
 10
-553.7474873734153
 20
-170.1960795183192
 30
0.0
 10
-553.2525126265848
 20
-170.1960795183192
 30
0.0
 10
-552.9855047057263
 20
-170.2411848698275
 30
0.0
 10
-552.468497514114
 20
-170.4458633023487
 30
0.0
 10
-552.2201010126776
 20
-170.6061300246581
 30
0.0
 10
-551.8100505063388
 20
-171.0161805309969
 30
0.0
 10
-551.6497837840295
 20
-171.2645770324332
 30
0.0
 10
-551.4451053515081
 20
-171.7815842240454
 30
0.0
 10
-551.4
 20
-172.0485921449039
 30
0.0
 10
-551.3999999999999
 20
-172.5435668917345
 30
0.0
 10
-551.445105351508
 20
-172.810574812593
 30
0.0
 10
-551.6497837840293
 20
-173.3275820042053
 30
0.0
 10
-551.8100505063389
 20
-173.5759785056414
 30
0.0
 10
-552.2201010126777
 20
-173.9860290119803
 30
0.0
 10
-552.4684975141141
 20
-174.1462957342897
 30
0.0
 10
-552.9855047057262
 20
-174.3509741668108
 30
0.0
 10
-553.2525126265848
 20
-174.3960795183192
 30
0.0
 10
-553.7474873734153
 20
-174.3960795183192
 30
0.0
 10
-554.014495294274
 20
-174.3509741668108
 30
0.0
 10
-554.5315024858863
 20
-174.1462957342897
 30
0.0
 10
-554.7798989873224
 20
-173.9860290119803
 30
0.0
 10
-555.1899494936614
 20
-173.5759785056414
 30
0.0
 10
-555.3502162159706
 20
-173.3275820042052
 30
0.0
 10
-555.5548946484919
 20
-172.810574812593
 30
0.0
 10
-555.6
 20
-172.5435668917345
 30
0.0
 10
-555.5999999999999
 20
-172.2960795183192
 30
0.0
  0
SPLINE
  5
17B
330
1F
100
AcDbEntity
  8
0
  6
Continuous
 62
   144
370
    18
100
AcDbSpline
210
0.0
220
0.0
230
1.0
 70
    11
 71
     3
 72
    38
 73
    34
 74
     0
 42
0.000000001
 43
0.00000001
 40
0.0
 40
0.0
 40
0.0
 40
0.0
 40
0.0625
 40
0.0625
 40
0.125
 40
0.125
 40
0.1875
 40
0.1875
 40
0.25
 40
0.25
 40
0.3125
 40
0.3125
 40
0.375
 40
0.375
 40
0.4375
 40
0.4375
 40
0.5
 40
0.5
 40
0.5625
 40
0.5625
 40
0.625
 40
0.625
 40
0.6875
 40
0.6875
 40
0.75
 40
0.75
 40
0.8125
 40
0.8125
 40
0.875
 40
0.875
 40
0.9375
 40
0.9375
 40
1.0
 40
1.0
 40
1.0
 40
1.0
 10
-315.6
 20
-172.2960795183192
 30
0.0
 10
-315.5999999999999
 20
-172.0485921449039
 30
0.0
 10
-315.5548946484915
 20
-171.7815842240454
 30
0.0
 10
-315.3502162159705
 20
-171.2645770324331
 30
0.0
 10
-315.1899494936611
 20
-171.0161805309968
 30
0.0
 10
-314.7798989873222
 20
-170.6061300246579
 30
0.0
 10
-314.531502485886
 20
-170.4458633023486
 30
0.0
 10
-314.0144952942737
 20
-170.2411848698274
 30
0.0
 10
-313.7474873734154
 20
-170.1960795183192
 30
0.0
 10
-313.2525126265846
 20
-170.1960795183192
 30
0.0
 10
-312.9855047057263
 20
-170.2411848698275
 30
0.0
 10
-312.4684975141139
 20
-170.4458633023486
 30
0.0
 10
-312.2201010126778
 20
-170.6061300246581
 30
0.0
 10
-311.8100505063389
 20
-171.0161805309968
 30
0.0
 10
-311.6497837840296
 20
-171.2645770324331
 30
0.0
 10
-311.4451053515083
 20
-171.7815842240454
 30
0.0
 10
-311.4
 20
-172.0485921449039
 30
0.0
 10
-311.3999999999999
 20
-172.5435668917345
 30
0.0
 10
-311.4451053515085
 20
-172.810574812593
 30
0.0
 10
-311.6497837840294
 20
-173.3275820042053
 30
0.0
 10
-311.8100505063391
 20
-173.5759785056414
 30
0.0
 10
-312.2201010126776
 20
-173.9860290119803
 30
0.0
 10
-312.4684975141139
 20
-174.1462957342897
 30
0.0
 10
-312.9855047057263
 20
-174.3509741668108
 30
0.0
 10
-313.2525126265847
 20
-174.3960795183192
 30
0.0
 10
-313.7474873734152
 20
-174.3960795183192
 30
0.0
 10
-314.014495294274
 20
-174.3509741668109
 30
0.0
 10
-314.531502485886
 20
-174.1462957342897
 30
0.0
 10
-314.7798989873222
 20
-173.9860290119803
 30
0.0
 10
-315.1899494936611
 20
-173.5759785056414
 30
0.0
 10
-315.3502162159704
 20
-173.3275820042052
 30
0.0
 10
-315.5548946484916
 20
-172.810574812593
 30
0.0
 10
-315.6000000000002
 20
-172.5435668917345
 30
0.0
 10
-315.6
 20
-172.2960795183192
 30
0.0
  0
SPLINE
  5
17C
330
1F
100
AcDbEntity
  8
0
  6
Continuous
 62
   144
370
    18
100
AcDbSpline
210
0.0
220
0.0
230
1.0
 70
    11
 71
     3
 72
    38
 73
    34
 74
     0
 42
0.000000001
 43
0.00000001
 40
0.0
 40
0.0
 40
0.0
 40
0.0
 40
0.0625
 40
0.0625
 40
0.125
 40
0.125
 40
0.1875
 40
0.1875
 40
0.25
 40
0.25
 40
0.3125
 40
0.3125
 40
0.375
 40
0.375
 40
0.4375
 40
0.4375
 40
0.5
 40
0.5
 40
0.5625
 40
0.5625
 40
0.625
 40
0.625
 40
0.6875
 40
0.6875
 40
0.75
 40
0.75
 40
0.8125
 40
0.8125
 40
0.875
 40
0.875
 40
0.9375
 40
0.9375
 40
1.0
 40
1.0
 40
1.0
 40
1.0
 10
530.3249673719109
 20
-225.6460795183192
 30
0.0
 10
530.3249673719108
 20
-225.8346413266356
 30
0.0
 10
530.2906013898097
 20
-226.038075933004
 30
0.0
 10
530.1346559174121
 20
-226.4319861742323
 30
0.0
 10
530.01254793851
 20
-226.6212406515172
 30
0.0
 10
529.7001285051088
 20
-226.9336600849182
 30
0.0
 10
529.5108740278241
 20
-227.0557680638205
 30
0.0
 10
529.1169637865955
 20
-227.2117135362176
 30
0.0
 10
528.9135291802277
 20
-227.2460795183192
 30
0.0
 10
528.5364055635945
 20
-227.2460795183193
 30
0.0
 10
528.3329709572264
 20
-227.2117135362178
 30
0.0
 10
527.9390607159976
 20
-227.0557680638207
 30
0.0
 10
527.7498062387131
 20
-226.9336600849184
 30
0.0
 10
527.4373868053119
 20
-226.6212406515173
 30
0.0
 10
527.3152788264094
 20
-226.4319861742326
 30
0.0
 10
527.1593333540125
 20
-226.038075933004
 30
0.0
 10
527.124967371911
 20
-225.8346413266356
 30
0.0
 10
527.124967371911
 20
-225.4575177100028
 30
0.0
 10
527.1593333540127
 20
-225.2540831036344
 30
0.0
 10
527.3152788264097
 20
-224.8601728624061
 30
0.0
 10
527.4373868053123
 20
-224.6709183851212
 30
0.0
 10
527.7498062387132
 20
-224.3584989517203
 30
0.0
 10
527.939060715998
 20
-224.2363909728179
 30
0.0
 10
528.3329709572262
 20
-224.0804455004208
 30
0.0
 10
528.5364055635944
 20
-224.0460795183192
 30
0.0
 10
528.9135291802273
 20
-224.0460795183191
 30
0.0
 10
529.1169637865959
 20
-224.0804455004208
 30
0.0
 10
529.5108740278242
 20
-224.2363909728178
 30
0.0
 10
529.7001285051091
 20
-224.3584989517202
 30
0.0
 10
530.01254793851
 20
-224.6709183851213
 30
0.0
 10
530.1346559174126
 20
-224.860172862406
 30
0.0
 10
530.2906013898096
 20
-225.2540831036344
 30
0.0
 10
530.324967371911
 20
-225.4575177100028
 30
0.0
 10
530.3249673719109
 20
-225.6460795183192
 30
0.0
  0
SPLINE
  5
17D
330
1F
100
AcDbEntity
  8
0
  6
Continuous
 62
   144
370
    18
100
AcDbSpline
210
0.0
220
0.0
230
1.0
 70
    11
 71
     3
 72
    38
 73
    34
 74
     0
 42
0.000000001
 43
0.00000001
 40
0.0
 40
0.0
 40
0.0
 40
0.0
 40
0.0625
 40
0.0625
 40
0.125
 40
0.125
 40
0.1875
 40
0.1875
 40
0.25
 40
0.25
 40
0.3125
 40
0.3125
 40
0.375
 40
0.375
 40
0.4375
 40
0.4375
 40
0.5
 40
0.5
 40
0.5625
 40
0.5625
 40
0.625
 40
0.625
 40
0.6875
 40
0.6875
 40
0.75
 40
0.75
 40
0.8125
 40
0.8125
 40
0.875
 40
0.875
 40
0.9375
 40
0.9375
 40
1.0
 40
1.0
 40
1.0
 40
1.0
 10
530.3249673719108
 20
-362.1460795183192
 30
0.0
 10
530.324967371911
 20
-362.3346413266355
 30
0.0
 10
530.2906013898097
 20
-362.5380759330041
 30
0.0
 10
530.1346559174124
 20
-362.9319861742323
 30
0.0
 10
530.0125479385101
 20
-363.1212406515172
 30
0.0
 10
529.7001285051086
 20
-363.433660084918
 30
0.0
 10
529.5108740278245
 20
-363.5557680638206
 30
0.0
 10
529.1169637865953
 20
-363.7117135362175
 30
0.0
 10
528.9135291802274
 20
-363.7460795183192
 30
0.0
 10
528.5364055635946
 20
-363.7460795183192
 30
0.0
 10
528.3329709572264
 20
-363.7117135362176
 30
0.0
 10
527.9390607159975
 20
-363.5557680638204
 30
0.0
 10
527.7498062387127
 20
-363.4336600849182
 30
0.0
 10
527.4373868053118
 20
-363.1212406515173
 30
0.0
 10
527.3152788264094
 20
-362.9319861742326
 30
0.0
 10
527.1593333540125
 20
-362.5380759330041
 30
0.0
 10
527.1249673719109
 20
-362.3346413266357
 30
0.0
 10
527.124967371911
 20
-361.9575177100028
 30
0.0
 10
527.1593333540125
 20
-361.7540831036346
 30
0.0
 10
527.3152788264094
 20
-361.3601728624059
 30
0.0
 10
527.4373868053118
 20
-361.1709183851214
 30
0.0
 10
527.749806238713
 20
-360.8584989517201
 30
0.0
 10
527.9390607159977
 20
-360.7363909728179
 30
0.0
 10
528.3329709572264
 20
-360.5804455004207
 30
0.0
 10
528.5364055635946
 20
-360.5460795183192
 30
0.0
 10
528.9135291802273
 20
-360.5460795183191
 30
0.0
 10
529.1169637865955
 20
-360.5804455004206
 30
0.0
 10
529.5108740278242
 20
-360.7363909728177
 30
0.0
 10
529.7001285051091
 20
-360.8584989517203
 30
0.0
 10
530.01254793851
 20
-361.1709183851212
 30
0.0
 10
530.1346559174126
 20
-361.3601728624061
 30
0.0
 10
530.2906013898095
 20
-361.7540831036346
 30
0.0
 10
530.3249673719107
 20
-361.9575177100028
 30
0.0
 10
530.3249673719108
 20
-362.1460795183192
 30
0.0
  0
SPLINE
  5
17E
330
1F
100
AcDbEntity
  8
0
  6
Continuous
 62
   144
370
    18
100
AcDbSpline
210
0.0
220
0.0
230
1.0
 70
    11
 71
     3
 72
    38
 73
    34
 74
     0
 42
0.000000001
 43
0.00000001
 40
0.0
 40
0.0
 40
0.0
 40
0.0
 40
0.0625
 40
0.0625
 40
0.125
 40
0.125
 40
0.1875
 40
0.1875
 40
0.25
 40
0.25
 40
0.3125
 40
0.3125
 40
0.375
 40
0.375
 40
0.4375
 40
0.4375
 40
0.5
 40
0.5
 40
0.5625
 40
0.5625
 40
0.625
 40
0.625
 40
0.6875
 40
0.6875
 40
0.75
 40
0.75
 40
0.8125
 40
0.8125
 40
0.875
 40
0.875
 40
0.9375
 40
0.9375
 40
1.0
 40
1.0
 40
1.0
 40
1.0
 10
295.3249673719109
 20
-362.1460795183192
 30
0.0
 10
295.3249673719109
 20
-362.3346413266355
 30
0.0
 10
295.2906013898095
 20
-362.538075933004
 30
0.0
 10
295.1346559174121
 20
-362.9319861742323
 30
0.0
 10
295.01254793851
 20
-363.1212406515172
 30
0.0
 10
294.7001285051089
 20
-363.4336600849183
 30
0.0
 10
294.5108740278243
 20
-363.5557680638205
 30
0.0
 10
294.1169637865957
 20
-363.7117135362173
 30
0.0
 10
293.9135291802273
 20
-363.7460795183192
 30
0.0
 10
293.5364055635946
 20
-363.7460795183191
 30
0.0
 10
293.3329709572262
 20
-363.7117135362176
 30
0.0
 10
292.9390607159979
 20
-363.5557680638207
 30
0.0
 10
292.7498062387131
 20
-363.4336600849183
 30
0.0
 10
292.437386805312
 20
-363.1212406515173
 30
0.0
 10
292.3152788264097
 20
-362.9319861742325
 30
0.0
 10
292.1593333540126
 20
-362.5380759330039
 30
0.0
 10
292.1249673719112
 20
-362.3346413266358
 30
0.0
 10
292.1249673719109
 20
-361.9575177100028
 30
0.0
 10
292.1593333540124
 20
-361.7540831036345
 30
0.0
 10
292.3152788264095
 20
-361.3601728624062
 30
0.0
 10
292.4373868053121
 20
-361.1709183851215
 30
0.0
 10
292.7498062387129
 20
-360.8584989517202
 30
0.0
 10
292.9390607159978
 20
-360.7363909728181
 30
0.0
 10
293.3329709572262
 20
-360.5804455004208
 30
0.0
 10
293.5364055635945
 20
-360.5460795183192
 30
0.0
 10
293.9135291802274
 20
-360.5460795183191
 30
0.0
 10
294.1169637865957
 20
-360.5804455004209
 30
0.0
 10
294.5108740278243
 20
-360.7363909728179
 30
0.0
 10
294.700128505109
 20
-360.8584989517203
 30
0.0
 10
295.01254793851
 20
-361.1709183851212
 30
0.0
 10
295.1346559174123
 20
-361.3601728624061
 30
0.0
 10
295.2906013898095
 20
-361.7540831036345
 30
0.0
 10
295.324967371911
 20
-361.9575177100028
 30
0.0
 10
295.3249673719109
 20
-362.1460795183192
 30
0.0
  0
SPLINE
  5
17F
330
1F
100
AcDbEntity
  8
0
  6
Continuous
 62
   144
370
    18
100
AcDbSpline
210
0.0
220
0.0
230
1.0
 70
    11
 71
     3
 72
    38
 73
    34
 74
     0
 42
0.000000001
 43
0.00000001
 40
0.0
 40
0.0
 40
0.0
 40
0.0
 40
0.0625
 40
0.0625
 40
0.125
 40
0.125
 40
0.1875
 40
0.1875
 40
0.25
 40
0.25
 40
0.3125
 40
0.3125
 40
0.375
 40
0.375
 40
0.4375
 40
0.4375
 40
0.5
 40
0.5
 40
0.5625
 40
0.5625
 40
0.625
 40
0.625
 40
0.6875
 40
0.6875
 40
0.75
 40
0.75
 40
0.8125
 40
0.8125
 40
0.875
 40
0.875
 40
0.9375
 40
0.9375
 40
1.0
 40
1.0
 40
1.0
 40
1.0
 10
-60.32496737191098
 20
-225.6460795183192
 30
0.0
 10
-60.32496737191095
 20
-225.4575177100027
 30
0.0
 10
-60.2906013898094
 20
-225.2540831036343
 30
0.0
 10
-60.13465591741235
 20
-224.8601728624059
 30
0.0
 10
-60.01254793851002
 20
-224.6709183851213
 30
0.0
 10
-59.70012850510897
 20
-224.3584989517202
 30
0.0
 10
-59.51087402782424
 20
-224.236390972818
 30
0.0
 10
-59.11696378659575
 20
-224.0804455004207
 30
0.0
 10
-58.91352918022741
 20
-224.0460795183193
 30
0.0
 10
-58.53640556359457
 20
-224.0460795183191
 30
0.0
 10
-58.33297095722622
 20
-224.0804455004208
 30
0.0
 10
-57.93906071599775
 20
-224.2363909728178
 30
0.0
 10
-57.74980623871306
 20
-224.3584989517202
 30
0.0
 10
-57.43738680531196
 20
-224.6709183851212
 30
0.0
 10
-57.31527882640963
 20
-224.860172862406
 30
0.0
 10
-57.15933335401257
 20
-225.2540831036344
 30
0.0
 10
-57.12496737191103
 20
-225.4575177100027
 30
0.0
 10
-57.12496737191103
 20
-225.8346413266356
 30
0.0
 10
-57.15933335401257
 20
-226.0380759330039
 30
0.0
 10
-57.31527882640963
 20
-226.4319861742324
 30
0.0
 10
-57.43738680531202
 20
-226.6212406515172
 30
0.0
 10
-57.74980623871301
 20
-226.9336600849182
 30
0.0
 10
-57.93906071599775
 20
-227.0557680638206
 30
0.0
 10
-58.33297095722617
 20
-227.2117135362176
 30
0.0
 10
-58.53640556359457
 20
-227.2460795183192
 30
0.0
 10
-58.91352918022741
 20
-227.2460795183192
 30
0.0
 10
-59.11696378659581
 20
-227.2117135362176
 30
0.0
 10
-59.51087402782418
 20
-227.0557680638207
 30
0.0
 10
-59.70012850510897
 20
-226.9336600849182
 30
0.0
 10
-60.01254793850996
 20
-226.6212406515172
 30
0.0
 10
-60.13465591741235
 20
-226.4319861742324
 30
0.0
 10
-60.2906013898094
 20
-226.0380759330039
 30
0.0
 10
-60.32496737191101
 20
-225.8346413266357
 30
0.0
 10
-60.32496737191098
 20
-225.6460795183192
 30
0.0
  0
SPLINE
  5
180
330
1F
100
AcDbEntity
  8
0
  6
Continuous
 62
   144
370
    18
100
AcDbSpline
210
0.0
220
0.0
230
1.0
 70
    11
 71
     3
 72
    38
 73
    34
 74
     0
 42
0.000000001
 43
0.00000001
 40
0.0
 40
0.0
 40
0.0
 40
0.0
 40
0.0625
 40
0.0625
 40
0.125
 40
0.125
 40
0.1875
 40
0.1875
 40
0.25
 40
0.25
 40
0.3125
 40
0.3125
 40
0.375
 40
0.375
 40
0.4375
 40
0.4375
 40
0.5
 40
0.5
 40
0.5625
 40
0.5625
 40
0.625
 40
0.625
 40
0.6875
 40
0.6875
 40
0.75
 40
0.75
 40
0.8125
 40
0.8125
 40
0.875
 40
0.875
 40
0.9375
 40
0.9375
 40
1.0
 40
1.0
 40
1.0
 40
1.0
 10
-295.324967371911
 20
-225.6460795183192
 30
0.0
 10
-295.3249673719109
 20
-225.4575177100027
 30
0.0
 10
-295.2906013898095
 20
-225.2540831036343
 30
0.0
 10
-295.1346559174123
 20
-224.8601728624059
 30
0.0
 10
-295.0125479385102
 20
-224.6709183851212
 30
0.0
 10
-294.7001285051089
 20
-224.3584989517201
 30
0.0
 10
-294.5108740278243
 20
-224.2363909728179
 30
0.0
 10
-294.1169637865958
 20
-224.0804455004207
 30
0.0
 10
-293.9135291802274
 20
-224.0460795183192
 30
0.0
 10
-293.5364055635946
 20
-224.0460795183193
 30
0.0
 10
-293.3329709572262
 20
-224.0804455004208
 30
0.0
 10
-292.9390607159978
 20
-224.2363909728177
 30
0.0
 10
-292.7498062387131
 20
-224.3584989517203
 30
0.0
 10
-292.437386805312
 20
-224.6709183851212
 30
0.0
 10
-292.3152788264097
 20
-224.860172862406
 30
0.0
 10
-292.1593333540126
 20
-225.2540831036344
 30
0.0
 10
-292.1249673719109
 20
-225.4575177100029
 30
0.0
 10
-292.1249673719111
 20
-225.8346413266356
 30
0.0
 10
-292.1593333540126
 20
-226.038075933004
 30
0.0
 10
-292.3152788264096
 20
-226.4319861742324
 30
0.0
 10
-292.4373868053121
 20
-226.6212406515172
 30
0.0
 10
-292.7498062387131
 20
-226.9336600849181
 30
0.0
 10
-292.939060715998
 20
-227.0557680638206
 30
0.0
 10
-293.3329709572262
 20
-227.2117135362176
 30
0.0
 10
-293.5364055635946
 20
-227.2460795183192
 30
0.0
 10
-293.9135291802274
 20
-227.2460795183192
 30
0.0
 10
-294.1169637865959
 20
-227.2117135362176
 30
0.0
 10
-294.5108740278243
 20
-227.0557680638206
 30
0.0
 10
-294.7001285051091
 20
-226.9336600849182
 30
0.0
 10
-295.0125479385098
 20
-226.6212406515171
 30
0.0
 10
-295.1346559174123
 20
-226.4319861742325
 30
0.0
 10
-295.2906013898095
 20
-226.038075933004
 30
0.0
 10
-295.324967371911
 20
-225.8346413266356
 30
0.0
 10
-295.324967371911
 20
-225.6460795183192
 30
0.0
  0
SPLINE
  5
181
330
1F
100
AcDbEntity
  8
0
  6
Continuous
 62
   144
370
    18
100
AcDbSpline
210
0.0
220
0.0
230
1.0
 70
    11
 71
     3
 72
    38
 73
    34
 74
     0
 42
0.000000001
 43
0.00000001
 40
0.0
 40
0.0
 40
0.0
 40
0.0
 40
0.0625
 40
0.0625
 40
0.125
 40
0.125
 40
0.1875
 40
0.1875
 40
0.25
 40
0.25
 40
0.3125
 40
0.3125
 40
0.375
 40
0.375
 40
0.4375
 40
0.4375
 40
0.5
 40
0.5
 40
0.5625
 40
0.5625
 40
0.625
 40
0.625
 40
0.6875
 40
0.6875
 40
0.75
 40
0.75
 40
0.8125
 40
0.8125
 40
0.875
 40
0.875
 40
0.9375
 40
0.9375
 40
1.0
 40
1.0
 40
1.0
 40
1.0
 10
-530.3249673719108
 20
-362.1460795183192
 30
0.0
 10
-530.3249673719108
 20
-361.9575177100027
 30
0.0
 10
-530.2906013898095
 20
-361.7540831036345
 30
0.0
 10
-530.1346559174119
 20
-361.3601728624058
 30
0.0
 10
-530.01254793851
 20
-361.1709183851214
 30
0.0
 10
-529.7001285051088
 20
-360.8584989517201
 30
0.0
 10
-529.5108740278241
 20
-360.7363909728178
 30
0.0
 10
-529.1169637865955
 20
-360.5804455004206
 30
0.0
 10
-528.9135291802276
 20
-360.5460795183192
 30
0.0
 10
-528.5364055635945
 20
-360.5460795183191
 30
0.0
 10
-528.3329709572268
 20
-360.5804455004211
 30
0.0
 10
-527.9390607159977
 20
-360.7363909728179
 30
0.0
 10
-527.7498062387134
 20
-360.8584989517203
 30
0.0
 10
-527.4373868053121
 20
-361.1709183851211
 30
0.0
 10
-527.3152788264099
 20
-361.360172862406
 30
0.0
 10
-527.1593333540127
 20
-361.7540831036344
 30
0.0
 10
-527.1249673719109
 20
-361.9575177100028
 30
0.0
 10
-527.124967371911
 20
-362.3346413266354
 30
0.0
 10
-527.1593333540128
 20
-362.5380759330041
 30
0.0
 10
-527.3152788264097
 20
-362.9319861742325
 30
0.0
 10
-527.4373868053118
 20
-363.1212406515172
 30
0.0
 10
-527.749806238713
 20
-363.4336600849182
 30
0.0
 10
-527.9390607159977
 20
-363.5557680638206
 30
0.0
 10
-528.332970957226
 20
-363.7117135362177
 30
0.0
 10
-528.5364055635943
 20
-363.7460795183193
 30
0.0
 10
-528.9135291802274
 20
-363.7460795183191
 30
0.0
 10
-529.1169637865958
 20
-363.7117135362175
 30
0.0
 10
-529.5108740278243
 20
-363.5557680638206
 30
0.0
 10
-529.7001285051091
 20
-363.4336600849182
 30
0.0
 10
-530.0125479385099
 20
-363.1212406515172
 30
0.0
 10
-530.1346559174123
 20
-362.9319861742324
 30
0.0
 10
-530.2906013898094
 20
-362.5380759330041
 30
0.0
 10
-530.3249673719109
 20
-362.3346413266357
 30
0.0
 10
-530.3249673719108
 20
-362.1460795183192
 30
0.0
  0
SPLINE
  5
182
330
1F
100
AcDbEntity
  8
0
  6
Continuous
 62
   144
370
    18
100
AcDbSpline
210
0.0
220
0.0
230
1.0
 70
    11
 71
     3
 72
    38
 73
    34
 74
     0
 42
0.000000001
 43
0.00000001
 40
0.0
 40
0.0
 40
0.0
 40
0.0
 40
0.0625
 40
0.0625
 40
0.125
 40
0.125
 40
0.1875
 40
0.1875
 40
0.25
 40
0.25
 40
0.3125
 40
0.3125
 40
0.375
 40
0.375
 40
0.4375
 40
0.4375
 40
0.5
 40
0.5
 40
0.5625
 40
0.5625
 40
0.625
 40
0.625
 40
0.6875
 40
0.6875
 40
0.75
 40
0.75
 40
0.8125
 40
0.8125
 40
0.875
 40
0.875
 40
0.9375
 40
0.9375
 40
1.0
 40
1.0
 40
1.0
 40
1.0
 10
-60.32496737191101
 20
-362.1460795183192
 30
0.0
 10
-60.32496737191101
 20
-361.9575177100027
 30
0.0
 10
-60.2906013898094
 20
-361.7540831036345
 30
0.0
 10
-60.13465591741235
 20
-361.3601728624059
 30
0.0
 10
-60.01254793851002
 20
-361.1709183851214
 30
0.0
 10
-59.70012850510897
 20
-360.85849895172
 30
0.0
 10
-59.51087402782424
 20
-360.7363909728178
 30
0.0
 10
-59.11696378659575
 20
-360.5804455004208
 30
0.0
 10
-58.91352918022741
 20
-360.5460795183192
 30
0.0
 10
-58.53640556359457
 20
-360.5460795183191
 30
0.0
 10
-58.33297095722622
 20
-360.5804455004209
 30
0.0
 10
-57.9390607159978
 20
-360.7363909728179
 30
0.0
 10
-57.74980623871306
 20
-360.8584989517202
 30
0.0
 10
-57.43738680531196
 20
-361.1709183851212
 30
0.0
 10
-57.31527882640963
 20
-361.360172862406
 30
0.0
 10
-57.15933335401257
 20
-361.7540831036346
 30
0.0
 10
-57.12496737191103
 20
-361.9575177100028
 30
0.0
 10
-57.12496737191103
 20
-362.3346413266355
 30
0.0
 10
-57.15933335401257
 20
-362.5380759330041
 30
0.0
 10
-57.31527882640963
 20
-362.9319861742324
 30
0.0
 10
-57.43738680531202
 20
-363.1212406515173
 30
0.0
 10
-57.74980623871306
 20
-363.4336600849181
 30
0.0
 10
-57.9390607159978
 20
-363.5557680638206
 30
0.0
 10
-58.33297095722622
 20
-363.7117135362178
 30
0.0
 10
-58.53640556359463
 20
-363.7460795183191
 30
0.0
 10
-58.91352918022741
 20
-363.7460795183191
 30
0.0
 10
-59.11696378659581
 20
-363.7117135362176
 30
0.0
 10
-59.51087402782418
 20
-363.5557680638204
 30
0.0
 10
-59.70012850510903
 20
-363.4336600849185
 30
0.0
 10
-60.01254793850996
 20
-363.1212406515173
 30
0.0
 10
-60.1346559174124
 20
-362.9319861742325
 30
0.0
 10
-60.2906013898094
 20
-362.5380759330039
 30
0.0
 10
-60.32496737191101
 20
-362.3346413266357
 30
0.0
 10
-60.32496737191101
 20
-362.1460795183192
 30
0.0
  0
SPLINE
  5
184
330
1F
100
AcDbEntity
  8
0
  6
Continuous
 62
   144
370
    18
100
AcDbSpline
210
0.0
220
0.0
230
1.0
 70
    24
 71
     3
 72
    14
 73
    10
 74
     0
 42
0.000000001
 43
0.00000001
 40
0.0
 40
0.0
 40
0.0
 40
0.0
 40
0.25
 40
0.25
 40
0.5
 40
0.5
 40
0.75
 40
0.75
 40
1.0
 40
1.0
 40
1.0
 40
1.0
 10
-596.0999999999999
 20
-440.6960795183193
 30
0.0
 10
-596.0999999999999
 20
-440.7872820469824
 30
0.0
 10
-596.0999999999999
 20
-440.8804238388193
 30
0.0
 10
-596.0999999999998
 20
-441.0540331282522
 30
0.0
 10
-596.0999999999999
 20
-441.1341626702838
 30
0.0
 10
-596.0999999999999
 20
-441.2651210943015
 30
0.0
 10
-596.0999999999999
 20
-441.3157187061109
 30
0.0
 10
-596.0999999999999
 20
-441.3811401005756
 30
0.0
 10
-596.0999999999999
 20
-441.3960795183191
 30
0.0
 10
-596.0999999999999
 20
-441.3960795183191
 30
0.0
  0
SPLINE
  5
185
330
1F
100
AcDbEntity
  8
0
  6
Continuous
 62
   144
370
    18
100
AcDbSpline
210
0.0
220
0.0
230
1.0
 70
    24
 71
     3
 72
    14
 73
    10
 74
     0
 42
0.000000001
 43
0.00000001
 40
0.0
 40
0.0
 40
0.0
 40
0.0
 40
0.2499999999999999
 40
0.2499999999999999
 40
0.4999999999999999
 40
0.4999999999999999
 40
0.7499999999999999
 40
0.7499999999999999
 40
1.0
 40
1.0
 40
1.0
 40
1.0
 10
596.0999999999999
 20
-441.3960795183191
 30
0.0
 10
596.1000000000001
 20
-441.3960795183193
 30
0.0
 10
596.1
 20
-441.3811401005757
 30
0.0
 10
596.1000000000003
 20
-441.3157187061129
 30
0.0
 10
596.1000000000001
 20
-441.2651210943049
 30
0.0
 10
596.1000000000001
 20
-441.1341626702907
 30
0.0
 10
596.1000000000001
 20
-441.054033128261
 30
0.0
 10
596.1
 20
-440.8804238388317
 30
0.0
 10
596.1000000000003
 20
-440.7872820469971
 30
0.0
 10
596.0999999999999
 20
-440.6960795183352
 30
0.0
  0
SPLINE
  5
186
330
1F
100
AcDbEntity
  8
0
  6
Continuous
 62
   144
370
    18
100
AcDbSpline
210
0.0
220
0.0
230
1.0
 70
     8
 71
     3
 72
    10
 73
     6
 74
     0
 42
0.000000001
 43
0.00000001
 40
0.0
 40
0.0
 40
0.0
 40
0.0
 40
0.335193855238912
 40
0.6677411770752183
 40
1.0
 40
1.0
 40
1.0
 40
1.0
 10
596.1000000000006
 20
-440.6960795183192
 30
0.0
 10
596.1006414491221
 20
-440.6736960780843
 30
0.0
 10
596.1019192827838
 20
-440.6291059267558
 30
0.0
 10
596.1116650058041
 20
-440.5617485525514
 30
0.0
 10
596.1233430957072
 20
-440.5179628626586
 30
0.0
 10
596.12917960675
 20
-440.4960795183192
 30
0.0
  0
SPLINE
  5
187
330
1F
100
AcDbEntity
  8
0
  6
Continuous
 62
   144
370
    18
100
AcDbSpline
210
0.0
220
0.0
230
1.0
 70
     8
 71
     3
 72
    10
 73
     6
 74
     0
 42
0.000000001
 43
0.00000001
 40
0.0
 40
0.0
 40
0.0
 40
0.0
 40
0.3322588229267209
 40
0.6648061447624414
 40
0.9999999999999999
 40
0.9999999999999999
 40
0.9999999999999999
 40
0.9999999999999999
 10
-596.1291796067501
 20
-440.4960795183193
 30
0.0
 10
-596.1233430957072
 20
-440.5179628626588
 30
0.0
 10
-596.111665005804
 20
-440.5617485525516
 30
0.0
 10
-596.1019192827831
 20
-440.629105926756
 30
0.0
 10
-596.1006414491213
 20
-440.6736960780844
 30
0.0
 10
-596.0999999999998
 20
-440.6960795183193
 30
0.0
  0
SPLINE
  5
189
330
1F
100
AcDbEntity
  8
0
  6
Continuous
 62
   144
370
    18
100
AcDbSpline
210
0.0
220
0.0
230
1.0
 70
     8
 71
     3
 72
    10
 73
     6
 74
     0
 42
0.000000001
 43
0.00000001
 40
0.0
 40
0.0
 40
0.0
 40
0.0
 40
0.3351938552358219
 40
0.667741177071682
 40
1.0
 40
1.0
 40
1.0
 40
1.0
 10
-596.0999999999998
 20
-147.0960795183192
 30
0.0
 10
-596.1006414491213
 20
-147.118462958554
 30
0.0
 10
-596.1019192827831
 20
-147.1630531098822
 30
0.0
 10
-596.1116650058037
 20
-147.2304104840865
 30
0.0
 10
-596.123343095707
 20
-147.2741961739796
 30
0.0
 10
-596.1291796067501
 20
-147.2960795183192
 30
0.0
  0
SPLINE
  5
18A
330
1F
100
AcDbEntity
  8
0
  6
Continuous
 62
   144
370
    18
100
AcDbSpline
210
0.0
220
0.0
230
1.0
 70
     8
 71
     3
 72
    10
 73
     6
 74
     0
 42
0.000000001
 43
0.00000001
 40
0.0
 40
0.0
 40
0.0
 40
0.0
 40
0.3322588229291955
 40
0.6648061447649616
 40
1.0
 40
1.0
 40
1.0
 40
1.0
 10
596.12917960675
 20
-147.2960795183192
 30
0.0
 10
596.123343095707
 20
-147.2741961739795
 30
0.0
 10
596.1116650058036
 20
-147.2304104840863
 30
0.0
 10
596.1019192827831
 20
-147.1630531098822
 30
0.0
 10
596.1006414491213
 20
-147.1184629585539
 30
0.0
 10
596.0999999999999
 20
-147.0960795183192
 30
0.0
  0
SPLINE
  5
18B
330
1F
100
AcDbEntity
  8
0
  6
Continuous
 62
   144
370
    18
100
AcDbSpline
210
0.0
220
0.0
230
1.0
 70
    24
 71
     3
 72
    14
 73
    10
 74
     0
 42
0.000000001
 43
0.00000001
 40
0.0
 40
0.0
 40
0.0
 40
0.0
 40
0.25
 40
0.25
 40
0.5
 40
0.5
 40
0.75
 40
0.75
 40
1.0
 40
1.0
 40
1.0
 40
1.0
 10
596.0999999999999
 20
-147.0960795183032
 30
0.0
 10
596.1
 20
-147.0048769896414
 30
0.0
 10
596.1000000000003
 20
-146.9117351978065
 30
0.0
 10
596.1000000000001
 20
-146.7381259083772
 30
0.0
 10
596.1
 20
-146.6579963663476
 30
0.0
 10
596.1000000000001
 20
-146.5270379423334
 30
0.0
 10
596.1
 20
-146.4764403305254
 30
0.0
 10
596.1000000000001
 20
-146.4110189360624
 30
0.0
 10
596.1
 20
-146.3960795183192
 30
0.0
 10
596.0999999999999
 20
-146.3960795183192
 30
0.0
  0
SPLINE
  5
18C
330
1F
100
AcDbEntity
  8
0
  6
Continuous
 62
   144
370
    18
100
AcDbSpline
210
0.0
220
0.0
230
1.0
 70
    24
 71
     3
 72
    14
 73
    10
 74
     0
 42
0.000000001
 43
0.00000001
 40
0.0
 40
0.0
 40
0.0
 40
0.0
 40
0.25
 40
0.25
 40
0.5
 40
0.5
 40
0.75
 40
0.75
 40
1.0
 40
1.0
 40
1.0
 40
1.0
 10
-596.0999999999999
 20
-146.3960795183192
 30
0.0
 10
-596.0999999999999
 20
-146.3960795183192
 30
0.0
 10
-596.0999999999999
 20
-146.4110189360628
 30
0.0
 10
-596.0999999999998
 20
-146.4764403305275
 30
0.0
 10
-596.0999999999998
 20
-146.5270379423368
 30
0.0
 10
-596.0999999999998
 20
-146.6579963663546
 30
0.0
 10
-596.0999999999999
 20
-146.7381259083862
 30
0.0
 10
-596.0999999999999
 20
-146.9117351978193
 30
0.0
 10
-596.0999999999999
 20
-147.0048769896559
 30
0.0
 10
-596.0999999999999
 20
-147.0960795183192
 30
0.0
  0
SPLINE
  5
18D
330
1F
100
AcDbEntity
  8
0
  6
Continuous
 62
   144
370
    18
100
AcDbSpline
210
0.0
220
0.0
230
1.0
 70
     8
 71
     3
 72
    10
 73
     6
 74
     0
 42
0.000000001
 43
0.00000001
 40
0.0
 40
0.0
 40
0.0
 40
0.0
 40
0.5
 40
0.5
 40
1.0
 40
1.0
 40
1.0
 40
1.0
 10
-203.590467657477
 20
-169.1476752446682
 30
0.0
 10
-203.478509083789
 20
-169.1476752446681
 30
0.0
 10
-203.3623636553485
 20
-169.1377223848542
 30
0.0
 10
-203.1271120604393
 20
-169.0941885044652
 30
0.0
 10
-203.0080298121741
 20
-169.0605693288047
 30
0.0
 10
-202.8910877093094
 20
-169.0142730166868
 30
0.0
  0
SPLINE
  5
18E
330
1F
100
AcDbEntity
  8
0
  6
Continuous
 62
   144
370
    18
100
AcDbSpline
210
0.0
220
0.0
230
1.0
 70
     8
 71
     3
 72
    10
 73
     6
 74
     0
 42
0.000000001
 43
0.00000001
 40
0.0
 40
0.0
 40
0.0
 40
0.0
 40
0.5
 40
0.5
 40
1.0
 40
1.0
 40
1.0
 40
1.0
 10
-228.590467657477
 20
-179.3976752446682
 30
0.0
 10
-228.4637776925144
 20
-179.3976752446682
 30
0.0
 10
-228.3323499708579
 20
-179.3864127980366
 30
0.0
 10
-228.0661442187238
 20
-179.3371507754911
 30
0.0
 10
-227.9313932535816
 20
-179.2991080240858
 30
0.0
 10
-227.799064031919
 20
-179.2467200919524
 30
0.0
  0
SPLINE
  5
18F
330
1F
100
AcDbEntity
  8
0
  6
Continuous
 62
   144
370
    18
100
AcDbSpline
210
0.0
220
0.0
230
1.0
 70
     8
 71
     3
 72
    10
 73
     6
 74
     0
 42
0.000000001
 43
0.00000001
 40
0.0
 40
0.0
 40
0.0
 40
0.0
 40
0.5
 40
0.5
 40
1.0
 40
1.0
 40
1.0
 40
1.0
 10
-203.590467657477
 20
-189.1476752446682
 30
0.0
 10
-203.478509083789
 20
-189.1476752446681
 30
0.0
 10
-203.3623636553485
 20
-189.1377223848542
 30
0.0
 10
-203.1271120604393
 20
-189.0941885044652
 30
0.0
 10
-203.0080298121741
 20
-189.0605693288047
 30
0.0
 10
-202.8910877093094
 20
-189.0142730166868
 30
0.0
  0
SPLINE
  5
190
330
1F
100
AcDbEntity
  8
0
  6
Continuous
 62
   144
370
    18
100
AcDbSpline
210
0.0
220
0.0
230
1.0
 70
     8
 71
     3
 72
    10
 73
     6
 74
     0
 42
0.000000001
 43
0.00000001
 40
0.0
 40
0.0
 40
0.0
 40
0.0
 40
0.5
 40
0.5
 40
1.0
 40
1.0
 40
1.0
 40
1.0
 10
530.3249673719109
 20
-225.6460795183192
 30
0.0
 10
530.324967371911
 20
-225.5517986141609
 30
0.0
 10
530.316586016278
 20
-225.4539919375794
 30
0.0
 10
530.2799259064769
 20
-225.2558853313402
 30
0.0
 10
530.25161502171
 20
-225.1556055433273
 30
0.0
 10
530.2126286536109
 20
-225.0571279830202
 30
0.0
  0
SPLINE
  5
191
330
1F
100
AcDbEntity
  8
0
  6
Continuous
 62
   144
370
    18
100
AcDbSpline
210
0.0
220
0.0
230
1.0
 70
     8
 71
     3
 72
    10
 73
     6
 74
     0
 42
0.000000001
 43
0.00000001
 40
0.0
 40
0.0
 40
0.0
 40
0.0
 40
0.5
 40
0.5
 40
1.0
 40
1.0
 40
1.0
 40
1.0
 10
530.3249673719109
 20
-362.1460795183193
 30
0.0
 10
530.3249673719109
 20
-362.0517986141611
 30
0.0
 10
530.3165860162783
 20
-361.9539919375795
 30
0.0
 10
530.279925906477
 20
-361.7558853313403
 30
0.0
 10
530.25161502171
 20
-361.6556055433273
 30
0.0
 10
530.2126286536108
 20
-361.5571279830202
 30
0.0
  0
SPLINE
  5
192
330
1F
100
AcDbEntity
  8
0
  6
Continuous
 62
   144
370
    18
100
AcDbSpline
210
0.0
220
0.0
230
1.0
 70
     8
 71
     3
 72
    10
 73
     6
 74
     0
 42
0.000000001
 43
0.00000001
 40
0.0
 40
0.0
 40
0.0
 40
0.0
 40
0.5
 40
0.5
 40
1.0
 40
1.0
 40
1.0
 40
1.0
 10
295.324967371911
 20
-362.1460795183193
 30
0.0
 10
295.324967371911
 20
-362.051798614161
 30
0.0
 10
295.3165860162782
 20
-361.9539919375794
 30
0.0
 10
295.2799259064769
 20
-361.7558853313401
 30
0.0
 10
295.2516150217102
 20
-361.6556055433276
 30
0.0
 10
295.2126286536109
 20
-361.5571279830203
 30
0.0
  0
LWPOLYLINE
  5
193
330
1F
100
AcDbEntity
  8
0
  6
Continuous
 62
   144
370
    18
100
AcDbPolyline
 90
        2
 70
   128
 43
0.0
 10
-596.1
 20
-441.3960795183
 10
-596.1
 20
-441.3960795183
  0
LWPOLYLINE
  5
196
330
1F
100
AcDbEntity
  8
0
  6
Continuous
 62
   144
370
    18
100
AcDbPolyline
 90
        2
 70
   128
 43
0.0
 10
596.1
 20
-441.3960795183
 10
596.1
 20
-441.3960795183
  0
LWPOLYLINE
  5
197
330
1F
100
AcDbEntity
  8
0
  6
Continuous
 62
   144
370
    18
100
AcDbPolyline
 90
        2
 70
   128
 43
0.0
 10
596.1
 20
-440.9460795183
 10
596.1
 20
-440.9460795183
  0
LWPOLYLINE
  5
19A
330
1F
100
AcDbEntity
  8
0
  6
Continuous
 62
   144
370
    18
100
AcDbPolyline
 90
        2
 70
   128
 43
0.0
 10
-596.1
 20
-440.9460795183
 10
-596.1
 20
-440.9460795183
  0
LWPOLYLINE
  5
19C
330
1F
100
AcDbEntity
  8
0
  6
Continuous
 62
   144
370
    18
100
AcDbPolyline
 90
        2
 70
   128
 43
0.0
 10
597.05
 20
-147.7960795183
 10
597.05
 20
-147.7960795183
  0
LWPOLYLINE
  5
19E
330
1F
100
AcDbEntity
  8
0
  6
Continuous
 62
   144
370
    18
100
AcDbPolyline
 90
        2
 70
   128
 43
0.0
 10
597.05
 20
-146.8960795183
 10
597.05
 20
-146.8960795183
  0
LWPOLYLINE
  5
19F
330
1F
100
AcDbEntity
  8
0
  6
Continuous
 62
   144
370
    18
100
AcDbPolyline
 90
        2
 70
   128
 43
0.0
 10
597.05
 20
-439.9960795183
 10
597.05
 20
-439.9960795183
  0
LWPOLYLINE
  5
1A1
330
1F
100
AcDbEntity
  8
0
  6
Continuous
 62
   144
370
    18
100
AcDbPolyline
 90
        2
 70
   128
 43
0.0
 10
597.5
 20
-439.9960795183
 10
597.5
 20
-439.9960795183
  0
LWPOLYLINE
  5
1A2
330
1F
100
AcDbEntity
  8
0
  6
Continuous
 62
   144
370
    18
100
AcDbPolyline
 90
        2
 70
   128
 43
0.0
 10
597.5
 20
-146.8960795183
 10
597.5
 20
-146.8960795183
  0
LWPOLYLINE
  5
1A4
330
1F
100
AcDbEntity
  8
0
  6
Continuous
 62
   144
370
    18
100
AcDbPolyline
 90
        2
 70
   128
 43
0.0
 10
597.5
 20
-147.7960795183
 10
597.5
 20
-147.7960795183
  0
LWPOLYLINE
  5
1A5
330
1F
100
AcDbEntity
  8
0
  6
Continuous
 62
   144
370
    18
100
AcDbPolyline
 90
        2
 70
   128
 43
0.0
 10
-596.1
 20
-146.8460795183
 10
-596.1
 20
-146.8460795183
  0
LWPOLYLINE
  5
1A7
330
1F
100
AcDbEntity
  8
0
  6
Continuous
 62
   144
370
    18
100
AcDbPolyline
 90
        2
 70
   128
 43
0.0
 10
597.0
 20
-146.8460795183
 10
597.0
 20
-146.8460795183
  0
LWPOLYLINE
  5
1A9
330
1F
100
AcDbEntity
  8
0
  6
Continuous
 62
   144
370
    18
100
AcDbPolyline
 90
        2
 70
   128
 43
0.0
 10
596.1
 20
-146.8460795183
 10
596.1
 20
-146.8460795183
  0
LWPOLYLINE
  5
1AA
330
1F
100
AcDbEntity
  8
0
  6
Continuous
 62
   144
370
    18
100
AcDbPolyline
 90
        2
 70
   128
 43
0.0
 10
596.1
 20
-146.3960795183
 10
596.1
 20
-146.3960795183
  0
LWPOLYLINE
  5
1AC
330
1F
100
AcDbEntity
  8
0
  6
Continuous
 62
   144
370
    18
100
AcDbPolyline
 90
        2
 70
   128
 43
0.0
 10
597.0
 20
-146.3960795183
 10
597.0
 20
-146.3960795183
  0
LWPOLYLINE
  5
1AE
330
1F
100
AcDbEntity
  8
0
  6
Continuous
 62
   144
370
    18
100
AcDbPolyline
 90
        2
 70
   128
 43
0.0
 10
-596.1
 20
-146.3960795183
 10
-596.1
 20
-146.3960795183
  0
SPLINE
  5
1B1
330
1F
100
AcDbEntity
  8
0
  6
Continuous
 62
   144
370
    18
100
AcDbSpline
210
0.0
220
0.0
230
1.0
 70
    24
 71
     3
 72
    14
 73
    10
 74
     0
 42
0.000000001
 43
0.00000001
 40
0.0
 40
0.0
 40
0.0
 40
0.0
 40
0.25
 40
0.25
 40
0.5
 40
0.5
 40
0.75
 40
0.75
 40
1.0
 40
1.0
 40
1.0
 40
1.0
 10
597.0
 20
-440.9460795183192
 30
0.0
 10
597.0
 20
-440.9460795183191
 30
0.0
 10
597.0000000000002
 20
-440.9364140858531
 30
0.0
 10
597.0000000000001
 20
-440.8925544217412
 30
0.0
 10
597.0000000000001
 20
-440.8582115526751
 30
0.0
 10
597.0000000000001
 20
-440.770343587031
 30
0.0
 10
597.0000000000001
 20
-440.7171157652947
 30
0.0
 10
597.0000000000001
 20
-440.6063285099492
 30
0.0
 10
597.0
 20
-440.5491125269082
 30
0.0
 10
597.0
 20
-440.4960795183192
 30
0.0
  0
SPLINE
  5
1B5
330
1F
100
AcDbEntity
  8
0
  6
Continuous
 62
   144
370
    18
100
AcDbSpline
210
0.0
220
0.0
230
1.0
 70
    24
 71
     3
 72
    11
 73
     7
 74
     0
 42
0.000000001
 43
0.00000001
 40
0.0
 40
0.0
 40
0.0
 40
0.0
 40
0.3093488228792365
 40
0.643772708701577
 40
0.9039548160602281
 40
0.9999999999999999
 40
0.9999999999999999
 40
0.9999999999999999
 40
0.9999999999999999
 10
-596.4085786437631
 20
-441.3960795183191
 30
0.0
 10
-596.4085786437631
 20
-441.380297645859
 30
0.0
 10
-596.408578643763
 20
-441.3474546607541
 30
0.0
 10
-596.4085786437631
 20
-441.1027112994696
 30
0.0
 10
-596.408578643763
 20
-440.8555703006317
 30
0.0
 10
-596.4085786437631
 20
-440.7102739788241
 30
0.0
 10
-596.4085786437631
 20
-440.6710995183192
 30
0.0
  0
SPLINE
  5
1B6
330
1F
100
AcDbEntity
  8
0
  6
Continuous
 62
   144
370
    18
100
AcDbSpline
210
0.0
220
0.0
230
1.0
 70
    24
 71
     3
 72
    11
 73
     7
 74
     0
 42
0.000000001
 43
0.00000001
 40
0.0
 40
0.0
 40
0.0
 40
0.0
 40
0.3093488228792431
 40
0.6437727087015624
 40
0.903954816060249
 40
1.0
 40
1.0
 40
1.0
 40
1.0
 10
-596.4085786437631
 20
-146.3960795183192
 30
0.0
 10
-596.4085786437631
 20
-146.4118613907794
 30
0.0
 10
-596.4085786437633
 20
-146.4447043758844
 30
0.0
 10
-596.4085786437629
 20
-146.6894477371686
 30
0.0
 10
-596.4085786437629
 20
-146.9365887360068
 30
0.0
 10
-596.4085786437631
 20
-147.0818850578142
 30
0.0
 10
-596.4085786437631
 20
-147.1210595183192
 30
0.0
  0
SPLINE
  5
1B7
330
1F
100
AcDbEntity
  8
0
  6
Continuous
 62
   144
370
    18
100
AcDbSpline
210
0.0
220
0.0
230
1.0
 70
    24
 71
     3
 72
    14
 73
    10
 74
     0
 42
0.000000001
 43
0.00000001
 40
0.0
 40
0.0
 40
0.0
 40
0.0
 40
0.25
 40
0.25
 40
0.5
 40
0.5
 40
0.75
 40
0.75
 40
1.0
 40
1.0
 40
1.0
 40
1.0
 10
597.0
 20
-147.2960795183192
 30
0.0
 10
597.0
 20
-147.1900135011412
 30
0.0
 10
596.9999999999999
 20
-147.075581535059
 30
0.0
 10
596.9999999999999
 20
-146.854007024368
 30
0.0
 10
597.0
 20
-146.7475513808954
 30
0.0
 10
597.0000000000001
 20
-146.5718154496073
 30
0.0
 10
597.0
 20
-146.5031297114747
 30
0.0
 10
597.0000000000001
 20
-146.4154103832514
 30
0.0
 10
597.0
 20
-146.3960795183192
 30
0.0
 10
597.0
 20
-146.3960795183192
 30
0.0
  0
LWPOLYLINE
  5
1BC
330
1F
100
AcDbEntity
  8
0
  6
Continuous
 62
   144
370
    18
100
AcDbPolyline
 90
        2
 70
   128
 43
0.0
 10
-597.05
 20
-439.9960795183
 10
-597.05
 20
-439.9960795183
  0
LWPOLYLINE
  5
1BE
330
1F
100
AcDbEntity
  8
0
  6
Continuous
 62
   144
370
    18
100
AcDbPolyline
 90
        2
 70
   128
 43
0.0
 10
-597.05
 20
-440.3046581621
 10
-597.05
 20
-440.3046581621
  0
LWPOLYLINE
  5
1BF
330
1F
100
AcDbEntity
  8
0
  6
Continuous
 62
   144
370
    18
100
AcDbPolyline
 90
        2
 70
   128
 43
0.0
 10
-597.05
 20
-147.4875008746
 10
-597.05
 20
-147.4875008746
  0
LWPOLYLINE
  5
1C1
330
1F
100
AcDbEntity
  8
0
  6
Continuous
 62
   144
370
    18
100
AcDbPolyline
 90
        2
 70
   128
 43
0.0
 10
-597.05
 20
-147.7960795183
 10
-597.05
 20
-147.7960795183
  0
SPLINE
  5
1C2
330
1F
100
AcDbEntity
  8
0
  6
Continuous
 62
   144
370
    18
100
AcDbSpline
210
0.0
220
0.0
230
1.0
 70
     8
 71
     3
 72
    14
 73
    10
 74
     0
 42
0.000000001
 43
0.00000001
 40
0.0
 40
0.0
 40
0.0
 40
0.0
 40
0.25
 40
0.25
 40
0.5
 40
0.5
 40
0.75
 40
0.75
 40
1.0
 40
1.0
 40
1.0
 40
1.0
 10
-597.05
 20
-439.9960795183192
 30
0.0
 10
-597.0500000000001
 20
-440.0491125269082
 30
0.0
 10
-597.0403345675342
 20
-440.1063285099493
 30
0.0
 10
-596.9964749034223
 20
-440.2171157652946
 30
0.0
 10
-596.9621320343559
 20
-440.2703435870312
 30
0.0
 10
-596.8742640687118
 20
-440.3582115526752
 30
0.0
 10
-596.8210362469754
 20
-440.3925544217416
 30
0.0
 10
-596.7102489916301
 20
-440.4364140858532
 30
0.0
 10
-596.653033008589
 20
-440.4460795183193
 30
0.0
 10
-596.6
 20
-440.4460795183192
 30
0.0
  0
SPLINE
  5
1C4
330
1F
100
AcDbEntity
  8
0
  6
Continuous
 62
   144
370
    18
100
AcDbSpline
210
0.0
220
0.0
230
1.0
 70
     8
 71
     3
 72
    14
 73
    10
 74
     0
 42
0.000000001
 43
0.00000001
 40
0.0
 40
0.0
 40
0.0
 40
0.0
 40
0.25
 40
0.25
 40
0.5
 40
0.5
 40
0.75
 40
0.75
 40
1.0
 40
1.0
 40
1.0
 40
1.0
 10
-597.05
 20
-147.7960795183192
 30
0.0
 10
-597.0500000000001
 20
-147.7430465097302
 30
0.0
 10
-597.0403345675342
 20
-147.6858305266891
 30
0.0
 10
-596.9964749034223
 20
-147.5750432713436
 30
0.0
 10
-596.9621320343559
 20
-147.5218154496073
 30
0.0
 10
-596.8742640687118
 20
-147.4339474839633
 30
0.0
 10
-596.8210362469754
 20
-147.3996046148969
 30
0.0
 10
-596.7102489916301
 20
-147.3557449507852
 30
0.0
 10
-596.653033008589
 20
-147.3460795183192
 30
0.0
 10
-596.6
 20
-147.3460795183192
 30
0.0
  0
LWPOLYLINE
  5
1CA
330
1F
100
AcDbEntity
  8
0
  6
Continuous
 62
   144
370
    18
100
AcDbPolyline
 90
        2
 70
   128
 43
0.0
 10
-597.5
 20
-439.9960795183
 10
-597.5
 20
-439.9960795183
  0
LWPOLYLINE
  5
1CC
330
1F
100
AcDbEntity
  8
0
  6
Continuous
 62
   144
370
    18
100
AcDbPolyline
 90
        2
 70
   128
 43
0.0
 10
-597.5
 20
-440.3046581621
 10
-597.5
 20
-440.3046581621
  0
LWPOLYLINE
  5
1CD
330
1F
100
AcDbEntity
  8
0
  6
Continuous
 62
   144
370
    18
100
AcDbPolyline
 90
        2
 70
   128
 43
0.0
 10
-597.5
 20
-147.4875008746
 10
-597.5
 20
-147.4875008746
  0
LWPOLYLINE
  5
1CF
330
1F
100
AcDbEntity
  8
0
  6
Continuous
 62
   144
370
    18
100
AcDbPolyline
 90
        2
 70
   128
 43
0.0
 10
-597.5
 20
-147.7960795183
 10
-597.5
 20
-147.7960795183
  0
SPLINE
  5
1D1
330
1F
100
AcDbEntity
  8
0
  6
Continuous
 62
   144
370
    18
100
AcDbSpline
210
0.0
220
0.0
230
1.0
 70
     8
 71
     3
 72
    14
 73
    10
 74
     0
 42
0.000000001
 43
0.00000001
 40
0.0
 40
0.0
 40
0.0
 40
0.0
 40
0.25
 40
0.25
 40
0.5
 40
0.5
 40
0.75
 40
0.75
 40
1.0
 40
1.0
 40
1.0
 40
1.0
 10
-596.6
 20
-440.8960795183192
 30
0.0
 10
-596.706066017178
 20
-440.8960795183191
 30
0.0
 10
-596.8204979832605
 20
-440.8767486533873
 30
0.0
 10
-597.0420724939512
 20
-440.7890293251638
 30
0.0
 10
-597.1485281374238
 20
-440.7203435870313
 30
0.0
 10
-597.324264068712
 20
-440.5446076557432
 30
0.0
 10
-597.3929498068444
 20
-440.4381520122703
 30
0.0
 10
-597.480669135068
 20
-440.2165775015792
 30
0.0
 10
-597.5000000000001
 20
-440.1021455354972
 30
0.0
 10
-597.5
 20
-439.9960795183192
 30
0.0
  0
LWPOLYLINE
  5
1D2
330
1F
100
AcDbEntity
  8
0
  6
Continuous
 62
   144
370
    18
100
AcDbPolyline
 90
        2
 70
   128
 43
0.0
 10
-596.6
 20
-440.8960795183
 10
-596.6
 20
-440.8960795183
  0
SPLINE
  5
1D3
330
1F
100
AcDbEntity
  8
0
  6
Continuous
 62
   144
370
    18
100
AcDbSpline
210
0.0
220
0.0
230
1.0
 70
     8
 71
     3
 72
    14
 73
    10
 74
     0
 42
0.000000001
 43
0.00000001
 40
0.0
 40
0.0
 40
0.0
 40
0.0
 40
0.25
 40
0.25
 40
0.5
 40
0.5
 40
0.75
 40
0.75
 40
1.0
 40
1.0
 40
1.0
 40
1.0
 10
-597.5
 20
-147.7960795183192
 30
0.0
 10
-597.5000000000001
 20
-147.6900135011412
 30
0.0
 10
-597.4806691350681
 20
-147.575581535059
 30
0.0
 10
-597.3929498068444
 20
-147.354007024368
 30
0.0
 10
-597.3242640687121
 20
-147.2475513808953
 30
0.0
 10
-597.148528137424
 20
-147.0718154496073
 30
0.0
 10
-597.0420724939513
 20
-147.0031297114747
 30
0.0
 10
-596.8204979832606
 20
-146.9154103832514
 30
0.0
 10
-596.7060660171782
 20
-146.8960795183192
 30
0.0
 10
-596.6
 20
-146.8960795183192
 30
0.0
  0
LWPOLYLINE
  5
1D4
330
1F
100
AcDbEntity
  8
0
  6
Continuous
 62
   144
370
    18
100
AcDbPolyline
 90
        2
 70
   128
 43
0.0
 10
-596.6
 20
-146.8960795183
 10
-596.6
 20
-146.8960795183
  0
SPLINE
  5
1D5
330
1F
100
AcDbEntity
  8
0
  6
Continuous
 62
   144
370
    18
100
AcDbSpline
210
0.0
220
0.0
230
1.0
 70
     8
 71
     3
 72
    18
 73
    14
 74
     0
 42
0.000000001
 43
0.00000001
 40
0.0
 40
0.0
 40
0.0
 40
0.0
 40
0.0662394548426721
 40
0.1350269532510731
 40
0.2060831930969016
 40
0.2790534054826463
 40
0.3535130598685839
 40
0.4289793481265642
 40
0.5049280507622161
 40
0.6276336191716164
 40
0.7521375431537852
 40
0.876741145451884
 40
1.0
 40
1.0
 40
1.0
 40
1.0
 10
596.150130512354
 20
-146.8460795183142
 30
0.0
 10
596.1815767118406
 20
-146.8470346414853
 30
0.0
 10
596.2456787567334
 20
-146.8489816287013
 30
0.0
 10
596.3424235157854
 20
-146.8651097894943
 30
0.0
 10
596.4399574779034
 20
-146.8919265831188
 30
0.0
 10
596.5363029613228
 20
-146.9308879776572
 30
0.0
 10
596.629309228766
 20
-146.981747939794
 30
0.0
 10
596.7168106927052
 20
-147.0441141512397
 30
0.0
 10
596.8131444597213
 20
-147.1318901143656
 30
0.0
 10
596.9097113729507
 20
-147.2525454211926
 30
0.0
 10
596.9905350095803
 20
-147.4092079999458
 30
0.0
 10
597.0411185765657
 20
-147.5772552266964
 30
0.0
 10
597.0471374185918
 20
-147.6900086644908
 30
0.0
 10
597.0501305123552
 20
-147.7460795183252
 30
0.0
  0
SPLINE
  5
1D6
330
1F
100
AcDbEntity
  8
0
  6
Continuous
 62
   144
370
    18
100
AcDbSpline
210
0.0
220
0.0
230
1.0
 70
     8
 71
     3
 72
    18
 73
    14
 74
     0
 42
0.000000001
 43
0.00000001
 40
0.0
 40
0.0
 40
0.0
 40
0.0
 40
0.0614812603688868
 40
0.1260521731190029
 40
0.1938360385081457
 40
0.2648425646541805
 40
0.3389538294748684
 40
0.4159158084230967
 40
0.4953381535831741
 40
0.6278970732696032
 40
0.7577453528485968
 40
0.8824073808540772
 40
0.9999999999999999
 40
0.9999999999999999
 40
0.9999999999999999
 40
0.9999999999999999
 10
597.050130512355
 20
-440.0460795183132
 30
0.0
 10
597.0493886891587
 20
-440.0739127931415
 30
0.0
 10
597.0478677635076
 20
-440.1309780640236
 30
0.0
 10
597.0347381062727
 20
-440.2196329025689
 30
0.0
 10
597.0119297655858
 20
-440.3116278007759
 30
0.0
 10
596.9773499051458
 20
-440.4055224195782
 30
0.0
 10
596.9301946068792
 20
-440.4992178111535
 30
0.0
 10
596.869818217409
 20
-440.5902999971073
 30
0.0
 10
596.7804892765313
 20
-440.6944681813702
 30
0.0
 10
596.654918960966
 20
-440.7991600549647
 30
0.0
 10
596.4914674413923
 20
-440.8850168139813
 30
0.0
 10
596.3209420543312
 20
-440.9368445587928
 30
0.0
 10
596.2059491289804
 20
-440.9430616738644
 30
0.0
 10
596.150130512354
 20
-440.9460795183243
 30
0.0
  0
SPLINE
  5
1D7
330
1F
100
AcDbEntity
  8
0
  6
Continuous
 62
   144
370
    18
100
AcDbSpline
210
0.0
220
0.0
230
1.0
 70
     8
 71
     3
 72
    12
 73
     8
 74
     0
 42
0.000000001
 43
0.00000001
 40
0.0
 40
0.0
 40
0.0
 40
0.0
 40
0.5000000000001568
 40
0.5000000000001568
 40
0.7500000000000784
 40
0.7500000000000784
 40
1.0
 40
1.0
 40
1.0
 40
1.0
 10
596.150130512356
 20
-440.4960795183192
 30
0.0
 10
596.2719021447701
 20
-440.4960795183193
 30
0.0
 10
596.3922888286916
 20
-440.444317573247
 30
0.0
 10
596.51785579656
 20
-440.3124658262494
 30
0.0
 10
596.5498503023455
 20
-440.2607700118483
 30
0.0
 10
596.5912430048447
 20
-440.1523276796298
 30
0.0
 10
596.6001305123551
 20
-440.0967892359122
 30
0.0
 10
596.600130512355
 20
-440.0460795183192
 30
0.0
  0
LINE
  5
1E8
330
1F
100
AcDbEntity
  8
0
  6
Continuous
 62
     7
370
    25
100
AcDbLine
 10
596.1291796067
 20
0.0
 30
0.0
 11
-596.1291796067
 21
0.0
 31
0.0
  0
LINE
  5
1E9
330
1F
100
AcDbEntity
  8
0
  6
Continuous
 62
     7
370
    25
100
AcDbLine
 10
-596.1
 20
-0.9
 30
0.0
 11
596.1
 21
-0.9
 31
0.0
  0
LINE
  5
1EA
330
1F
100
AcDbEntity
  8
0
  6
Continuous
 62
     7
370
    25
100
AcDbLine
 10
597.0
 20
-44.1
 30
0.0
 11
-596.4085786438
 21
-44.1
 31
0.0
  0
LINE
  5
1EB
330
1F
100
AcDbEntity
  8
0
  6
Continuous
 62
   144
370
    18
100
AcDbLine
 10
-596.1
 20
-0.9
 30
0.0
 11
-596.1
 21
-0.95
 31
0.0
  0
LINE
  5
1EC
330
1F
100
AcDbEntity
  8
0
  6
Continuous
 62
   144
370
    18
100
AcDbLine
 10
-596.1
 20
-0.95
 30
0.0
 11
-597.0
 21
-0.95
 31
0.0
  0
LINE
  5
1ED
330
1F
100
AcDbEntity
  8
0
  6
Continuous
 62
   144
370
    18
100
AcDbLine
 10
-597.0
 20
-0.95
 30
0.0
 11
-597.0
 21
-43.7334697342
 31
0.0
  0
LINE
  5
1EE
330
1F
100
AcDbEntity
  8
0
  6
Continuous
 62
   144
370
    18
100
AcDbLine
 10
-597.0
 20
-43.7334697342
 30
0.0
 11
-596.4085786438
 21
-43.7334697342
 31
0.0
  0
LINE
  5
1EF
330
1F
100
AcDbEntity
  8
0
  6
Continuous
 62
   144
370
    18
100
AcDbLine
 10
-596.4085786438
 20
-43.7334697342
 30
0.0
 11
-596.4085786438
 21
-44.1
 31
0.0
  0
LINE
  5
1F0
330
1F
100
AcDbEntity
  8
0
  6
Continuous
 62
   144
370
    18
100
AcDbLine
 10
597.0
 20
-44.1
 30
0.0
 11
597.0
 21
-0.95
 31
0.0
  0
LINE
  5
1F1
330
1F
100
AcDbEntity
  8
0
  6
Continuous
 62
   144
370
    18
100
AcDbLine
 10
597.0
 20
-0.95
 30
0.0
 11
596.1
 21
-0.95
 31
0.0
  0
LINE
  5
1F2
330
1F
100
AcDbEntity
  8
0
  6
Continuous
 62
   144
370
    18
100
AcDbLine
 10
596.1
 20
-0.95
 30
0.0
 11
596.1
 21
-0.9
 31
0.0
  0
LINE
  5
1F3
330
1F
100
AcDbEntity
  8
0
  6
Continuous
 62
     7
370
    25
100
AcDbLine
 10
-596.4085786438
 20
-45.0
 30
0.0
 11
597.0
 21
-45.0
 31
0.0
  0
LINE
  5
1F4
330
1F
100
AcDbEntity
  8
0
  6
Continuous
 62
   144
370
    18
100
AcDbLine
 10
597.5
 20
-16.0
 30
0.0
 11
597.05
 21
-16.0
 31
0.0
  0
LINE
  5
1F5
330
1F
100
AcDbEntity
  8
0
  6
Continuous
 62
   144
370
    18
100
AcDbLine
 10
597.5
 20
-0.9
 30
0.0
 11
597.5
 21
-16.0
 31
0.0
  0
LINE
  5
1F6
330
1F
100
AcDbEntity
  8
0
  6
Continuous
 62
   144
370
    18
100
AcDbLine
 10
-597.05
 20
-43.65
 30
0.0
 11
-597.05
 21
-0.9
 31
0.0
  0
LINE
  5
1F7
330
1F
100
AcDbEntity
  8
0
  6
Continuous
 62
   144
370
    18
100
AcDbLine
 10
-596.55
 20
-44.55
 30
0.0
 11
-596.6
 21
-44.55
 31
0.0
  0
LINE
  5
1F8
330
1F
100
AcDbEntity
  8
0
  6
Continuous
 62
   144
370
    18
100
AcDbLine
 10
-597.5
 20
-0.9
 30
0.0
 11
-597.5
 21
-43.65
 31
0.0
  0
LINE
  5
1F9
330
1F
100
AcDbEntity
  8
0
  6
Continuous
 62
   144
370
    18
100
AcDbLine
 10
597.0501305124
 20
-44.1066584582
 30
0.0
 11
597.0501305124
 21
-16.0727143674
 31
0.0
  0
LINE
  5
1FA
330
1F
100
AcDbEntity
  8
0
  6
Continuous
 62
     7
370
    25
100
AcDbLine
 10
594.314901786
 20
-45.4496870132
 30
0.0
 11
584.6001305124
 21
-45.4496870132
 31
0.0
  0
LINE
  5
1FB
330
1F
100
AcDbEntity
  8
0
  6
Continuous
 62
   144
370
    18
100
AcDbLine
 10
596.1501305124
 20
-45.4496870132
 30
0.0
 11
594.9838665176
 21
-45.4496870132
 31
0.0
  0
LINE
  5
1FC
330
1F
100
AcDbEntity
  8
0
  6
Continuous
 62
     7
370
    25
100
AcDbLine
 10
584.6001305124
 20
-45.4496870132
 30
0.0
 11
584.6001305124
 21
-44.9996870132
 31
0.0
  0
LINE
  5
1FD
330
1F
100
AcDbEntity
  8
0
  6
Continuous
 62
   144
370
    18
100
AcDbLine
 10
594.314901786
 20
-45.4496870132
 30
0.0
 11
594.314901786
 21
-44.9996870132
 31
0.0
  0
LINE
  5
1FE
330
1F
100
AcDbEntity
  8
0
  6
Continuous
 62
     7
370
    25
100
AcDbLine
 10
1020.8717429521
 20
0.0
 30
0.0
 11
728.6133837386
 21
0.0
 31
0.0
  0
LINE
  5
1FF
330
1F
100
AcDbEntity
  8
0
  6
Continuous
 62
     7
370
    25
100
AcDbLine
 10
728.6425633454
 20
-0.9
 30
0.0
 11
1020.8425633454
 21
-0.9
 31
0.0
  0
LINE
  5
200
330
1F
100
AcDbEntity
  8
0
  6
Continuous
 62
     7
370
    25
100
AcDbLine
 10
728.6425633454
 20
-42.2834697342
 30
0.0
 11
728.6425633454
 21
-0.9
 31
0.0
  0
LINE
  5
201
330
1F
100
AcDbEntity
  8
0
  6
Continuous
 62
   144
370
    18
100
AcDbLine
 10
727.7425633454
 20
-1.65
 30
0.0
 11
727.7425633454
 21
-42.2834697342
 31
0.0
  0
LINE
  5
202
330
1F
100
AcDbEntity
  8
0
  6
Continuous
 62
     7
370
    25
100
AcDbLine
 10
728.7425633454
 20
-42.7834697342
 30
0.0
 11
728.7425633454
 21
-42.2834697342
 31
0.0
  0
LINE
  5
203
330
1F
100
AcDbEntity
  8
0
  6
Continuous
 62
     7
370
    25
100
AcDbLine
 10
728.3339847016
 20
-44.55
 30
0.0
 11
1021.1511419891
 21
-44.55
 31
0.0
  0
LINE
  5
204
330
1F
100
AcDbEntity
  8
0
  6
Continuous
 62
     7
370
    25
100
AcDbLine
 10
1021.1511419891
 20
-43.65
 30
0.0
 11
728.3339847016
 21
-43.65
 31
0.0
  0
LINE
  5
205
330
1F
100
AcDbEntity
  8
0
  6
Continuous
 62
   144
370
    18
100
AcDbLine
 10
728.7425633454
 20
-42.2834697342
 30
0.0
 11
728.6425633454
 21
-42.2834697342
 31
0.0
  0
LINE
  5
206
330
1F
100
AcDbEntity
  8
0
  6
Continuous
 62
   144
370
    18
100
AcDbLine
 10
728.3339847016
 20
-42.7834697342
 30
0.0
 11
728.7425633454
 21
-42.7834697342
 31
0.0
  0
LINE
  5
207
330
1F
100
AcDbEntity
  8
0
  6
Continuous
 62
   144
370
    18
100
AcDbLine
 10
728.3339847016
 20
-43.65
 30
0.0
 11
728.3339847016
 21
-42.7834697342
 31
0.0
  0
LINE
  5
208
330
1F
100
AcDbEntity
  8
0
  6
Continuous
 62
   144
370
    18
100
AcDbLine
 10
1021.1511419891
 20
-43.65
 30
0.0
 11
1021.1511419891
 21
-42.7834697342
 31
0.0
  0
LINE
  5
209
330
1F
100
AcDbEntity
  8
0
  6
Continuous
 62
   144
370
    18
100
AcDbLine
 10
1021.1511419891
 20
-42.7834697342
 30
0.0
 11
1020.7425633454
 21
-42.7834697342
 31
0.0
  0
LINE
  5
20A
330
1F
100
AcDbEntity
  8
0
  6
Continuous
 62
   144
370
    18
100
AcDbLine
 10
1020.7425633454
 20
-42.7834697342
 30
0.0
 11
1020.7425633454
 21
-42.2834697342
 31
0.0
  0
LINE
  5
20B
330
1F
100
AcDbEntity
  8
0
  6
Continuous
 62
   144
370
    18
100
AcDbLine
 10
1020.8425633454
 20
-42.2834697342
 30
0.0
 11
1020.7425633454
 21
-42.2834697342
 31
0.0
  0
LINE
  5
20C
330
1F
100
AcDbEntity
  8
0
  6
Continuous
 62
   144
370
    18
100
AcDbLine
 10
1020.8425633454
 20
-0.9
 30
0.0
 11
1020.8425633454
 21
-42.2834697342
 31
0.0
  0
LINE
  5
20D
330
1F
100
AcDbEntity
  8
0
  6
Continuous
 62
   144
370
    18
100
AcDbLine
 10
727.2425633454
 20
-0.9
 30
0.0
 11
727.2425633454
 21
-44.1
 31
0.0
  0
LINE
  5
20E
330
1F
100
AcDbEntity
  8
0
  6
Continuous
 62
   144
370
    18
100
AcDbLine
 10
1021.7925633454
 20
-44.1
 30
0.0
 11
1021.7925633454
 21
-0.9
 31
0.0
  0
LINE
  5
20F
330
1F
100
AcDbEntity
  8
0
  6
Continuous
 62
   144
370
    18
100
AcDbLine
 10
1022.2425633454
 20
-0.9
 30
0.0
 11
1022.2425633454
 21
-44.1
 31
0.0
  0
LINE
  5
210
330
1F
100
AcDbEntity
  8
0
  6
Continuous
 62
   144
370
    18
100
AcDbLine
 10
727.6925633454
 20
-44.1
 30
0.0
 11
727.6925633454
 21
-0.9
 31
0.0
  0
LINE
  5
211
330
1F
100
AcDbEntity
  8
0
  6
Continuous
 62
   144
370
    18
100
AcDbLine
 10
738.2425633454
 20
-45.0
 30
0.0
 11
728.1425633454
 21
-45.0
 31
0.0
  0
LINE
  5
212
330
1F
100
AcDbEntity
  8
0
  6
Continuous
 62
   144
370
    18
100
AcDbLine
 10
1011.2425633454
 20
-45.0
 30
0.0
 11
1021.3425633454
 21
-45.0
 31
0.0
  0
LINE
  5
213
330
1F
100
AcDbEntity
  8
0
  6
Continuous
 62
   144
370
    18
100
AcDbLine
 10
738.2425633454
 20
-45.0
 30
0.0
 11
738.2425633454
 21
-44.55
 31
0.0
  0
LINE
  5
214
330
1F
100
AcDbEntity
  8
0
  6
Continuous
 62
   144
370
    18
100
AcDbLine
 10
1011.2425633454
 20
-45.0
 30
0.0
 11
1011.2425633454
 21
-44.55
 31
0.0
  0
LINE
  5
215
330
1F
100
AcDbEntity
  8
0
  6
Continuous
 62
     7
370
    25
100
AcDbLine
 10
1020.8925633454
 20
-16.0
 30
0.0
 11
1021.7425633454
 21
-16.0
 31
0.0
  0
LINE
  5
216
330
1F
100
AcDbEntity
  8
0
  6
Continuous
 62
   144
370
    18
100
AcDbLine
 10
727.7425633454
 20
-0.95
 30
0.0
 11
728.6425633454
 21
-0.95
 31
0.0
  0
LINE
  5
217
330
1F
100
AcDbEntity
  8
0
  6
Continuous
 62
   144
370
    18
100
AcDbLine
 10
727.7425633454
 20
-1.64996
 30
0.0
 11
727.7425633454
 21
-0.95
 31
0.0
  0
LINE
  5
218
330
1F
100
AcDbEntity
  8
0
  6
Continuous
 62
   144
370
    18
100
AcDbLine
 10
1021.7425633454
 20
-16.0
 30
0.0
 11
1021.7425633454
 21
-0.95
 31
0.0
  0
LINE
  5
219
330
1F
100
AcDbEntity
  8
0
  6
Continuous
 62
   144
370
    18
100
AcDbLine
 10
1021.7425633454
 20
-0.95
 30
0.0
 11
1020.8425633454
 21
-0.95
 31
0.0
  0
LINE
  5
21A
330
1F
100
AcDbEntity
  8
0
  6
Continuous
 62
   144
370
    18
100
AcDbLine
 10
1021.2925633454
 20
-1.65
 30
0.0
 11
1021.2925633454
 21
-42.2834697342
 31
0.0
  0
LINE
  5
21B
330
1F
100
AcDbEntity
  8
0
  6
Continuous
 62
   144
370
    18
100
AcDbLine
 10
729.3992691991
 20
-45.4496870132
 30
0.0
 11
1020.0858574916
 21
-45.4496870132
 31
0.0
  0
LINE
  5
21C
330
1F
100
AcDbEntity
  8
0
  6
Continuous
 62
   144
370
    18
100
AcDbLine
 10
738.1425633454
 20
-45.4496870132
 30
0.0
 11
738.1425633454
 21
-44.9996870132
 31
0.0
  0
LINE
  5
21D
330
1F
100
AcDbEntity
  8
0
  6
Continuous
 62
   144
370
    18
100
AcDbLine
 10
738.2425633454
 20
-44.9996870132
 30
0.0
 11
1011.2425633454
 21
-44.9996870132
 31
0.0
  0
LINE
  5
21E
330
1F
100
AcDbEntity
  8
0
  6
Continuous
 62
   144
370
    18
100
AcDbLine
 10
1011.3425633454
 20
-45.4496870132
 30
0.0
 11
1011.3425633454
 21
-44.9996870132
 31
0.0
  0
LINE
  5
21F
330
1F
100
AcDbEntity
  8
0
  6
Continuous
 62
   144
370
    18
100
AcDbLine
 10
1020.8925633454
 20
-10.8927155681
 30
0.0
 11
1020.8925633454
 21
-42.7834697342
 31
0.0
  0
LINE
  5
220
330
1F
100
AcDbEntity
  8
0
  6
Continuous
 62
   144
370
    18
100
AcDbLine
 10
1020.8925633454
 20
-10.8927155681
 30
0.0
 11
1020.8425633454
 21
-10.8550700814
 31
0.0
  0
LINE
  5
221
330
1F
100
AcDbEntity
  8
0
  6
Continuous
 62
   144
370
    18
100
AcDbLine
 10
728.5925633454
 20
-42.2834697342
 30
0.0
 11
728.5925633454
 21
-42.7834697342
 31
0.0
  0
LINE
  5
222
330
1F
100
AcDbEntity
  8
0
  6
Continuous
 62
   144
370
    18
100
AcDbLine
 10
728.1425633454
 20
-43.9996870132
 30
0.0
 11
728.1425633454
 21
-42.2834697342
 31
0.0
  0
LINE
  5
223
330
1F
100
AcDbEntity
  8
0
  6
Continuous
 62
   144
370
    18
100
AcDbLine
 10
727.6925633454
 20
-10.75
 30
0.0
 11
727.7425633454
 21
-10.75
 31
0.0
  0
LINE
  5
224
330
1F
100
AcDbEntity
  8
0
  6
Continuous
 62
   144
370
    18
100
AcDbLine
 10
1021.3425633454
 20
-10.75
 30
0.0
 11
1021.3425633454
 21
-39.85
 31
0.0
  0
LINE
  5
225
330
1F
100
AcDbEntity
  8
0
  6
Continuous
 62
   144
370
    18
100
AcDbLine
 10
1020.8425633454
 20
-40.75
 30
0.0
 11
1020.8925633454
 21
-40.75
 31
0.0
  0
LINE
  5
226
330
1F
100
AcDbEntity
  8
0
  6
Continuous
 62
     7
370
    25
100
AcDbLine
 10
596.6
 20
-147.7668999116
 30
0.0
 11
596.6
 21
-440.0252591251
 31
0.0
  0
LINE
  5
227
330
1F
100
AcDbEntity
  8
0
  6
Continuous
 62
     7
370
    25
100
AcDbLine
 10
597.5
 20
-440.8960795183
 30
0.0
 11
597.5
 21
-146.8960795183
 31
0.0
  0
LINE
  5
228
330
1F
100
AcDbEntity
  8
0
  6
Continuous
 62
     7
370
    25
100
AcDbLine
 10
-254.1800539933
 20
-153.9838296236
 30
0.0
 11
-254.1800539933
 21
-169.9838296236
 31
0.0
  0
LINE
  5
229
330
1F
100
AcDbEntity
  8
0
  6
Continuous
 62
     7
370
    25
100
AcDbLine
 10
-67.997868981
 20
-153.9838296236
 30
0.0
 11
-67.997868981
 21
-169.9838296236
 31
0.0
  0
LINE
  5
22A
330
1F
100
AcDbEntity
  8
0
  6
Continuous
 62
     7
370
    25
100
AcDbLine
 10
81.8173817964
 20
-170.0551736426
 30
0.0
 11
81.8173817964
 21
-154.0551736426
 31
0.0
  0
LINE
  5
22B
330
1F
100
AcDbEntity
  8
0
  6
Continuous
 62
     7
370
    25
100
AcDbLine
 10
78.6173817964
 20
-154.0551736426
 30
0.0
 11
78.6173817964
 21
-170.0551736426
 31
0.0
  0
LINE
  5
22C
330
1F
100
AcDbEntity
  8
0
  6
Continuous
 62
     7
370
    25
100
AcDbLine
 10
378.1173817964
 20
-170.0551736426
 30
0.0
 11
378.1173817964
 21
-154.0551736426
 31
0.0
  0
LINE
  5
22D
330
1F
100
AcDbEntity
  8
0
  6
Continuous
 62
     7
370
    25
100
AcDbLine
 10
-596.1291796067
 20
-147.2960795183
 30
0.0
 11
596.1291796067
 21
-147.2960795183
 31
0.0
  0
LINE
  5
22E
330
1F
100
AcDbEntity
  8
0
  6
Continuous
 62
     7
370
    25
100
AcDbLine
 10
596.1291796067
 20
-440.4960795183
 30
0.0
 11
-596.1291796067
 21
-440.4960795183
 31
0.0
  0
LINE
  5
22F
330
1F
100
AcDbEntity
  8
0
  6
Continuous
 62
   144
370
    18
100
AcDbLine
 10
-596.6
 20
-440.0252591251
 30
0.0
 11
-596.6
 21
-147.7668999116
 31
0.0
  0
LINE
  5
230
330
1F
100
AcDbEntity
  8
0
  6
Continuous
 62
   144
370
    18
100
AcDbLine
 10
-574.6245882331
 20
-169.9838296236
 30
0.0
 11
-574.6245882331
 21
-153.9838296236
 31
0.0
  0
LINE
  5
231
330
1F
100
AcDbEntity
  8
0
  6
Continuous
 62
   144
370
    18
100
AcDbLine
 10
-574.6245882331
 20
-153.9838296236
 30
0.0
 11
-574.1245882331
 21
-153.9838296236
 31
0.0
  0
LINE
  5
232
330
1F
100
AcDbEntity
  8
0
  6
Continuous
 62
   144
370
    18
100
AcDbLine
 10
-574.1245882331
 20
-153.9838296236
 30
0.0
 11
-574.1245882331
 21
-169.9838296236
 31
0.0
  0
LINE
  5
233
330
1F
100
AcDbEntity
  8
0
  6
Continuous
 62
   144
370
    18
100
AcDbLine
 10
-570.9245882331
 20
-169.9838296236
 30
0.0
 11
-570.9245882331
 21
-153.9838296236
 31
0.0
  0
LINE
  5
234
330
1F
100
AcDbEntity
  8
0
  6
Continuous
 62
   144
370
    18
100
AcDbLine
 10
-570.9245882331
 20
-153.9838296236
 30
0.0
 11
-570.4245882331
 21
-153.9838296236
 31
0.0
  0
LINE
  5
235
330
1F
100
AcDbEntity
  8
0
  6
Continuous
 62
   144
370
    18
100
AcDbLine
 10
-570.4245882331
 20
-153.9838296236
 30
0.0
 11
-570.4245882331
 21
-169.9838296236
 31
0.0
  0
LINE
  5
236
330
1F
100
AcDbEntity
  8
0
  6
Continuous
 62
   144
370
    18
100
AcDbLine
 10
378.1173817964
 20
-154.0551736426
 30
0.0
 11
378.6173817964
 21
-154.0551736426
 31
0.0
  0
LINE
  5
237
330
1F
100
AcDbEntity
  8
0
  6
Continuous
 62
   144
370
    18
100
AcDbLine
 10
378.6173817964
 20
-154.0551736426
 30
0.0
 11
378.6173817964
 21
-170.0551736426
 31
0.0
  0
LINE
  5
238
330
1F
100
AcDbEntity
  8
0
  6
Continuous
 62
   144
370
    18
100
AcDbLine
 10
381.8173817964
 20
-170.0551736426
 30
0.0
 11
381.8173817964
 21
-154.0551736426
 31
0.0
  0
LINE
  5
239
330
1F
100
AcDbEntity
  8
0
  6
Continuous
 62
   144
370
    18
100
AcDbLine
 10
381.8173817964
 20
-154.0551736426
 30
0.0
 11
382.3173817964
 21
-154.0551736426
 31
0.0
  0
LINE
  5
23A
330
1F
100
AcDbEntity
  8
0
  6
Continuous
 62
   144
370
    18
100
AcDbLine
 10
382.3173817964
 20
-154.0551736426
 30
0.0
 11
382.3173817964
 21
-170.0551736426
 31
0.0
  0
LINE
  5
23B
330
1F
100
AcDbEntity
  8
0
  6
Continuous
 62
   144
370
    18
100
AcDbLine
 10
228.1173817964
 20
-170.0551736426
 30
0.0
 11
228.1173817964
 21
-154.0551736426
 31
0.0
  0
LINE
  5
23C
330
1F
100
AcDbEntity
  8
0
  6
Continuous
 62
   144
370
    18
100
AcDbLine
 10
228.1173817964
 20
-154.0551736426
 30
0.0
 11
228.6173817964
 21
-154.0551736426
 31
0.0
  0
LINE
  5
23D
330
1F
100
AcDbEntity
  8
0
  6
Continuous
 62
   144
370
    18
100
AcDbLine
 10
228.6173817964
 20
-154.0551736426
 30
0.0
 11
228.6173817964
 21
-170.0551736426
 31
0.0
  0
LINE
  5
23E
330
1F
100
AcDbEntity
  8
0
  6
Continuous
 62
   144
370
    18
100
AcDbLine
 10
231.8173817964
 20
-170.0551736426
 30
0.0
 11
231.8173817964
 21
-154.0551736426
 31
0.0
  0
LINE
  5
23F
330
1F
100
AcDbEntity
  8
0
  6
Continuous
 62
   144
370
    18
100
AcDbLine
 10
231.8173817964
 20
-154.0551736426
 30
0.0
 11
232.3173817964
 21
-154.0551736426
 31
0.0
  0
LINE
  5
240
330
1F
100
AcDbEntity
  8
0
  6
Continuous
 62
   144
370
    18
100
AcDbLine
 10
232.3173817964
 20
-154.0551736426
 30
0.0
 11
232.3173817964
 21
-170.0551736426
 31
0.0
  0
LINE
  5
241
330
1F
100
AcDbEntity
  8
0
  6
Continuous
 62
   144
370
    18
100
AcDbLine
 10
528.1173817964
 20
-170.0551736426
 30
0.0
 11
528.1173817964
 21
-154.0551736426
 31
0.0
  0
LINE
  5
242
330
1F
100
AcDbEntity
  8
0
  6
Continuous
 62
   144
370
    18
100
AcDbLine
 10
528.1173817964
 20
-154.0551736426
 30
0.0
 11
528.6173817964
 21
-154.0551736426
 31
0.0
  0
LINE
  5
243
330
1F
100
AcDbEntity
  8
0
  6
Continuous
 62
   144
370
    18
100
AcDbLine
 10
528.6173817964
 20
-154.0551736426
 30
0.0
 11
528.6173817964
 21
-170.0551736426
 31
0.0
  0
LINE
  5
244
330
1F
100
AcDbEntity
  8
0
  6
Continuous
 62
   144
370
    18
100
AcDbLine
 10
531.8173817964
 20
-170.0551736426
 30
0.0
 11
531.8173817964
 21
-154.0551736426
 31
0.0
  0
LINE
  5
245
330
1F
100
AcDbEntity
  8
0
  6
Continuous
 62
   144
370
    18
100
AcDbLine
 10
531.8173817964
 20
-154.0551736426
 30
0.0
 11
532.3173817964
 21
-154.0551736426
 31
0.0
  0
LINE
  5
246
330
1F
100
AcDbEntity
  8
0
  6
Continuous
 62
   144
370
    18
100
AcDbLine
 10
532.3173817964
 20
-154.0551736426
 30
0.0
 11
532.3173817964
 21
-170.0551736426
 31
0.0
  0
LINE
  5
247
330
1F
100
AcDbEntity
  8
0
  6
Continuous
 62
   144
370
    18
100
AcDbLine
 10
78.1173817964
 20
-170.0551736426
 30
0.0
 11
78.1173817964
 21
-154.0551736426
 31
0.0
  0
LINE
  5
248
330
1F
100
AcDbEntity
  8
0
  6
Continuous
 62
   144
370
    18
100
AcDbLine
 10
78.1173817964
 20
-154.0551736426
 30
0.0
 11
78.6173817964
 21
-154.0551736426
 31
0.0
  0
LINE
  5
249
330
1F
100
AcDbEntity
  8
0
  6
Continuous
 62
   144
370
    18
100
AcDbLine
 10
81.8173817964
 20
-154.0551736426
 30
0.0
 11
82.3173817964
 21
-154.0551736426
 31
0.0
  0
LINE
  5
24A
330
1F
100
AcDbEntity
  8
0
  6
Continuous
 62
   144
370
    18
100
AcDbLine
 10
82.3173817964
 20
-154.0551736426
 30
0.0
 11
82.3173817964
 21
-170.0551736426
 31
0.0
  0
LINE
  5
24B
330
1F
100
AcDbEntity
  8
0
  6
Continuous
 62
   144
370
    18
100
AcDbLine
 10
-64.297868981
 20
-153.9838296236
 30
0.0
 11
-64.297868981
 21
-169.9838296236
 31
0.0
  0
LINE
  5
24C
330
1F
100
AcDbEntity
  8
0
  6
Continuous
 62
   144
370
    18
100
AcDbLine
 10
-68.497868981
 20
-169.9838296236
 30
0.0
 11
-68.497868981
 21
-153.9838296236
 31
0.0
  0
LINE
  5
24D
330
1F
100
AcDbEntity
  8
0
  6
Continuous
 62
   144
370
    18
100
AcDbLine
 10
-68.497868981
 20
-153.9838296236
 30
0.0
 11
-67.997868981
 21
-153.9838296236
 31
0.0
  0
LINE
  5
24E
330
1F
100
AcDbEntity
  8
0
  6
Continuous
 62
   144
370
    18
100
AcDbLine
 10
-64.797868981
 20
-169.9838296236
 30
0.0
 11
-64.797868981
 21
-153.9838296236
 31
0.0
  0
LINE
  5
24F
330
1F
100
AcDbEntity
  8
0
  6
Continuous
 62
   144
370
    18
100
AcDbLine
 10
-64.797868981
 20
-153.9838296236
 30
0.0
 11
-64.297868981
 21
-153.9838296236
 31
0.0
  0
LINE
  5
250
330
1F
100
AcDbEntity
  8
0
  6
Continuous
 62
   144
370
    18
100
AcDbLine
 10
-250.4800539933
 20
-153.9838296236
 30
0.0
 11
-250.4800539933
 21
-169.9838296236
 31
0.0
  0
LINE
  5
251
330
1F
100
AcDbEntity
  8
0
  6
Continuous
 62
   144
370
    18
100
AcDbLine
 10
-254.6800539933
 20
-169.9838296236
 30
0.0
 11
-254.6800539933
 21
-153.9838296236
 31
0.0
  0
LINE
  5
252
330
1F
100
AcDbEntity
  8
0
  6
Continuous
 62
   144
370
    18
100
AcDbLine
 10
-254.6800539933
 20
-153.9838296236
 30
0.0
 11
-254.1800539933
 21
-153.9838296236
 31
0.0
  0
LINE
  5
253
330
1F
100
AcDbEntity
  8
0
  6
Continuous
 62
   144
370
    18
100
AcDbLine
 10
-250.9800539933
 20
-169.9838296236
 30
0.0
 11
-250.9800539933
 21
-153.9838296236
 31
0.0
  0
LINE
  5
254
330
1F
100
AcDbEntity
  8
0
  6
Continuous
 62
   144
370
    18
100
AcDbLine
 10
-250.9800539933
 20
-153.9838296236
 30
0.0
 11
-250.4800539933
 21
-153.9838296236
 31
0.0
  0
LINE
  5
255
330
1F
100
AcDbEntity
  8
0
  6
Continuous
 62
     7
370
    25
100
AcDbLine
 10
-597.0
 20
-441.3960795183
 30
0.0
 11
597.0
 21
-441.3960795183
 31
0.0
  0
LINE
  5
256
330
1F
100
AcDbEntity
  8
0
  6
Continuous
 62
     7
370
    25
100
AcDbLine
 10
597.0
 20
-146.3960795183
 30
0.0
 11
-597.0
 21
-146.3960795183
 31
0.0
  0
LINE
  5
257
330
1F
100
AcDbEntity
  8
0
  6
Continuous
 62
   144
370
    18
100
AcDbLine
 10
596.1
 20
-440.9460795183
 30
0.0
 11
597.0
 21
-440.9460795183
 31
0.0
  0
LINE
  5
258
330
1F
100
AcDbEntity
  8
0
  6
Continuous
 62
   144
370
    18
100
AcDbLine
 10
-597.0
 20
-440.9460795183
 30
0.0
 11
-596.1
 21
-440.9460795183
 31
0.0
  0
LINE
  5
259
330
1F
100
AcDbEntity
  8
0
  6
Continuous
 62
     7
370
    25
100
AcDbLine
 10
597.05
 20
-440.8960795183
 30
0.0
 11
597.05
 21
-439.9960795183
 31
0.0
  0
LINE
  5
25A
330
1F
100
AcDbEntity
  8
0
  6
Continuous
 62
   144
370
    18
100
AcDbLine
 10
597.05
 20
-146.8960795183
 30
0.0
 11
597.05
 21
-147.7960795183
 31
0.0
  0
LINE
  5
25B
330
1F
100
AcDbEntity
  8
0
  6
Continuous
 62
   144
370
    18
100
AcDbLine
 10
-597.0
 20
-146.8460795183
 30
0.0
 11
-596.1
 21
-146.8460795183
 31
0.0
  0
LINE
  5
25C
330
1F
100
AcDbEntity
  8
0
  6
Continuous
 62
   144
370
    18
100
AcDbLine
 10
596.1
 20
-146.8460795183
 30
0.0
 11
597.0
 21
-146.8460795183
 31
0.0
  0
LINE
  5
25D
330
1F
100
AcDbEntity
  8
0
  6
Continuous
 62
   144
370
    18
100
AcDbLine
 10
-597.0
 20
-441.3960795183
 30
0.0
 11
-597.0
 21
-440.9460795183
 31
0.0
  0
LINE
  5
25E
330
1F
100
AcDbEntity
  8
0
  6
Continuous
 62
   144
370
    18
100
AcDbLine
 10
597.0
 20
-440.4960795183
 30
0.0
 11
597.0
 21
-439.9960795183
 31
0.0
  0
LINE
  5
25F
330
1F
100
AcDbEntity
  8
0
  6
Continuous
 62
   144
370
    18
100
AcDbLine
 10
597.0
 20
-440.9460795183
 30
0.0
 11
597.0
 21
-441.3960795183
 31
0.0
  0
LINE
  5
260
330
1F
100
AcDbEntity
  8
0
  6
Continuous
 62
     7
370
    25
100
AcDbLine
 10
597.5
 20
-440.8960795183
 30
0.0
 11
597.05
 21
-440.8960795183
 31
0.0
  0
LINE
  5
261
330
1F
100
AcDbEntity
  8
0
  6
Continuous
 62
   144
370
    18
100
AcDbLine
 10
-597.0
 20
-146.3960795183
 30
0.0
 11
-597.0
 21
-146.8460795183
 31
0.0
  0
LINE
  5
262
330
1F
100
AcDbEntity
  8
0
  6
Continuous
 62
   144
370
    18
100
AcDbLine
 10
-570.4245882331
 20
-157.3960795183
 30
0.0
 11
-570.9245882331
 21
-157.3960795183
 31
0.0
  0
LINE
  5
263
330
1F
100
AcDbEntity
  8
0
  6
Continuous
 62
   144
370
    18
100
AcDbLine
 10
-574.1245882331
 20
-157.3960795183
 30
0.0
 11
-574.6245882331
 21
-157.3960795183
 31
0.0
  0
LINE
  5
264
330
1F
100
AcDbEntity
  8
0
  6
Continuous
 62
   144
370
    18
100
AcDbLine
 10
597.0
 20
-147.7960795183
 30
0.0
 11
597.0
 21
-147.2960795183
 31
0.0
  0
LINE
  5
265
330
1F
100
AcDbEntity
  8
0
  6
Continuous
 62
   144
370
    18
100
AcDbLine
 10
-597.05
 20
-439.9960795183
 30
0.0
 11
-597.05
 21
-147.7960795183
 31
0.0
  0
LINE
  5
266
330
1F
100
AcDbEntity
  8
0
  6
Continuous
 62
   144
370
    18
100
AcDbLine
 10
-597.05
 20
-439.9961195183
 30
0.0
 11
-597.05
 21
-440.3046581621
 31
0.0
  0
LINE
  5
267
330
1F
100
AcDbEntity
  8
0
  6
Continuous
 62
   144
370
    18
100
AcDbLine
 10
-597.05
 20
-147.7960395183
 30
0.0
 11
-597.05
 21
-147.4875008746
 31
0.0
  0
LINE
  5
268
330
1F
100
AcDbEntity
  8
0
  6
Continuous
 62
   144
370
    18
100
AcDbLine
 10
-596.6
 20
-440.4460795183
 30
0.0
 11
-596.2969055749
 21
-440.4460795183
 31
0.0
  0
LINE
  5
269
330
1F
100
AcDbEntity
  8
0
  6
Continuous
 62
   144
370
    18
100
AcDbLine
 10
-596.6
 20
-147.3460795183
 30
0.0
 11
-596.2969055749
 21
-147.3460795183
 31
0.0
  0
LINE
  5
26A
330
1F
100
AcDbEntity
  8
0
  6
Continuous
 62
   144
370
    18
100
AcDbLine
 10
-596.55
 20
-147.4875008746
 30
0.0
 11
-596.2837874152
 21
-147.5588323217
 31
0.0
  0
LINE
  5
26B
330
1F
100
AcDbEntity
  8
0
  6
Continuous
 62
   144
370
    18
100
AcDbLine
 10
-596.6
 20
-147.4875008746
 30
0.0
 11
-596.6
 21
-147.7663999116
 31
0.0
  0
LINE
  5
26C
330
1F
100
AcDbEntity
  8
0
  6
Continuous
 62
   144
370
    18
100
AcDbLine
 10
-596.6
 20
-440.0257591251
 30
0.0
 11
-596.6
 21
-440.3046581621
 31
0.0
  0
LINE
  5
26D
330
1F
100
AcDbEntity
  8
0
  6
Continuous
 62
   144
370
    18
100
AcDbLine
 10
-596.55
 20
-440.3046581621
 30
0.0
 11
-596.2837874152
 21
-440.233326715
 31
0.0
  0
LINE
  5
26E
330
1F
100
AcDbEntity
  8
0
  6
Continuous
 62
   144
370
    18
100
AcDbLine
 10
-597.5
 20
-440.3046581621
 30
0.0
 11
-597.5
 21
-439.9961195183
 31
0.0
  0
LINE
  5
26F
330
1F
100
AcDbEntity
  8
0
  6
Continuous
 62
   144
370
    18
100
AcDbLine
 10
-597.5
 20
-147.4875008746
 30
0.0
 11
-597.5
 21
-147.7960395183
 31
0.0
  0
LINE
  5
270
330
1F
100
AcDbEntity
  8
0
  6
Continuous
 62
   144
370
    18
100
AcDbLine
 10
-597.5
 20
-147.7960795183
 30
0.0
 11
-597.5
 21
-439.9960795183
 31
0.0
  0
LINE
  5
271
330
1F
100
AcDbEntity
  8
0
  6
Continuous
 62
   144
370
    18
100
AcDbLine
 10
-254.6800539933
 20
-157.3960795183
 30
0.0
 11
-254.1800539933
 21
-157.3960795183
 31
0.0
  0
LINE
  5
272
330
1F
100
AcDbEntity
  8
0
  6
Continuous
 62
   144
370
    18
100
AcDbLine
 10
-250.9800539933
 20
-157.3960795183
 30
0.0
 11
-250.4800539933
 21
-157.3960795183
 31
0.0
  0
LINE
  5
273
330
1F
100
AcDbEntity
  8
0
  6
Continuous
 62
   144
370
    18
100
AcDbLine
 10
-68.497868981
 20
-157.3960795183
 30
0.0
 11
-67.997868981
 21
-157.3960795183
 31
0.0
  0
LINE
  5
274
330
1F
100
AcDbEntity
  8
0
  6
Continuous
 62
   144
370
    18
100
AcDbLine
 10
-64.797868981
 20
-157.3960795183
 30
0.0
 11
-64.297868981
 21
-157.3960795183
 31
0.0
  0
LINE
  5
275
330
1F
100
AcDbEntity
  8
0
  6
Continuous
 62
   144
370
    18
100
AcDbLine
 10
78.1173817964
 20
-157.3960795183
 30
0.0
 11
78.6173817964
 21
-157.3960795183
 31
0.0
  0
LINE
  5
276
330
1F
100
AcDbEntity
  8
0
  6
Continuous
 62
   144
370
    18
100
AcDbLine
 10
81.8173817964
 20
-157.3960795183
 30
0.0
 11
82.3173817964
 21
-157.3960795183
 31
0.0
  0
LINE
  5
277
330
1F
100
AcDbEntity
  8
0
  6
Continuous
 62
   144
370
    18
100
AcDbLine
 10
228.1173817964
 20
-157.3960795183
 30
0.0
 11
228.6173817964
 21
-157.3960795183
 31
0.0
  0
LINE
  5
278
330
1F
100
AcDbEntity
  8
0
  6
Continuous
 62
   144
370
    18
100
AcDbLine
 10
231.8173817964
 20
-157.3960795183
 30
0.0
 11
232.3173817964
 21
-157.3960795183
 31
0.0
  0
LINE
  5
279
330
1F
100
AcDbEntity
  8
0
  6
Continuous
 62
   144
370
    18
100
AcDbLine
 10
378.1173817964
 20
-157.3960795183
 30
0.0
 11
378.6173817964
 21
-157.3960795183
 31
0.0
  0
LINE
  5
27A
330
1F
100
AcDbEntity
  8
0
  6
Continuous
 62
   144
370
    18
100
AcDbLine
 10
381.8173817964
 20
-157.3960795183
 30
0.0
 11
382.3173817964
 21
-157.3960795183
 31
0.0
  0
LINE
  5
27B
330
1F
100
AcDbEntity
  8
0
  6
Continuous
 62
   144
370
    18
100
AcDbLine
 10
528.1173817964
 20
-157.3960795183
 30
0.0
 11
528.6173817964
 21
-157.3960795183
 31
0.0
  0
LINE
  5
27C
330
1F
100
AcDbEntity
  8
0
  6
Continuous
 62
   144
370
    18
100
AcDbLine
 10
531.8173817964
 20
-157.3960795183
 30
0.0
 11
532.3173817964
 21
-157.3960795183
 31
0.0
  0
LINE
  5
27D
330
1F
100
AcDbEntity
  8
0
  6
Continuous
 62
   144
370
    18
100
AcDbLine
 10
-596.6
 20
-378.8960795183
 30
0.0
 11
-597.05
 21
-378.8960795183
 31
0.0
  0
LINE
  5
27E
330
1F
100
AcDbEntity
  8
0
  6
Continuous
 62
   144
370
    18
100
AcDbLine
 10
-597.05
 20
-208.8960795183
 30
0.0
 11
-596.6
 21
-208.8960795183
 31
0.0
  0
LINE
  5
27F
330
1F
100
AcDbEntity
  8
0
  6
Continuous
 62
     8
370
    25
100
AcDbLine
 10
596.1518054952
 20
-440.4960795183
 30
0.0
 11
597.0
 21
-440.4960795183
 31
0.0
  0
LINE
  5
280
330
1F
100
AcDbEntity
  8
0
  6
Continuous
 62
     8
370
    25
100
AcDbLine
 10
596.1518083476
 20
-147.2960795183
 30
0.0
 11
597.0
 21
-147.2960795183
 31
0.0
  0
ENDSEC
  0
SECTION
  2
OBJECTS
  0
DICTIONARY
  5
C
330
0
100
AcDbDictionary
281
     1
  3
ACAD_GROUP
350
D
  3
ACAD_LAYOUT
350
1A
  3
ACAD_MLINESTYLE
350
17
  3
ACAD_PLOTSETTINGS
350
19
  3
ACAD_PLOTSTYLENAME
350
E
  3
ACAD_SCALELIST
350
47
  0
DICTIONARY
  5
D
102
{ACAD_REACTORS
330
C
102
}
330
C
100
AcDbDictionary
281
     1
  0
DICTIONARY
  5
1A
102
{ACAD_REACTORS
330
C
102
}
330
C
100
AcDbDictionary
281
     1
  3
Layout1
350
1E
  3
Layout2
350
26
  3
Model
350
22
  0
DICTIONARY
  5
17
102
{ACAD_REACTORS
330
C
102
}
330
C
100
AcDbDictionary
281
     1
  3
Standard
350
18
  0
DICTIONARY
  5
19
102
{ACAD_REACTORS
330
C
102
}
330
C
100
AcDbDictionary
281
     1
  0
ACDBDICTIONARYWDFLT
  5
E
102
{ACAD_REACTORS
330
C
102
}
330
C
100
AcDbDictionary
281
     1
  3
Normal
350
F
100
AcDbDictionaryWithDefault
340
F
  0
DICTIONARY
  5
47
102
{ACAD_REACTORS
330
C
102
}
330
C
100
AcDbDictionary
281
     1
  3
A0
350
48
  3
A1
350
49
  3
A2
350
4A
  3
A3
350
4B
  3
A4
350
4C
  3
A5
350
4D
  3
A6
350
4E
  3
A7
350
4F
  3
A8
350
50
  3
A9
350
51
  3
B0
350
52
  3
B1
350
53
  3
B2
350
54
  3
B3
350
55
  3
B4
350
56
  3
B5
350
57
  3
B6
350
58
  3
B7
350
59
  3
B8
350
5A
  3
B9
350
5B
  3
C0
350
5C
  3
C1
350
5D
  3
C2
350
5E
  3
C3
350
5F
  3
C4
350
60
  3
C5
350
61
  3
C6
350
62
  3
C7
350
63
  3
C8
350
64
  3
C9
350
65
  3
D0
350
66
  3
D1
350
67
  3
D2
350
68
  0
LAYOUT
  5
1E
102
{ACAD_REACTORS
330
1A
102
}
330
1A
100
AcDbPlotSettings
  1

  2
none_device
  4

  6

 40
0.0
 41
0.0
 42
0.0
 43
0.0
 44
0.0
 45
0.0
 46
0.0
 47
0.0
 48
0.0
 49
0.0
140
0.0
141
0.0
142
1.0
143
1.0
 70
   688
 72
     1
 73
     0
 74
     5
  7

 75
    16
147
1.0
148
0.0
149
0.0
100
AcDbLayout
  1
Layout1
 70
     1
 71
     1
 10
0.0
 20
0.0
 11
420.0
 21
297.0
 12
0.0
 22
0.0
 32
0.0
 14
1.0000000000E+20
 24
1.0000000000E+20
 34
1.0000000000E+20
 15
-1.0000000000E+20
 25
-1.0000000000E+20
 35
-1.0000000000E+20
146
0.0
 13
0.0
 23
0.0
 33
0.0
 16
1.0
 26
0.0
 36
0.0
 17
0.0
 27
1.0
 37
0.0
 76
     0
330
1B
  0
LAYOUT
  5
26
102
{ACAD_REACTORS
330
1A
102
}
330
1A
100
AcDbPlotSettings
  1

  2
none_device
  4

  6

 40
0.0
 41
0.0
 42
0.0
 43
0.0
 44
0.0
 45
0.0
 46
0.0
 47
0.0
 48
0.0
 49
0.0
140
0.0
141
0.0
142
1.0
143
1.0
 70
   688
 72
     1
 73
     0
 74
     5
  7

 75
    16
147
1.0
148
0.0
149
0.0
100
AcDbLayout
  1
Layout2
 70
     1
 71
     2
 10
0.0
 20
0.0
 11
0.0
 21
0.0
 12
0.0
 22
0.0
 32
0.0
 14
0.0
 24
0.0
 34
0.0
 15
0.0
 25
0.0
 35
0.0
146
0.0
 13
0.0
 23
0.0
 33
0.0
 16
1.0
 26
0.0
 36
0.0
 17
0.0
 27
1.0
 37
0.0
 76
     0
330
23
  0
LAYOUT
  5
22
102
{ACAD_REACTORS
330
1A
102
}
330
1A
100
AcDbPlotSettings
  1

  2
none_device
  4
ANSI_A_(11.00_x_8.50_Inches)
  6

 40
6.35
 41
19.05
 42
6.35000508
 43
19.05000254
 44
279.4
 45
215.9
 46
97.0830177141
 47
126.5889521273
 48
0.0
 49
0.0
140
0.0
141
0.0
142
0.0067232906
143
1.0
 70
  1696
 72
     0
 73
     0
 74
     0
  7

 75
     0
147
0.0179189148
148
-1300.4909072572
149
0.0
100
AcDbLayout
  1
Model
 70
     1
 71
     0
 10
0.0
 20
0.0
 11
420.0
 21
297.0
 12
0.0
 22
0.0
 32
0.0
 14
-597.5
 24
-441.3960795183
 34
0.0
 15
1022.2425633454
 25
0.0
 35
0.0
146
0.0
 13
0.0
 23
0.0
 33
0.0
 16
1.0
 26
0.0
 36
0.0
 17
0.0
 27
1.0
 37
0.0
 76
     0
330
1F
331
29
  0
MLINESTYLE
  5
18
102
{ACAD_REACTORS
330
17
102
}
330
17
100
AcDbMlineStyle
  2
Standard
 70
     0
  3

 62
   256
 51
90.0
 52
90.0
 71
     2
 49
0.5
 62
   256
  6
BYLAYER
 49
-0.5
 62
   256
  6
BYLAYER
  0
ACDBPLACEHOLDER
  5
F
102
{ACAD_REACTORS
330
E
102
}
330
E
  0
SCALE
  5
48
102
{ACAD_REACTORS
330
47
102
}
330
47
100
AcDbScale
 70
     0
300
1:1
140
1.0
141
1.0
290
     1
  0
SCALE
  5
49
102
{ACAD_REACTORS
330
47
102
}
330
47
100
AcDbScale
 70
     0
300
1:2
140
1.0
141
2.0
290
     0
  0
SCALE
  5
4A
102
{ACAD_REACTORS
330
47
102
}
330
47
100
AcDbScale
 70
     0
300
1:4
140
1.0
141
4.0
290
     0
  0
SCALE
  5
4B
102
{ACAD_REACTORS
330
47
102
}
330
47
100
AcDbScale
 70
     0
300
1:5
140
1.0
141
5.0
290
     0
  0
SCALE
  5
4C
102
{ACAD_REACTORS
330
47
102
}
330
47
100
AcDbScale
 70
     0
300
1:8
140
1.0
141
8.0
290
     0
  0
SCALE
  5
4D
102
{ACAD_REACTORS
330
47
102
}
330
47
100
AcDbScale
 70
     0
300
1:10
140
1.0
141
10.0
290
     0
  0
SCALE
  5
4E
102
{ACAD_REACTORS
330
47
102
}
330
47
100
AcDbScale
 70
     0
300
1:16
140
1.0
141
16.0
290
     0
  0
SCALE
  5
4F
102
{ACAD_REACTORS
330
47
102
}
330
47
100
AcDbScale
 70
     0
300
1:20
140
1.0
141
20.0
290
     0
  0
SCALE
  5
50
102
{ACAD_REACTORS
330
47
102
}
330
47
100
AcDbScale
 70
     0
300
1:30
140
1.0
141
30.0
290
     0
  0
SCALE
  5
51
102
{ACAD_REACTORS
330
47
102
}
330
47
100
AcDbScale
 70
     0
300
1:40
140
1.0
141
40.0
290
     0
  0
SCALE
  5
52
102
{ACAD_REACTORS
330
47
102
}
330
47
100
AcDbScale
 70
     0
300
1:50
140
1.0
141
50.0
290
     0
  0
SCALE
  5
53
102
{ACAD_REACTORS
330
47
102
}
330
47
100
AcDbScale
 70
     0
300
1:100
140
1.0
141
100.0
290
     0
  0
SCALE
  5
54
102
{ACAD_REACTORS
330
47
102
}
330
47
100
AcDbScale
 70
     0
300
2:1
140
2.0
141
1.0
290
     0
  0
SCALE
  5
55
102
{ACAD_REACTORS
330
47
102
}
330
47
100
AcDbScale
 70
     0
300
4:1
140
4.0
141
1.0
290
     0
  0
SCALE
  5
56
102
{ACAD_REACTORS
330
47
102
}
330
47
100
AcDbScale
 70
     0
300
8:1
140
8.0
141
1.0
290
     0
  0
SCALE
  5
57
102
{ACAD_REACTORS
330
47
102
}
330
47
100
AcDbScale
 70
     0
300
10:1
140
10.0
141
1.0
290
     0
  0
SCALE
  5
58
102
{ACAD_REACTORS
330
47
102
}
330
47
100
AcDbScale
 70
     0
300
100:1
140
100.0
141
1.0
290
     0
  0
SCALE
  5
59
102
{ACAD_REACTORS
330
47
102
}
330
47
100
AcDbScale
 70
     0
300
1/128" = 1'-0"
140
0.0078125
141
12.0
290
     0
  0
SCALE
  5
5A
102
{ACAD_REACTORS
330
47
102
}
330
47
100
AcDbScale
 70
     0
300
1/64" = 1'-0"
140
0.015625
141
12.0
290
     0
  0
SCALE
  5
5B
102
{ACAD_REACTORS
330
47
102
}
330
47
100
AcDbScale
 70
     0
300
1/32" = 1'-0"
140
0.03125
141
12.0
290
     0
  0
SCALE
  5
5C
102
{ACAD_REACTORS
330
47
102
}
330
47
100
AcDbScale
 70
     0
300
1/16" = 1'-0"
140
0.0625
141
12.0
290
     0
  0
SCALE
  5
5D
102
{ACAD_REACTORS
330
47
102
}
330
47
100
AcDbScale
 70
     0
300
3/32" = 1'-0"
140
0.09375
141
12.0
290
     0
  0
SCALE
  5
5E
102
{ACAD_REACTORS
330
47
102
}
330
47
100
AcDbScale
 70
     0
300
1/8" = 1'-0"
140
0.125
141
12.0
290
     0
  0
SCALE
  5
5F
102
{ACAD_REACTORS
330
47
102
}
330
47
100
AcDbScale
 70
     0
300
3/16" = 1'-0"
140
0.1875
141
12.0
290
     0
  0
SCALE
  5
60
102
{ACAD_REACTORS
330
47
102
}
330
47
100
AcDbScale
 70
     0
300
1/4" = 1'-0"
140
0.25
141
12.0
290
     0
  0
SCALE
  5
61
102
{ACAD_REACTORS
330
47
102
}
330
47
100
AcDbScale
 70
     0
300
3/8" = 1'-0"
140
0.375
141
12.0
290
     0
  0
SCALE
  5
62
102
{ACAD_REACTORS
330
47
102
}
330
47
100
AcDbScale
 70
     0
300
1/2" = 1'-0"
140
0.5
141
12.0
290
     0
  0
SCALE
  5
63
102
{ACAD_REACTORS
330
47
102
}
330
47
100
AcDbScale
 70
     0
300
3/4" = 1'-0"
140
0.75
141
12.0
290
     0
  0
SCALE
  5
64
102
{ACAD_REACTORS
330
47
102
}
330
47
100
AcDbScale
 70
     0
300
1" = 1'-0"
140
1.0
141
12.0
290
     0
  0
SCALE
  5
65
102
{ACAD_REACTORS
330
47
102
}
330
47
100
AcDbScale
 70
     0
300
1-1/2" = 1'-0"
140
1.5
141
12.0
290
     0
  0
SCALE
  5
66
102
{ACAD_REACTORS
330
47
102
}
330
47
100
AcDbScale
 70
     0
300
3" = 1'-0"
140
3.0
141
12.0
290
     0
  0
SCALE
  5
67
102
{ACAD_REACTORS
330
47
102
}
330
47
100
AcDbScale
 70
     0
300
6" = 1'-0"
140
6.0
141
12.0
290
     0
  0
SCALE
  5
68
102
{ACAD_REACTORS
330
47
102
}
330
47
100
AcDbScale
 70
     0
300
1'-0" = 1'-0"
140
12.0
141
12.0
290
     0
  0
ENDSEC
  0
EOF
