  0
SECTION
  2
HEADER
  9
$ACADVER
  1
AC1015
  9
$ACADMAINTVER
 70
     6
  9
$DWGCODEPAGE
  3
ANSI_1251
  9
$INSBASE
 10
0.0
 20
0.0
 30
0.0
  9
$EXTMIN
 10
0.0
 20
0.0
 30
0.0
  9
$EXTMAX
 10
1189.0
 20
841.0
 30
0.0
  9
$LIMMIN
 10
0.0
 20
0.0
  9
$LIMMAX
 10
1189.0
 20
841.0
  9
$ORTHOMODE
 70
     0
  9
$REGENMODE
 70
     1
  9
$FILLMODE
 70
     1
  9
$QTEXTMODE
 70
     0
  9
$MIRRTEXT
 70
     1
  9
$LTSCALE
 40
1.0
  9
$ATTMODE
 70
     1
  9
$TEXTSIZE
 40
3.5
  9
$TRACEWID
 40
1.0
  9
$TEXTSTYLE
  7
Standard
  9
$CLAYER
  8
0
  9
$CELTYPE
  6
ByLayer
  9
$CECOLOR
 62
   256
  9
$CELTSCALE
 40
1.0
  9
$DISPSILH
 70
     0
  9
$DIMSCALE
 40
1.0
  9
$DIMASZ
 40
3.5
  9
$DIMEXO
 40
0.01
  9
$DIMDLI
 40
3.75
  9
$DIMRND
 40
0.0
  9
$DIMDLE
 40
0.0
  9
$DIMEXE
 40
1.0
  9
$DIMTP
 40
0.0
  9
$DIMTM
 40
0.0
  9
$DIMTXT
 40
3.5
  9
$DIMCEN
 40
2.5
  9
$DIMTSZ
 40
0.0
  9
$DIMTOL
 70
     0
  9
$DIMLIM
 70
     0
  9
$DIMTIH
 70
     1
  9
$DIMTOH
 70
     1
  9
$DIMSE1
 70
     0
  9
$DIMSE2
 70
     0
  9
$DIMTAD
 70
     1
  9
$DIMZIN
 70
     0
  9
$DIMBLK
  1

  9
$DIMASO
 70
     1
  9
$DIMSHO
 70
     1
  9
$DIMPOST
  1

  9
$DIMAPOST
  1

  9
$DIMALT
 70
     0
  9
$DIMALTD
 70
     3
  9
$DIMALTF
 40
0.0393700787
  9
$DIMLFAC
 40
1.0
  9
$DIMTOFL
 70
     1
  9
$DIMTVP
 40
0.0
  9
$DIMTIX
 70
     0
  9
$DIMSOXD
 70
     0
  9
$DIMSAH
 70
     0
  9
$DIMBLK1
  1

  9
$DIMBLK2
  1

  9
$DIMSTYLE
  2
ISO-25
  9
$DIMCLRD
 70
     0
  9
$DIMCLRE
 70
     0
  9
$DIMCLRT
 70
     0
  9
$DIMTFAC
 40
1.0
  9
$DIMGAP
 40
3.0
  9
$DIMJUST
 70
     0
  9
$DIMSD1
 70
     0
  9
$DIMSD2
 70
     0
  9
$DIMTOLJ
 70
     0
  9
$DIMTZIN
 70
     0
  9
$DIMALTZ
 70
     0
  9
$DIMALTTZ
 70
     0
  9
$DIMUPT
 70
     0
  9
$DIMDEC
 70
     2
  9
$DIMTDEC
 70
     3
  9
$DIMALTU
 70
     2
  9
$DIMALTTD
 70
     3
  9
$DIMTXSTY
  7
Standard
  9
$DIMAUNIT
 70
     0
  9
$DIMADEC
 70
     2
  9
$DIMALTRND
 40
0.0
  9
$DIMAZIN
 70
     0
  9
$DIMDSEP
 70
    44
  9
$DIMATFIT
 70
     3
  9
$DIMFRAC
 70
     0
  9
$DIMLDRBLK
  1

  9
$DIMLUNIT
 70
     2
  9
$DIMLWD
 70
    -2
  9
$DIMLWE
 70
    -2
  9
$DIMTMOVE
 70
     0
  9
$LUNITS
 70
     2
  9
$LUPREC
 70
     4
  9
$SKETCHINC
 40
1.0
  9
$FILLETRAD
 40
10.0
  9
$AUNITS
 70
     0
  9
$AUPREC
 70
     2
  9
$MENU
  1
.
  9
$ELEVATION
 40
0.0
  9
$PELEVATION
 40
0.0
  9
$THICKNESS
 40
0.0
  9
$LIMCHECK
 70
     0
  9
$CHAMFERA
 40
0.0
  9
$CHAMFERB
 40
0.0
  9
$CHAMFERC
 40
0.0
  9
$CHAMFERD
 40
0.0
  9
$SKPOLY
 70
     0
  9
$TDCREATE
 40
2459275.541073102
  9
$TDUCREATE
 40
2459275.416073102
  9
$TDUPDATE
 40
2459275.541073599
  9
$TDUUPDATE
 40
2459275.416073599
  9
$TDINDWG
 40
0.0000000116
  9
$TDUSRTIMER
 40
0.0000000116
  9
$USRTIMER
 70
     1
  9
$ANGBASE
 50
0.0
  9
$ANGDIR
 70
     0
  9
$PDMODE
 70
     0
  9
$PDSIZE
 40
-1.0
  9
$PLINEWID
 40
0.0
  9
$SPLFRAME
 70
     0
  9
$SPLINETYPE
 70
     6
  9
$SPLINESEGS
 70
     8
  9
$HANDSEED
  5
1F1
  9
$SURFTAB1
 70
     6
  9
$SURFTAB2
 70
     6
  9
$SURFTYPE
 70
     6
  9
$SURFU
 70
     6
  9
$SURFV
 70
     6
  9
$UCSBASE
  2

  9
$UCSNAME
  2

  9
$UCSORG
 10
0.0
 20
0.0
 30
0.0
  9
$UCSXDIR
 10
1.0
 20
0.0
 30
0.0
  9
$UCSYDIR
 10
0.0
 20
1.0
 30
0.0
  9
$UCSORTHOREF
  2

  9
$UCSORTHOVIEW
 70
     0
  9
$UCSORGTOP
 10
0.0
 20
0.0
 30
0.0
  9
$UCSORGBOTTOM
 10
0.0
 20
0.0
 30
0.0
  9
$UCSORGLEFT
 10
0.0
 20
0.0
 30
0.0
  9
$UCSORGRIGHT
 10
0.0
 20
0.0
 30
0.0
  9
$UCSORGFRONT
 10
0.0
 20
0.0
 30
0.0
  9
$UCSORGBACK
 10
0.0
 20
0.0
 30
0.0
  9
$PUCSBASE
  2

  9
$PUCSNAME
  2

  9
$PUCSORG
 10
0.0
 20
0.0
 30
0.0
  9
$PUCSXDIR
 10
1.0
 20
0.0
 30
0.0
  9
$PUCSYDIR
 10
0.0
 20
1.0
 30
0.0
  9
$PUCSORTHOREF
  2

  9
$PUCSORTHOVIEW
 70
     0
  9
$PUCSORGTOP
 10
0.0
 20
0.0
 30
0.0
  9
$PUCSORGBOTTOM
 10
0.0
 20
0.0
 30
0.0
  9
$PUCSORGLEFT
 10
0.0
 20
0.0
 30
0.0
  9
$PUCSORGRIGHT
 10
0.0
 20
0.0
 30
0.0
  9
$PUCSORGFRONT
 10
0.0
 20
0.0
 30
0.0
  9
$PUCSORGBACK
 10
0.0
 20
0.0
 30
0.0
  9
$USERI1
 70
     0
  9
$USERI2
 70
     0
  9
$USERI3
 70
     0
  9
$USERI4
 70
     0
  9
$USERI5
 70
     0
  9
$USERR1
 40
0.0
  9
$USERR2
 40
0.0
  9
$USERR3
 40
0.0
  9
$USERR4
 40
0.0
  9
$USERR5
 40
0.0
  9
$WORLDVIEW
 70
     1
  9
$SHADEDGE
 70
     3
  9
$SHADEDIF
 70
    70
  9
$TILEMODE
 70
     1
  9
$MAXACTVP
 70
    64
  9
$PINSBASE
 10
0.0
 20
0.0
 30
0.0
  9
$PLIMCHECK
 70
     0
  9
$PEXTMIN
 10
1.0000000000E+20
 20
1.0000000000E+20
 30
1.0000000000E+20
  9
$PEXTMAX
 10
-1.0000000000E+20
 20
-1.0000000000E+20
 30
-1.0000000000E+20
  9
$PLIMMIN
 10
0.0
 20
0.0
  9
$PLIMMAX
 10
420.0
 20
297.0
  9
$UNITMODE
 70
     0
  9
$VISRETAIN
 70
     1
  9
$PLINEGEN
 70
     0
  9
$PSLTSCALE
 70
     1
  9
$TREEDEPTH
 70
  3020
  9
$CMLSTYLE
  2
Standard
  9
$CMLJUST
 70
     0
  9
$CMLSCALE
 40
20.0
  9
$PROXYGRAPHICS
 70
     1
  9
$MEASUREMENT
 70
     1
  9
$CELWEIGHT
370
    -1
  9
$ENDCAPS
280
     0
  9
$JOINSTYLE
280
     0
  9
$LWDISPLAY
290
     1
  9
$INSUNITS
 70
     4
  9
$HYPERLINKBASE
  1

  9
$STYLESHEET
  1

  9
$XEDIT
290
     1
  9
$CEPSNTYPE
380
     0
  9
$PSTYLEMODE
290
     1
  9
$FINGERPRINTGUID
  2
{5c86c084-8798-4b18-af05-b09fba4cf1d3}
  9
$VERSIONGUID
  2
{FAEB1C32-E019-11D5-929B-00C0DF256EC4}
  9
$EXTNAMES
290
     1
  9
$PSVPSCALE
 40
0.0
  9
$OLESTARTUP
290
     0
  0
ENDSEC
  0
SECTION
  2
CLASSES
  0
CLASS
  1
ACDBDICTIONARYWDFLT
  2
AcDbDictionaryWithDefault
  3
ObjectDBX Classes
 90
        0
280
     0
281
     0
  0
CLASS
  1
VISUALSTYLE
  2
AcDbVisualStyle
  3
ObjectDBX Classes
 90
     4095
280
     0
281
     0
  0
CLASS
  1
MATERIAL
  2
AcDbMaterial
  3
ObjectDBX Classes
 90
     1153
280
     0
281
     0
  0
CLASS
  1
SCALE
  2
AcDbScale
  3
ObjectDBX Classes
 90
     1153
280
     0
281
     0
  0
CLASS
  1
TABLESTYLE
  2
AcDbTableStyle
  3
ObjectDBX Classes
 90
     4095
280
     0
281
     0
  0
CLASS
  1
MLEADERSTYLE
  2
AcDbMLeaderStyle
  3
ACDB_MLEADERSTYLE_CLASS
 90
     4095
280
     0
281
     0
  0
CLASS
  1
SUN
  2
AcDbSun
  3
SCENEOE
 90
     1153
280
     0
281
     0
  0
CLASS
  1
ACDBPLACEHOLDER
  2
AcDbPlaceHolder
  3
ObjectDBX Classes
 90
        0
280
     0
281
     0
  0
CLASS
  1
LAYOUT
  2
AcDbLayout
  3
ObjectDBX Classes
 90
        0
280
     0
281
     0
  0
ENDSEC
  0
SECTION
  2
TABLES
  0
TABLE
  2
VPORT
  5
8
330
0
100
AcDbSymbolTable
 70
     1
  0
VPORT
  5
29
330
8
100
AcDbSymbolTableRecord
100
AcDbViewportTableRecord
  2
*Active
 70
     0
 10
0.0
 20
0.0
 11
1.0
 21
1.0
 12
594.5
 22
420.5
 13
0.0
 23
0.0
 14
10.0
 24
10.0
 15
10.0
 25
10.0
 16
0.0
 26
0.0
 36
1.0
 17
0.0
 27
0.0
 37
0.0
 40
841.0
 41
1.4137931034
 42
50.0
 43
0.0
 44
0.0
 50
0.0
 51
0.0
 71
     0
 72
  2000
 73
     1
 74
     3
 75
     0
 76
     0
 77
     0
 78
     0
281
     0
 65
     1
110
0.0
120
0.0
130
0.0
111
1.0
121
0.0
131
0.0
112
0.0
122
1.0
132
0.0
 79
     0
146
0.0
  0
ENDTAB
  0
TABLE
  2
LTYPE
  5
5
330
0
100
AcDbSymbolTable
 70
     6
  0
LTYPE
  5
14
330
5
100
AcDbSymbolTableRecord
100
AcDbLinetypeTableRecord
  2
ByBlock
 70
     0
  3

 72
    65
 73
     0
 40
0.0
  0
LTYPE
  5
15
330
5
100
AcDbSymbolTableRecord
100
AcDbLinetypeTableRecord
  2
ByLayer
 70
     0
  3

 72
    65
 73
     0
 40
0.0
  0
LTYPE
  5
16
330
5
100
AcDbSymbolTableRecord
100
AcDbLinetypeTableRecord
  2
Continuous
 70
     0
  3
Solid line
 72
    65
 73
     0
 40
0.0
  0
LTYPE
  5
6E
330
5
100
AcDbSymbolTableRecord
100
AcDbLinetypeTableRecord
  2
HIDDEN
 70
     0
  3
Hidden __ __ __ __ __ __ __ __ __ __ __ __ __ __
 72
    65
 73
     2
 40
1.905
 49
1.27
 74
     0
 49
-0.635
 74
     0
  0
LTYPE
  5
6F
330
5
100
AcDbSymbolTableRecord
100
AcDbLinetypeTableRecord
  2
PHANTOM
 70
     0
  3
Phantom ______  __  __  ______  __  __  ______
 72
    65
 73
     6
 40
12.7
 49
6.35
 74
     0
 49
-1.27
 74
     0
 49
1.27
 74
     0
 49
-1.27
 74
     0
 49
1.27
 74
     0
 49
-1.27
 74
     0
  0
LTYPE
  5
70
330
5
100
AcDbSymbolTableRecord
100
AcDbLinetypeTableRecord
  2
CENTER
 70
     0
  3
Center ____ _ ____ _ ____ _ ____ _ ____ _ ____
 72
    65
 73
     4
 40
10.16
 49
6.35
 74
     0
 49
-1.27
 74
     0
 49
1.27
 74
     0
 49
-1.27
 74
     0
  0
LTYPE
  5
71
330
5
100
AcDbSymbolTableRecord
100
AcDbLinetypeTableRecord
  2
CENTERX2
 70
     0
  3
Center (2x) ________  __  ________  __  _____
 72
    65
 73
     4
 40
20.32
 49
12.7
 74
     0
 49
-2.54
 74
     0
 49
2.54
 74
     0
 49
-2.54
 74
     0
  0
LTYPE
  5
72
330
5
100
AcDbSymbolTableRecord
100
AcDbLinetypeTableRecord
  2
DOT2
 70
     0
  3
Dot (.5x) ........................................
 72
    65
 73
     2
 40
0.635
 49
0.0
 74
     0
 49
-0.635
 74
     0
  0
ENDTAB
  0
TABLE
  2
LAYER
  5
2
330
0
100
AcDbSymbolTable
 70
     5
  0
LAYER
  5
10
330
2
100
AcDbSymbolTableRecord
100
AcDbLayerTableRecord
  2
0
 70
     0
 62
     7
  6
Continuous
370
    -3
390
F
  0
LAYER
  5
73
330
2
100
AcDbSymbolTableRecord
100
AcDbLayerTableRecord
  2
ОСЕВЫЕ
 70
     0
 62
     7
  6
Continuous
370
    -3
390
F
  0
LAYER
  5
74
330
2
100
AcDbSymbolTableRecord
100
AcDbLayerTableRecord
  2
ВОДЯНЫЕ_ЗНАКИ
 70
     0
 62
    11
  6
Continuous
370
    -3
390
F
  0
LAYER
  5
75
330
2
100
AcDbSymbolTableRecord
100
AcDbLayerTableRecord
  2
ОСНОВНОЙ
 70
     0
 62
     7
  6
Continuous
370
    25
390
F
  0
LAYER
  5
76
330
2
100
AcDbSymbolTableRecord
100
AcDbLayerTableRecord
  2
FORMAT
 70
     0
 62
     7
  6
Continuous
370
    -3
390
F
  0
ENDTAB
  0
TABLE
  2
STYLE
  5
3
330
0
100
AcDbSymbolTable
 70
     1
  0
STYLE
  5
11
330
3
100
AcDbSymbolTableRecord
100
AcDbTextStyleTableRecord
  2
Standard
 70
     0
 40
0.0
 41
1.0
 50
0.0
 71
     0
 42
3.5
  3
txt
  4

  0
ENDTAB
  0
TABLE
  2
VIEW
  5
6
330
0
100
AcDbSymbolTable
 70
     0
  0
ENDTAB
  0
TABLE
  2
UCS
  5
7
330
0
100
AcDbSymbolTable
 70
     0
  0
ENDTAB
  0
TABLE
  2
APPID
  5
9
330
0
100
AcDbSymbolTable
 70
     1
  0
APPID
  5
12
330
9
100
AcDbSymbolTableRecord
100
AcDbRegAppTableRecord
  2
ACAD
 70
     0
  0
ENDTAB
  0
TABLE
  2
DIMSTYLE
  5
A
330
0
100
AcDbSymbolTable
 70
     1
100
AcDbDimStyleTable
  0
DIMSTYLE
105
27
330
A
100
AcDbSymbolTableRecord
100
AcDbDimStyleTableRecord
  2
ISO-25
 70
     0
 41
2.5
 42
0.625
 43
3.75
 44
1.25
 73
     0
 74
     0
 77
     1
 78
     8
140
2.5
141
2.5
143
0.0393700787
147
0.625
171
     3
172
     1
178
     0
271
     2
272
     2
274
     3
278
    44
283
     0
284
     8
340
11
  0
ENDTAB
  0
TABLE
  2
BLOCK_RECORD
  5
1
330
0
100
AcDbSymbolTable
 70
     1
  0
BLOCK_RECORD
  5
1F
330
1
100
AcDbSymbolTableRecord
100
AcDbBlockTableRecord
  2
*Model_Space
340
22
  0
BLOCK_RECORD
  5
1B
330
1
100
AcDbSymbolTableRecord
100
AcDbBlockTableRecord
  2
*Paper_Space
340
1E
  0
BLOCK_RECORD
  5
23
330
1
100
AcDbSymbolTableRecord
100
AcDbBlockTableRecord
  2
*Paper_Space0
340
26
  0
ENDTAB
  0
ENDSEC
  0
SECTION
  2
BLOCKS
  0
BLOCK
  5
20
330
1F
100
AcDbEntity
  8
0
100
AcDbBlockBegin
  2
*Model_Space
 70
     0
 10
0.0
 20
0.0
 30
0.0
  3
*Model_Space
  1

  0
ENDBLK
  5
21
330
1F
100
AcDbEntity
  8
0
100
AcDbBlockEnd
  0
BLOCK
  5
1C
330
1B
100
AcDbEntity
 67
     1
  8
0
100
AcDbBlockBegin
  2
*Paper_Space
 70
     0
 10
0.0
 20
0.0
 30
0.0
  3
*Paper_Space
  1

  0
ENDBLK
  5
1D
330
1B
100
AcDbEntity
 67
     1
  8
0
100
AcDbBlockEnd
  0
BLOCK
  5
24
330
23
100
AcDbEntity
  8
0
100
AcDbBlockBegin
  2
*Paper_Space0
 70
     0
 10
0.0
 20
0.0
 30
0.0
  3
*Paper_Space0
  1

  0
ENDBLK
  5
25
330
23
100
AcDbEntity
  8
0
100
AcDbBlockEnd
  0
ENDSEC
  0
SECTION
  2
ENTITIES
  0
ARC
  5
77
330
1F
100
AcDbEntity
  8
0
  6
Continuous
 62
     7
370
    25
100
AcDbCircle
 10
1223.9719566177
 20
469.7575050673
 30
0.0
 40
4.176571428571537
100
AcDbArc
 50
282.795595001
 51
318.333259686
  0
ARC
  5
78
330
1F
100
AcDbEntity
  8
0
  6
Continuous
 62
     7
370
    25
100
AcDbCircle
 10
1223.9719566177
 20
469.7575050673
 30
0.0
 40
4.176571428571367
100
AcDbArc
 50
221.666740314
 51
257.204404999
  0
ARC
  5
79
330
1F
100
AcDbEntity
  8
0
  6
Continuous
 62
     7
370
    25
100
AcDbCircle
 10
1223.9719566177
 20
644.6043622102
 30
0.0
 40
4.176571428571498
100
AcDbArc
 50
41.666740314
 51
77.204404999
  0
ARC
  5
7A
330
1F
100
AcDbEntity
  8
0
  6
Continuous
 62
     7
370
    25
100
AcDbCircle
 10
1223.9719566177
 20
644.6043622102
 30
0.0
 40
4.176571428571398
100
AcDbArc
 50
102.795595001
 51
138.333259686
  0
LINE
  5
7B
330
1F
100
AcDbEntity
  8
0
  6
Continuous
 62
     7
370
    25
100
AcDbLine
 10
1223.9719566177
 20
465.6846530079
 30
0.0
 11
1224.8969566177
 21
465.6846530079
 31
0.0
  0
LINE
  5
7C
330
1F
100
AcDbEntity
  8
0
  6
Continuous
 62
     7
370
    25
100
AcDbLine
 10
1223.0469566177
 20
465.6846530079
 30
0.0
 11
1223.9719566177
 21
465.6846530079
 31
0.0
  0
LINE
  5
7D
330
1F
100
AcDbEntity
  8
0
  6
Continuous
 62
     7
370
    25
100
AcDbLine
 10
1223.9719566177
 20
648.6772142696
 30
0.0
 11
1223.0469566177
 21
648.6772142696
 31
0.0
  0
LINE
  5
7E
330
1F
100
AcDbEntity
  8
0
  6
Continuous
 62
     7
370
    25
100
AcDbLine
 10
1224.8969566177
 20
648.6772142696
 30
0.0
 11
1223.9719566177
 21
648.6772142696
 31
0.0
  0
LINE
  5
7F
330
1F
100
AcDbEntity
  8
0
  6
Continuous
 62
     7
370
    25
100
AcDbLine
 10
31.2719566177
 20
468.4809336387
 30
0.0
 11
31.5255064925
 21
468.4809336387
 31
0.0
  0
LINE
  5
80
330
1F
100
AcDbEntity
  8
0
  6
Continuous
 62
     7
370
    25
100
AcDbLine
 10
31.2719566177
 20
468.8590308838
 30
0.0
 11
31.2719566177
 21
468.4809336387
 31
0.0
  0
LINE
  5
81
330
1F
100
AcDbEntity
  8
0
  6
Continuous
 62
     7
370
    25
100
AcDbLine
 10
31.5436883107
 20
645.4809336387
 30
0.0
 11
31.2938593726
 21
645.4809336387
 31
0.0
  0
SPLINE
  5
82
330
1F
100
AcDbEntity
  8
0
  6
Continuous
 62
     7
370
    25
100
AcDbSpline
210
0.0
220
0.0
230
1.0
 70
     8
 71
     3
 72
     9
 73
     5
 74
     0
 42
0.00000001
 43
0.00000001
 40
0.0
 40
0.0
 40
0.0
 40
0.0
 40
0.4999999999999558
 40
0.9999999999999999
 40
0.9999999999999999
 40
0.9999999999999999
 40
0.9999999999999999
 10
1230.457843878487
 20
468.9809336387275
 30
0.0
 10
1230.519535992987
 20
468.9586045393583
 30
0.0
 10
1230.642920221987
 20
468.9139463406198
 30
0.0
 10
1230.662277819135
 20
468.8692881418813
 30
0.0
 10
1230.67195661771
 20
468.846959042512
 30
0.0
  0
LINE
  5
83
330
1F
100
AcDbEntity
  8
0
  6
Continuous
 62
     7
370
    25
100
AcDbLine
 10
1229.6719566177
 20
644.9809336387
 30
0.0
 11
1229.6719566177
 21
468.9809336387
 31
0.0
  0
LINE
  5
84
330
1F
100
AcDbEntity
  8
0
  6
Continuous
 62
     7
370
    25
100
AcDbLine
 10
1230.4578438785
 20
644.9809336387
 30
0.0
 11
1229.6719566177
 21
644.9809336387
 31
0.0
  0
SPLINE
  5
85
330
1F
100
AcDbEntity
  8
0
  6
Continuous
 62
     7
370
    25
100
AcDbSpline
210
0.0
220
0.0
230
1.0
 70
     8
 71
     3
 72
     9
 73
     5
 74
     0
 42
0.00000001
 43
0.00000001
 40
0.0
 40
0.0
 40
0.0
 40
0.0
 40
0.500000000000018
 40
1.0
 40
1.0
 40
1.0
 40
1.0
 10
1230.67195661771
 20
645.1149082349431
 30
0.0
 10
1230.662277819136
 20
645.0925791355739
 30
0.0
 10
1230.642920221987
 20
645.0479209368353
 30
0.0
 10
1230.519535992987
 20
645.0032627380969
 30
0.0
 10
1230.457843878487
 20
644.9809336387275
 30
0.0
  0
LINE
  5
86
330
1F
100
AcDbEntity
  8
0
  6
Continuous
 62
     7
370
    25
100
AcDbLine
 10
1230.6719566177
 20
645.1149082349
 30
0.0
 11
1230.6719566177
 21
468.8469590425
 31
0.0
  0
LINE
  5
87
330
1F
100
AcDbEntity
  8
0
  6
Continuous
 62
     7
370
    25
100
AcDbLine
 10
1229.6719566177
 20
468.9809336387
 30
0.0
 11
1230.4578438785
 21
468.9809336387
 31
0.0
  0
LINE
  5
88
330
1F
100
AcDbEntity
  8
0
  6
Continuous
 62
     7
370
    25
100
AcDbLine
 10
1229.6719566177
 20
468.9809336387
 30
0.0
 11
1228.733789868
 21
468.9809336387
 31
0.0
  0
ARC
  5
89
330
1F
100
AcDbEntity
  8
0
  6
Continuous
 62
     7
370
    25
100
AcDbCircle
 10
1228.733789868
 20
469.9809336387
 30
0.0
 40
0.9999999999999762
100
AcDbArc
 50
228.0127875042
 51
270.0
  0
LINE
  5
8A
330
1F
100
AcDbEntity
  8
0
  6
Continuous
 62
     7
370
    25
100
AcDbLine
 10
1228.0648251364
 20
469.2376394925
 30
0.0
 11
1218.3500538628
 21
477.9809336387
 31
0.0
  0
LINE
  5
8B
330
1F
100
AcDbEntity
  8
0
  6
Continuous
 62
     7
370
    25
100
AcDbLine
 10
1218.3500538628
 20
477.9809336387
 30
0.0
 11
1218.3500538628
 21
635.9809336387
 31
0.0
  0
LINE
  5
8C
330
1F
100
AcDbEntity
  8
0
  6
Continuous
 62
     7
370
    25
100
AcDbLine
 10
1218.3500538628
 20
635.9809336387
 30
0.0
 11
1228.0648251364
 21
644.724227785
 31
0.0
  0
ARC
  5
8D
330
1F
100
AcDbEntity
  8
0
  6
Continuous
 62
     7
370
    25
100
AcDbCircle
 10
1228.733789868
 20
643.9809336387
 30
0.0
 40
1.000000000000128
100
AcDbArc
 50
90.0
 51
131.9872124958
  0
LINE
  5
8E
330
1F
100
AcDbEntity
  8
0
  6
Continuous
 62
     7
370
    25
100
AcDbLine
 10
1228.733789868
 20
644.9809336387
 30
0.0
 11
1229.6719566177
 21
644.9809336387
 31
0.0
  0
LINE
  5
8F
330
1F
100
AcDbEntity
  8
0
  6
Continuous
 62
     7
370
    25
100
AcDbLine
 10
1230.6719566177
 20
645.1149082349
 30
0.0
 11
1230.1719566177
 21
645.1149082349
 31
0.0
  0
SPLINE
  5
90
330
1F
100
AcDbEntity
  8
0
  6
Continuous
 62
     7
370
    25
100
AcDbSpline
210
0.0
220
0.0
230
1.0
 70
     8
 71
     3
 72
     9
 73
     5
 74
     0
 42
0.00000001
 43
0.00000001
 40
0.0
 40
0.0
 40
0.0
 40
0.0
 40
0.5000000000000042
 40
0.9999999999999999
 40
0.9999999999999999
 40
0.9999999999999999
 40
0.9999999999999999
 10
1230.171956617709
 20
645.1149082349431
 30
0.0
 10
1230.167117218422
 20
645.0925791355739
 30
0.0
 10
1230.157438419849
 20
645.0479209368353
 30
0.0
 10
1230.095746305348
 20
645.0032627380969
 30
0.0
 10
1230.064900248098
 20
644.9809336387275
 30
0.0
  0
LINE
  5
91
330
1F
100
AcDbEntity
  8
0
  6
Continuous
 62
     7
370
    25
100
AcDbLine
 10
1230.1719566177
 20
468.8469590425
 30
0.0
 11
1230.6719566177
 21
468.8469590425
 31
0.0
  0
SPLINE
  5
92
330
1F
100
AcDbEntity
  8
0
  6
Continuous
 62
     7
370
    25
100
AcDbSpline
210
0.0
220
0.0
230
1.0
 70
     8
 71
     3
 72
     9
 73
     5
 74
     0
 42
0.00000001
 43
0.00000001
 40
0.0
 40
0.0
 40
0.0
 40
0.0
 40
0.4999999999999791
 40
1.0
 40
1.0
 40
1.0
 40
1.0
 10
1230.064900248098
 20
468.9809336387275
 30
0.0
 10
1230.095746305348
 20
468.9586045393582
 30
0.0
 10
1230.157438419849
 20
468.9139463406197
 30
0.0
 10
1230.167117218422
 20
468.8692881418813
 30
0.0
 10
1230.171956617709
 20
468.846959042512
 30
0.0
  0
LINE
  5
93
330
1F
100
AcDbEntity
  8
0
  6
Continuous
 62
     7
370
    25
100
AcDbLine
 10
1230.6719566177
 20
468.4809336387
 30
0.0
 11
1230.6719566177
 21
468.8469590425
 31
0.0
  0
LINE
  5
94
330
1F
100
AcDbEntity
  8
0
  6
Continuous
 62
     7
370
    25
100
AcDbLine
 10
1230.6719566177
 20
468.4809336387
 30
0.0
 11
1230.1719566177
 21
468.4809336387
 31
0.0
  0
LINE
  5
95
330
1F
100
AcDbEntity
  8
0
  6
Continuous
 62
     7
370
    25
100
AcDbLine
 10
1230.1719566177
 20
468.4809336387
 30
0.0
 11
1230.1719566177
 21
468.8469590425
 31
0.0
  0
LINE
  5
96
330
1F
100
AcDbEntity
  8
0
  6
Continuous
 62
     7
370
    25
100
AcDbLine
 10
1230.1719566177
 20
645.4809336387
 30
0.0
 11
1230.6719566177
 21
645.4809336387
 31
0.0
  0
LINE
  5
97
330
1F
100
AcDbEntity
  8
0
  6
Continuous
 62
     7
370
    25
100
AcDbLine
 10
1230.1719566177
 20
645.1149082349
 30
0.0
 11
1230.1719566177
 21
645.4809336387
 31
0.0
  0
LINE
  5
98
330
1F
100
AcDbEntity
  8
0
  6
Continuous
 62
     7
370
    25
100
AcDbLine
 10
1230.6719566177
 20
645.1149082349
 30
0.0
 11
1230.6719566177
 21
645.4809336387
 31
0.0
  0
LINE
  5
99
330
1F
100
AcDbEntity
  8
0
  6
Continuous
 62
     7
370
    25
100
AcDbLine
 10
1230.0649002481
 20
468.1717487372
 30
0.0
 11
1230.4578438785
 21
467.8625638357
 31
0.0
  0
SPLINE
  5
9A
330
1F
100
AcDbEntity
  8
0
  6
Continuous
 62
     7
370
    25
100
AcDbSpline
210
0.0
220
0.0
230
1.0
 70
     8
 71
     3
 72
     9
 73
     5
 74
     0
 42
0.00000001
 43
0.00000001
 40
0.0
 40
0.0
 40
0.0
 40
0.0
 40
0.4999999999999918
 40
0.9999999999999999
 40
0.9999999999999999
 40
0.9999999999999999
 40
0.9999999999999999
 10
1230.171956617709
 20
468.4809336387275
 30
0.0
 10
1230.167117218422
 20
468.4249003729898
 30
0.0
 10
1230.157438419848
 20
468.3128338415141
 30
0.0
 10
1230.095746305348
 20
468.2187771052998
 30
0.0
 10
1230.064900248098
 20
468.1717487371927
 30
0.0
  0
SPLINE
  5
9B
330
1F
100
AcDbEntity
  8
0
  6
Continuous
 62
     7
370
    25
100
AcDbSpline
210
0.0
220
0.0
230
1.0
 70
     8
 71
     3
 72
     9
 73
     5
 74
     0
 42
0.00000001
 43
0.00000001
 40
0.0
 40
0.0
 40
0.0
 40
0.0
 40
0.5000000000000039
 40
1.0
 40
1.0
 40
1.0
 40
1.0
 10
1230.67195661771
 20
468.4809336387275
 30
0.0
 10
1230.662277819135
 20
468.3688671072519
 30
0.0
 10
1230.642920221987
 20
468.1447340443007
 30
0.0
 10
1230.519535992987
 20
467.9566205718721
 30
0.0
 10
1230.457843878487
 20
467.8625638356579
 30
0.0
  0
LINE
  5
9C
330
1F
100
AcDbEntity
  8
0
  6
Continuous
 62
     7
370
    25
100
AcDbLine
 10
1230.0649002481
 20
645.7901185403
 30
0.0
 11
1230.4578438785
 21
646.0993034418
 31
0.0
  0
SPLINE
  5
9D
330
1F
100
AcDbEntity
  8
0
  6
Continuous
 62
     7
370
    25
100
AcDbSpline
210
0.0
220
0.0
230
1.0
 70
     8
 71
     3
 72
     9
 73
     5
 74
     0
 42
0.00000001
 43
0.00000001
 40
0.0
 40
0.0
 40
0.0
 40
0.0
 40
0.5000000000000062
 40
1.0
 40
1.0
 40
1.0
 40
1.0
 10
1230.064900248098
 20
645.7901185402624
 30
0.0
 10
1230.095746305348
 20
645.7430901721552
 30
0.0
 10
1230.157438419849
 20
645.649033435941
 30
0.0
 10
1230.167117218423
 20
645.5369669044654
 30
0.0
 10
1230.171956617709
 20
645.4809336387275
 30
0.0
  0
SPLINE
  5
9E
330
1F
100
AcDbEntity
  8
0
  6
Continuous
 62
     7
370
    25
100
AcDbSpline
210
0.0
220
0.0
230
1.0
 70
     8
 71
     3
 72
     9
 73
     5
 74
     0
 42
0.00000001
 43
0.00000001
 40
0.0
 40
0.0
 40
0.0
 40
0.0
 40
0.5000000000000133
 40
1.0
 40
1.0
 40
1.0
 40
1.0
 10
1230.457843878487
 20
646.0993034417974
 30
0.0
 10
1230.519535992987
 20
646.005246705583
 30
0.0
 10
1230.642920221987
 20
645.8171332331543
 30
0.0
 10
1230.662277819135
 20
645.5930001702031
 30
0.0
 10
1230.67195661771
 20
645.4809336387275
 30
0.0
  0
LINE
  5
9F
330
1F
100
AcDbEntity
  8
0
  6
Continuous
 62
     7
370
    25
100
AcDbLine
 10
1229.6719566177
 20
645.9809336387
 30
0.0
 11
1229.6719566177
 21
646.4809336387
 31
0.0
  0
ARC
  5
A0
330
1F
100
AcDbEntity
  8
0
  6
Continuous
 62
     7
370
    25
100
AcDbCircle
 10
1229.6719566177
 20
645.4809336387
 30
0.0
 40
0.5000000000001137
100
AcDbArc
 50
38.1971863421
 51
90.0
  0
ARC
  5
A1
330
1F
100
AcDbEntity
  8
0
  6
Continuous
 62
     7
370
    25
100
AcDbCircle
 10
1229.6719566177
 20
645.4809336387
 30
0.0
 40
1.000000000000057
100
AcDbArc
 50
38.1971863421
 51
90.0
  0
ARC
  5
A2
330
1F
100
AcDbEntity
  8
0
  6
Continuous
 62
     7
370
    25
100
AcDbCircle
 10
1229.6719566177
 20
468.4809336387
 30
0.0
 40
0.5
100
AcDbArc
 50
270.0
 51
321.8028136579
  0
ARC
  5
A3
330
1F
100
AcDbEntity
  8
0
  6
Continuous
 62
     7
370
    25
100
AcDbCircle
 10
1229.6719566177
 20
468.4809336387
 30
0.0
 40
0.9999999999999976
100
AcDbArc
 50
287.4576031237
 51
321.8028136579
  0
LINE
  5
A4
330
1F
100
AcDbEntity
  8
0
  6
Continuous
 62
     7
370
    25
100
AcDbLine
 10
1229.6719566177
 20
645.9809336387
 30
0.0
 11
1229.3739477772
 21
645.9809336387
 31
0.0
  0
LINE
  5
A5
330
1F
100
AcDbEntity
  8
0
  6
Continuous
 62
     7
370
    25
100
AcDbLine
 10
1229.6719566177
 20
646.4809336387
 30
0.0
 11
1229.3500538628
 21
646.4809336387
 31
0.0
  0
LINE
  5
A6
330
1F
100
AcDbEntity
  8
0
  6
Continuous
 62
     7
370
    25
100
AcDbLine
 10
1229.4103114136
 20
467.9809336387
 30
0.0
 11
1229.6719566177
 21
467.9809336387
 31
0.0
  0
LINE
  5
A7
330
1F
100
AcDbEntity
  8
0
  6
Continuous
 62
     7
370
    25
100
AcDbLine
 10
30.5367190444
 20
646.1809336387
 30
0.0
 11
29.7719566177
 21
646.1809336387
 31
0.0
  0
LINE
  5
A8
330
1F
100
AcDbEntity
  8
0
  6
Continuous
 62
     7
370
    25
100
AcDbLine
 10
30.7719566177
 20
646.0028363936
 30
0.0
 11
30.5367190444
 21
646.1809336387
 31
0.0
  0
LINE
  5
A9
330
1F
100
AcDbEntity
  8
0
  6
Continuous
 62
     7
370
    25
100
AcDbLine
 10
30.7719566177
 20
468.3590308838
 30
0.0
 11
30.7719566177
 21
646.0028363936
 31
0.0
  0
LINE
  5
AA
330
1F
100
AcDbEntity
  8
0
  6
Continuous
 62
     7
370
    25
100
AcDbLine
 10
30.5367190444
 20
468.1809336387
 30
0.0
 11
30.7719566177
 21
468.3590308838
 31
0.0
  0
LINE
  5
AB
330
1F
100
AcDbEntity
  8
0
  6
Continuous
 62
     7
370
    25
100
AcDbLine
 10
29.7719566177
 20
468.1809336387
 30
0.0
 11
30.5367190444
 21
468.1809336387
 31
0.0
  0
LINE
  5
AC
330
1F
100
AcDbEntity
  8
0
  6
Continuous
 62
     7
370
    25
100
AcDbLine
 10
29.7719566177
 20
468.1809336387
 30
0.0
 11
29.7719566177
 21
646.1809336387
 31
0.0
  0
LINE
  5
AD
330
1F
100
AcDbEntity
  8
0
  6
Continuous
 62
     7
370
    25
100
AcDbLine
 10
30.6543378311
 20
646.1809336387
 30
0.0
 11
30.5367190444
 21
646.1809336387
 31
0.0
  0
LINE
  5
AE
330
1F
100
AcDbEntity
  8
0
  6
Continuous
 62
     7
370
    25
100
AcDbLine
 10
30.7719566177
 20
646.0028363936
 30
0.0
 11
30.6543378311
 21
646.1809336387
 31
0.0
  0
LINE
  5
AF
330
1F
100
AcDbEntity
  8
0
  6
Continuous
 62
     7
370
    25
100
AcDbLine
 10
40.5938593726
 20
636.1809336387
 30
0.0
 11
40.5938593726
 21
478.1809336387
 31
0.0
  0
LINE
  5
B0
330
1F
100
AcDbEntity
  8
0
  6
Continuous
 62
     7
370
    25
100
AcDbLine
 10
40.5938593726
 20
478.1809336387
 30
0.0
 11
30.7719566177
 21
468.3590308838
 31
0.0
  0
LINE
  5
B1
330
1F
100
AcDbEntity
  8
0
  6
Continuous
 62
     7
370
    25
100
AcDbLine
 10
30.7719566177
 20
646.0028363936
 30
0.0
 11
40.5938593726
 21
636.1809336387
 31
0.0
  0
LINE
  5
B2
330
1F
100
AcDbEntity
  8
0
  6
Continuous
 62
     7
370
    25
100
AcDbLine
 10
30.6543378311
 20
468.1809336387
 30
0.0
 11
30.7719566177
 21
468.3590308838
 31
0.0
  0
LINE
  5
B3
330
1F
100
AcDbEntity
  8
0
  6
Continuous
 62
     7
370
    25
100
AcDbLine
 10
30.6543378311
 20
468.1809336387
 30
0.0
 11
30.5367190444
 21
468.1809336387
 31
0.0
  0
LINE
  5
B4
330
1F
100
AcDbEntity
  8
0
  6
Continuous
 62
     7
370
    25
100
AcDbLine
 10
40.5938593726
 20
478.3028363936
 30
0.0
 11
1218.3500538628
 21
478.3028363936
 31
0.0
  0
LINE
  5
B5
330
1F
100
AcDbEntity
  8
0
  6
Continuous
 62
     7
370
    25
100
AcDbLine
 10
1229.3194023227
 20
468.9809336387
 30
0.0
 11
1229.4103114136
 21
467.9809336387
 31
0.0
  0
LINE
  5
B6
330
1F
100
AcDbEntity
  8
0
  6
Continuous
 62
     7
370
    25
100
AcDbLine
 10
1229.4103114136
 20
467.9809336387
 30
0.0
 11
31.5027792198
 21
467.9809336387
 31
0.0
  0
LINE
  5
B7
330
1F
100
AcDbEntity
  8
0
  6
Continuous
 62
     7
370
    25
100
AcDbLine
 10
31.5027792198
 20
467.9809336387
 30
0.0
 11
31.5555849268
 21
469.1426591929
 31
0.0
  0
SPLINE
  5
B8
330
1F
100
AcDbEntity
  8
0
  6
Continuous
 62
     7
370
    25
100
AcDbSpline
210
0.0
220
0.0
230
1.0
 70
     8
 71
     3
 72
    11
 73
     7
 74
     0
 42
0.00000001
 43
0.00000001
 40
0.0
 40
0.0
 40
0.0
 40
0.0
 40
0.2500000000000007
 40
0.4999999999999954
 40
0.7500000000000061
 40
1.0
 40
1.0
 40
1.0
 40
1.0
 10
31.50277921975908
 20
467.9809336387278
 30
0.0
 10
31.50021066958819
 20
467.9055505969375
 30
0.0
 10
31.49507356924652
 20
467.7547845133568
 30
0.0
 10
31.4873679187343
 20
467.5408543293723
 30
0.0
 10
31.4796622682213
 20
467.3464567467467
 30
0.0
 10
31.47452516787996
 20
467.2455165008828
 30
0.0
 10
31.4719566177093
 20
467.1950463779509
 30
0.0
  0
LINE
  5
B9
330
1F
100
AcDbEntity
  8
0
  6
Continuous
 62
     7
370
    25
100
AcDbLine
 10
31.4719566177
 20
467.5879900083
 30
0.0
 11
31.4719566177
 21
467.195046378
 31
0.0
  0
SPLINE
  5
BA
330
1F
100
AcDbEntity
  8
0
  6
Continuous
 62
     7
370
    25
100
AcDbSpline
210
0.0
220
0.0
230
1.0
 70
     8
 71
     3
 72
    11
 73
     7
 74
     0
 42
0.00000001
 43
0.00000001
 40
0.0
 40
0.0
 40
0.0
 40
0.0
 40
0.2500000000000013
 40
0.5000000000000072
 40
0.7500000000000305
 40
1.0
 40
1.0
 40
1.0
 40
1.0
 10
31.50277921975908
 20
467.9809336387278
 30
0.0
 10
31.50021066958819
 20
467.9432421178327
 30
0.0
 10
31.49507356924641
 20
467.8678590760424
 30
0.0
 10
31.48736791873419
 20
467.7608939840501
 30
0.0
 10
31.47966226822141
 20
467.6636951927372
 30
0.0
 10
31.47452516788018
 20
467.6132250698054
 30
0.0
 10
31.4719566177093
 20
467.5879900083393
 30
0.0
  0
LINE
  5
BB
330
1F
100
AcDbEntity
  8
0
  6
Continuous
 62
     7
370
    25
100
AcDbLine
 10
1229.9719566177
 20
466.9809336387
 30
0.0
 11
30.9719566177
 21
466.9809336387
 31
0.0
  0
LINE
  5
BC
330
1F
100
AcDbEntity
  8
0
  6
Continuous
 62
     7
370
    25
100
AcDbLine
 10
30.9719566177
 20
467.195046378
 30
0.0
 11
30.9719566177
 21
466.9809336387
 31
0.0
  0
LINE
  5
BD
330
1F
100
AcDbEntity
  8
0
  6
Continuous
 62
     7
370
    25
100
AcDbLine
 10
31.4719566177
 20
467.195046378
 30
0.0
 11
30.9719566177
 21
467.195046378
 31
0.0
  0
SPLINE
  5
BE
330
1F
100
AcDbEntity
  8
0
  6
Continuous
 62
     7
370
    25
100
AcDbSpline
210
0.0
220
0.0
230
1.0
 70
     8
 71
     3
 72
    11
 73
     7
 74
     0
 42
0.00000001
 43
0.00000001
 40
0.0
 40
0.0
 40
0.0
 40
0.0
 40
0.249999999999992
 40
0.5000000000000094
 40
0.7500000000000105
 40
1.0
 40
1.0
 40
1.0
 40
1.0
 10
1229.471956617709
 20
467.1950463779508
 30
0.0
 10
1229.466819517368
 20
467.2455165008827
 30
0.0
 10
1229.456545316684
 20
467.3464567467467
 30
0.0
 10
1229.44113401566
 20
467.5408543293723
 30
0.0
 10
1229.425722714634
 20
467.7547845133568
 30
0.0
 10
1229.415448513951
 20
467.9055505969374
 30
0.0
 10
1229.41031141361
 20
467.9809336387277
 30
0.0
  0
LINE
  5
BF
330
1F
100
AcDbEntity
  8
0
  6
Continuous
 62
     7
370
    25
100
AcDbLine
 10
1229.9719566177
 20
467.195046378
 30
0.0
 11
1229.4719566177
 21
467.195046378
 31
0.0
  0
LINE
  5
C0
330
1F
100
AcDbEntity
  8
0
  6
Continuous
 62
     7
370
    25
100
AcDbLine
 10
1229.9719566177
 20
466.9809336387
 30
0.0
 11
1229.9719566177
 21
467.195046378
 31
0.0
  0
SPLINE
  5
C1
330
1F
100
AcDbEntity
  8
0
  6
Continuous
 62
     7
370
    25
100
AcDbSpline
210
0.0
220
0.0
230
1.0
 70
     8
 71
     3
 72
    11
 73
     7
 74
     0
 42
0.00000001
 43
0.00000001
 40
0.0
 40
0.0
 40
0.0
 40
0.0
 40
0.2500000000000068
 40
0.4999999999999954
 40
0.7500000000000049
 40
1.0
 40
1.0
 40
1.0
 40
1.0
 10
1229.41031141361
 20
646.3809336387276
 30
0.0
 10
1229.415448513951
 20
646.4563166805181
 30
0.0
 10
1229.425722714635
 20
646.6070827640988
 30
0.0
 10
1229.441134015659
 20
646.8210129480833
 30
0.0
 10
1229.456545316684
 20
647.0154105307091
 30
0.0
 10
1229.466819517368
 20
647.116350776573
 30
0.0
 10
1229.471956617709
 20
647.166820899505
 30
0.0
  0
LINE
  5
C2
330
1F
100
AcDbEntity
  8
0
  6
Continuous
 62
     7
370
    25
100
AcDbLine
 10
1229.4719566177
 20
646.7738772691
 30
0.0
 11
1229.4719566177
 21
647.1668208995
 31
0.0
  0
SPLINE
  5
C3
330
1F
100
AcDbEntity
  8
0
  6
Continuous
 62
     7
370
    25
100
AcDbSpline
210
0.0
220
0.0
230
1.0
 70
     8
 71
     3
 72
    11
 73
     7
 74
     0
 42
0.00000001
 43
0.00000001
 40
0.0
 40
0.0
 40
0.0
 40
0.0
 40
0.2499999999999893
 40
0.5000000000000018
 40
0.7499999999999912
 40
0.9999999999999999
 40
0.9999999999999999
 40
0.9999999999999999
 40
0.9999999999999999
 10
1229.41031141361
 20
646.3809336387276
 30
0.0
 10
1229.415448513951
 20
646.4186251596229
 30
0.0
 10
1229.425722714635
 20
646.4940082014132
 30
0.0
 10
1229.441134015659
 20
646.6009732934054
 30
0.0
 10
1229.456545316684
 20
646.6981720847184
 30
0.0
 10
1229.466819517368
 20
646.7486422076503
 30
0.0
 10
1229.471956617709
 20
646.7738772691163
 30
0.0
  0
LINE
  5
C4
330
1F
100
AcDbEntity
  8
0
  6
Continuous
 62
     7
370
    25
100
AcDbLine
 10
30.9719566177
 20
647.3809336387
 30
0.0
 11
30.9719566177
 21
647.1668208995
 31
0.0
  0
LINE
  5
C5
330
1F
100
AcDbEntity
  8
0
  6
Continuous
 62
     7
370
    25
100
AcDbLine
 10
1229.9719566177
 20
647.3809336387
 30
0.0
 11
30.9719566177
 21
647.3809336387
 31
0.0
  0
LINE
  5
C6
330
1F
100
AcDbEntity
  8
0
  6
Continuous
 62
     7
370
    25
100
AcDbLine
 10
1229.9719566177
 20
647.1668208995
 30
0.0
 11
1229.9719566177
 21
647.3809336387
 31
0.0
  0
LINE
  5
C7
330
1F
100
AcDbEntity
  8
0
  6
Continuous
 62
     7
370
    25
100
AcDbLine
 10
1229.4719566177
 20
647.1668208995
 30
0.0
 11
1229.9719566177
 21
647.1668208995
 31
0.0
  0
LINE
  5
C8
330
1F
100
AcDbEntity
  8
0
  6
Continuous
 62
     7
370
    25
100
AcDbLine
 10
1229.4103114136
 20
646.3809336387
 30
0.0
 11
31.5027792198
 21
646.3809336387
 31
0.0
  0
SPLINE
  5
C9
330
1F
100
AcDbEntity
  8
0
  6
Continuous
 62
     7
370
    25
100
AcDbSpline
210
0.0
220
0.0
230
1.0
 70
     8
 71
     3
 72
    11
 73
     7
 74
     0
 42
0.00000001
 43
0.00000001
 40
0.0
 40
0.0
 40
0.0
 40
0.0
 40
0.2499999999999988
 40
0.4999999999999964
 40
0.7500000000000092
 40
1.0
 40
1.0
 40
1.0
 40
1.0
 10
31.47195661770908
 20
647.1668208995045
 30
0.0
 10
31.47452516787985
 20
647.1163507765725
 30
0.0
 10
31.47966226822141
 20
647.0154105307087
 30
0.0
 10
31.48736791873397
 20
646.821012948083
 30
0.0
 10
31.49507356924652
 20
646.6070827640985
 30
0.0
 10
31.50021066958819
 20
646.4563166805178
 30
0.0
 10
31.50277921975897
 20
646.3809336387275
 30
0.0
  0
LINE
  5
CA
330
1F
100
AcDbEntity
  8
0
  6
Continuous
 62
     7
370
    25
100
AcDbLine
 10
30.9719566177
 20
647.1668208995
 30
0.0
 11
31.4719566177
 21
647.1668208995
 31
0.0
  0
LINE
  5
CB
330
1F
100
AcDbEntity
  8
0
  6
Continuous
 62
     7
370
    25
100
AcDbLine
 10
1218.4368285796
 20
636.0590308838
 30
0.0
 11
40.5938593726
 21
636.0590308838
 31
0.0
  0
LINE
  5
CC
330
1F
100
AcDbEntity
  8
0
  6
Continuous
 62
     7
370
    25
100
AcDbLine
 10
31.5555849268
 20
645.2192080846
 30
0.0
 11
31.5027792198
 21
646.3809336387
 31
0.0
  0
LINE
  5
CD
330
1F
100
AcDbEntity
  8
0
  6
Continuous
 62
     7
370
    25
100
AcDbLine
 10
1229.4103114136
 20
646.3809336387
 30
0.0
 11
1229.2830386863
 21
644.9809336387
 31
0.0
  0
SPLINE
  5
CE
330
1F
100
AcDbEntity
  8
0
  6
Continuous
 62
     7
370
    25
100
AcDbSpline
210
0.0
220
0.0
230
1.0
 70
     8
 71
     3
 72
    11
 73
     7
 74
     0
 42
0.00000001
 43
0.00000001
 40
0.0
 40
0.0
 40
0.0
 40
0.0
 40
0.2499999999999947
 40
0.5000000000000107
 40
0.7500000000000088
 40
1.0
 40
1.0
 40
1.0
 40
1.0
 10
1229.471956617709
 20
467.5879900083393
 30
0.0
 10
1229.466819517368
 20
467.6132250698053
 30
0.0
 10
1229.456545316684
 20
467.6636951927372
 30
0.0
 10
1229.441134015659
 20
467.76089398405
 30
0.0
 10
1229.425722714634
 20
467.8678590760422
 30
0.0
 10
1229.415448513951
 20
467.9432421178325
 30
0.0
 10
1229.41031141361
 20
467.9809336387277
 30
0.0
  0
LINE
  5
CF
330
1F
100
AcDbEntity
  8
0
  6
Continuous
 62
     7
370
    25
100
AcDbLine
 10
1229.4719566177
 20
467.5879900083
 30
0.0
 11
1229.4719566177
 21
467.195046378
 31
0.0
  0
LINE
  5
D0
330
1F
100
AcDbEntity
  8
0
  6
Continuous
 62
     7
370
    25
100
AcDbLine
 10
31.4719566177
 20
646.7738772691
 30
0.0
 11
31.4719566177
 21
647.1668208995
 31
0.0
  0
SPLINE
  5
D1
330
1F
100
AcDbEntity
  8
0
  6
Continuous
 62
     7
370
    25
100
AcDbSpline
210
0.0
220
0.0
230
1.0
 70
     8
 71
     3
 72
    11
 73
     7
 74
     0
 42
0.00000001
 43
0.00000001
 40
0.0
 40
0.0
 40
0.0
 40
0.0
 40
0.2500000000000072
 40
0.5000000000000023
 40
0.7499999999999963
 40
1.0
 40
1.0
 40
1.0
 40
1.0
 10
31.47195661770908
 20
646.7738772691159
 30
0.0
 10
31.47452516787985
 20
646.74864220765
 30
0.0
 10
31.47966226822152
 20
646.6981720847181
 30
0.0
 10
31.48736791873386
 20
646.6009732934052
 30
0.0
 10
31.49507356924664
 20
646.494008201413
 30
0.0
 10
31.50021066958808
 20
646.4186251596227
 30
0.0
 10
31.50277921975897
 20
646.3809336387275
 30
0.0
  0
LINE
  5
D2
330
1F
100
AcDbEntity
  8
0
  6
Continuous
 62
     7
370
    25
100
AcDbLine
 10
30.9719566177
 20
467.5879900083
 30
0.0
 11
30.9719566177
 21
467.195046378
 31
0.0
  0
LINE
  5
D3
330
1F
100
AcDbEntity
  8
0
  6
Continuous
 62
     7
370
    25
100
AcDbLine
 10
31.4719566177
 20
467.5879900083
 30
0.0
 11
30.9719566177
 21
467.5879900083
 31
0.0
  0
LINE
  5
D4
330
1F
100
AcDbEntity
  8
0
  6
Continuous
 62
     7
370
    25
100
AcDbLine
 10
1229.9719566177
 20
467.5879900083
 30
0.0
 11
1229.9719566177
 21
467.195046378
 31
0.0
  0
LINE
  5
D5
330
1F
100
AcDbEntity
  8
0
  6
Continuous
 62
     7
370
    25
100
AcDbLine
 10
1229.9719566177
 20
467.5879900083
 30
0.0
 11
1229.4719566177
 21
467.5879900083
 31
0.0
  0
LINE
  5
D6
330
1F
100
AcDbEntity
  8
0
  6
Continuous
 62
     7
370
    25
100
AcDbLine
 10
30.9719566177
 20
646.7738772691
 30
0.0
 11
31.4719566177
 21
646.7738772691
 31
0.0
  0
LINE
  5
D7
330
1F
100
AcDbEntity
  8
0
  6
Continuous
 62
     7
370
    25
100
AcDbLine
 10
30.9719566177
 20
646.7738772691
 30
0.0
 11
30.9719566177
 21
647.1668208995
 31
0.0
  0
LINE
  5
D8
330
1F
100
AcDbEntity
  8
0
  6
Continuous
 62
     7
370
    25
100
AcDbLine
 10
1229.9719566177
 20
646.7738772691
 30
0.0
 11
1229.9719566177
 21
647.1668208995
 31
0.0
  0
LINE
  5
D9
330
1F
100
AcDbEntity
  8
0
  6
Continuous
 62
     7
370
    25
100
AcDbLine
 10
1229.4719566177
 20
646.7738772691
 30
0.0
 11
1229.9719566177
 21
646.7738772691
 31
0.0
  0
SPLINE
  5
DA
330
1F
100
AcDbEntity
  8
0
  6
Continuous
 62
     7
370
    25
100
AcDbSpline
210
0.0
220
0.0
230
1.0
 70
     8
 71
     3
 72
    11
 73
     7
 74
     0
 42
0.00000001
 43
0.00000001
 40
0.0
 40
0.0
 40
0.0
 40
0.0
 40
0.2499999999999972
 40
0.500000000000004
 40
0.7500000000000008
 40
1.0
 40
1.0
 40
1.0
 40
1.0
 10
30.97195661770946
 20
467.480933638732
 30
0.0
 10
30.88023068704537
 20
467.4914557396831
 30
0.0
 10
30.69677882571709
 20
467.5124999415853
 30
0.0
 10
30.46539736974951
 20
467.6743743907703
 30
0.0
 10
30.30352292056371
 20
467.9057558467372
 30
0.0
 10
30.28247871866096
 20
468.0892077080654
 30
0.0
 10
30.27195661770943
 20
468.1809336387295
 30
0.0
  0
SPLINE
  5
DB
330
1F
100
AcDbEntity
  8
0
  6
Continuous
 62
     7
370
    25
100
AcDbSpline
210
0.0
220
0.0
230
1.0
 70
     8
 71
     3
 72
    11
 73
     7
 74
     0
 42
0.00000001
 43
0.00000001
 40
0.0
 40
0.0
 40
0.0
 40
0.0
 40
0.2499999999999782
 40
0.500000000000003
 40
0.749999999999995
 40
1.0
 40
1.0
 40
1.0
 40
1.0
 10
30.97195661770946
 20
466.980933638732
 30
0.0
 10
30.81471216514231
 20
466.9989715260768
 30
0.0
 10
30.50022326000801
 20
467.0350473007662
 30
0.0
 10
30.10356933549252
 20
467.3125463565117
 30
0.0
 10
29.82607027974527
 20
467.7092002810265
 30
0.0
 10
29.78999450505471
 20
468.0236891861605
 30
0.0
 10
29.77195661770948
 20
468.1809336387277
 30
0.0
  0
SPLINE
  5
DC
330
1F
100
AcDbEntity
  8
0
  6
Continuous
 62
     7
370
    25
100
AcDbSpline
210
0.0
220
0.0
230
1.0
 70
     8
 71
     3
 72
    11
 73
     7
 74
     0
 42
0.00000001
 43
0.00000001
 40
0.0
 40
0.0
 40
0.0
 40
0.0
 40
0.25
 40
0.4999999999999822
 40
0.7500000000000141
 40
1.0
 40
1.0
 40
1.0
 40
1.0
 10
30.27195661770932
 20
646.1809336387277
 30
0.0
 10
30.28247871866041
 20
646.272659569392
 30
0.0
 10
30.3035229205626
 20
646.4561114307207
 30
0.0
 10
30.46539736974852
 20
646.6874928866885
 30
0.0
 10
30.6967788257162
 20
646.8493673358741
 30
0.0
 10
30.88023068704504
 20
646.8704115377765
 30
0.0
 10
30.97195661770935
 20
646.8809336387276
 30
0.0
  0
SPLINE
  5
DD
330
1F
100
AcDbEntity
  8
0
  6
Continuous
 62
     7
370
    25
100
AcDbSpline
210
0.0
220
0.0
230
1.0
 70
     8
 71
     3
 72
    11
 73
     7
 74
     0
 42
0.00000001
 43
0.00000001
 40
0.0
 40
0.0
 40
0.0
 40
0.0
 40
0.2499999999999944
 40
0.4999999999999806
 40
0.7500000000000194
 40
1.0
 40
1.0
 40
1.0
 40
1.0
 10
29.77195661770937
 20
646.1809336387277
 30
0.0
 10
29.78999450505404
 20
646.3381780912952
 30
0.0
 10
29.82607027974371
 20
646.6526669964301
 30
0.0
 10
30.10356933549041
 20
647.0493209209465
 30
0.0
 10
30.50022326000701
 20
647.3268199766932
 30
0.0
 10
30.81471216514198
 20
647.3628957513828
 30
0.0
 10
30.97195661770935
 20
647.3809336387275
 30
0.0
  0
LINE
  5
DE
330
1F
100
AcDbEntity
  8
0
  6
Continuous
 62
     7
370
    25
100
AcDbLine
 10
1231.1719566177
 20
646.1809336387
 30
0.0
 11
1230.6719566177
 21
646.1809336387
 31
0.0
  0
LINE
  5
DF
330
1F
100
AcDbEntity
  8
0
  6
Continuous
 62
     7
370
    25
100
AcDbLine
 10
1230.6719566177
 20
468.1809336387
 30
0.0
 11
1230.6719566177
 21
468.4809336387
 31
0.0
  0
LINE
  5
E0
330
1F
100
AcDbEntity
  8
0
  6
Continuous
 62
     7
370
    25
100
AcDbLine
 10
1230.6719566177
 20
645.4809336387
 30
0.0
 11
1230.6719566177
 21
646.1809336387
 31
0.0
  0
LINE
  5
E1
330
1F
100
AcDbEntity
  8
0
  6
Continuous
 62
     7
370
    25
100
AcDbLine
 10
1231.1719566177
 20
468.1809336387
 30
0.0
 11
1230.6719566177
 21
468.1809336387
 31
0.0
  0
LINE
  5
E2
330
1F
100
AcDbEntity
  8
0
  6
Continuous
 62
     7
370
    25
100
AcDbLine
 10
1231.1719566177
 20
468.1809336387
 30
0.0
 11
1231.1719566177
 21
646.1809336387
 31
0.0
  0
SPLINE
  5
E3
330
1F
100
AcDbEntity
  8
0
  6
Continuous
 62
     7
370
    25
100
AcDbSpline
210
0.0
220
0.0
230
1.0
 70
     8
 71
     3
 72
     9
 73
     5
 74
     0
 42
0.00000001
 43
0.00000001
 40
0.0
 40
0.0
 40
0.0
 40
0.0
 40
0.8939028392094853
 40
1.0
 40
1.0
 40
1.0
 40
1.0
 10
1229.971956617709
 20
646.5325794469503
 30
0.0
 10
1229.89073224882
 20
646.5236417080123
 30
0.0
 10
1229.799867374779
 20
646.5136431505113
 30
0.0
 10
1229.718640627059
 20
646.4770829270055
 30
0.0
 10
1229.710022699745
 20
646.4732039910938
 30
0.0
  0
SPLINE
  5
E4
330
1F
100
AcDbEntity
  8
0
  6
Continuous
 62
     7
370
    25
100
AcDbSpline
210
0.0
220
0.0
230
1.0
 70
     8
 71
     3
 72
    11
 73
     7
 74
     0
 42
0.00000001
 43
0.00000001
 40
0.0
 40
0.0
 40
0.0
 40
0.0
 40
0.234972212677281
 40
0.327735052106609
 40
0.4088708125535875
 40
1.0
 40
1.0
 40
1.0
 40
1.0
 10
31.47195661770919
 20
646.1809336387278
 30
0.0
 10
31.45896833055717
 20
646.2324900596344
 30
0.0
 10
31.4408524992511
 20
646.3044000361366
 30
0.0
 10
31.39233430345534
 20
646.3809792569235
 30
0.0
 10
31.26278824333717
 20
646.4904291720777
 30
0.0
 10
31.10803375922211
 20
646.5128577646666
 30
0.0
 10
30.97195661770924
 20
646.5325794469501
 30
0.0
  0
LINE
  5
E5
330
1F
100
AcDbEntity
  8
0
  6
Continuous
 62
     7
370
    25
100
AcDbLine
 10
1229.9719566177
 20
646.7738772691
 30
0.0
 11
1229.9719566177
 21
646.532579447
 31
0.0
  0
LINE
  5
E6
330
1F
100
AcDbEntity
  8
0
  6
Continuous
 62
     7
370
    25
100
AcDbLine
 10
30.9719566177
 20
646.532579447
 30
0.0
 11
30.9719566177
 21
646.7738772691
 31
0.0
  0
LINE
  5
E7
330
1F
100
AcDbEntity
  8
0
  6
Continuous
 62
     7
370
    25
100
AcDbLine
 10
1230.3860994606
 20
646.1809336387
 30
0.0
 11
1230.6719566177
 21
646.1809336387
 31
0.0
  0
SPLINE
  5
E8
330
1F
100
AcDbEntity
  8
0
  6
Continuous
 62
     7
370
    25
100
AcDbSpline
210
0.0
220
0.0
230
1.0
 70
     8
 71
     3
 72
    12
 73
     8
 74
     0
 42
0.00000001
 43
0.00000001
 40
0.0
 40
0.0
 40
0.0
 40
0.0
 40
0.3588037909423603
 40
0.5752394285271031
 40
0.6544863257258858
 40
0.7503396585716102
 40
1.0
 40
1.0
 40
1.0
 40
1.0
 10
1230.323602425932
 20
468.1809336387278
 30
0.0
 10
1230.310113590279
 20
468.2595455294386
 30
0.0
 10
1230.288488093816
 20
468.3855772499206
 30
0.0
 10
1230.241742450153
 20
468.529369151925
 30
0.0
 10
1230.179175612753
 20
468.5890527350726
 30
0.0
 10
1230.099820620575
 20
468.6384356837538
 30
0.0
 10
1230.025592310414
 20
468.6631068289732
 30
0.0
 10
1229.971956617709
 20
468.6809336387278
 30
0.0
  0
LINE
  5
E9
330
1F
100
AcDbEntity
  8
0
  6
Continuous
 62
     7
370
    25
100
AcDbLine
 10
1230.6719566177
 20
468.1809336387
 30
0.0
 11
1230.3236024259
 21
468.1809336387
 31
0.0
  0
LINE
  5
EA
330
1F
100
AcDbEntity
  8
0
  6
Continuous
 62
     7
370
    25
100
AcDbLine
 10
30.9719566177
 20
467.5879900083
 30
0.0
 11
30.9719566177
 21
467.8292878305
 31
0.0
  0
SPLINE
  5
EB
330
1F
100
AcDbEntity
  8
0
  6
Continuous
 62
     7
370
    25
100
AcDbSpline
210
0.0
220
0.0
230
1.0
 70
     8
 71
     3
 72
    12
 73
     8
 74
     0
 42
0.00000001
 43
0.00000001
 40
0.0
 40
0.0
 40
0.0
 40
0.0
 40
0.3588037912016214
 40
0.5752394285407502
 40
0.6544863258876601
 40
0.7503396587871615
 40
0.9999999999999999
 40
0.9999999999999999
 40
0.9999999999999999
 40
0.9999999999999999
 10
30.97195661770913
 20
467.8292878305053
 30
0.0
 10
31.05056850847576
 20
467.8427766661578
 30
0.0
 10
31.17660022895885
 20
467.8644021626066
 30
0.0
 10
31.32039213100735
 20
467.911147806309
 30
0.0
 10
31.38007571406287
 20
467.9737146437789
 30
0.0
 10
31.42945866275293
 20
468.053069635944
 30
0.0
 10
31.45412980796614
 20
468.12729794607
 30
0.0
 10
31.47195661770919
 20
468.1809336387277
 30
0.0
  0
ARC
  5
EC
330
1F
100
AcDbEntity
  8
0
  6
Continuous
 62
     7
370
    25
100
AcDbCircle
 10
1229.9719566177
 20
468.1809336387
 30
0.0
 40
0.5
100
AcDbArc
 50
90.0
 51
180.0
  0
ARC
  5
ED
330
1F
100
AcDbEntity
  8
0
  6
Continuous
 62
     7
370
    25
100
AcDbCircle
 10
30.9719566177
 20
468.1809336387
 30
0.0
 40
0.5000000000000261
100
AcDbArc
 50
53.1301023541
 51
77.3242635465
  0
ARC
  5
EE
330
1F
100
AcDbEntity
  8
0
  6
Continuous
 62
     7
370
    25
100
AcDbCircle
 10
30.9719566177
 20
468.1809336387
 30
0.0
 40
0.4999999999999716
100
AcDbArc
 50
0.0
 51
36.8698976458
  0
ARC
  5
EF
330
1F
100
AcDbEntity
  8
0
  6
Continuous
 62
     7
370
    25
100
AcDbCircle
 10
30.9719566177
 20
646.1809336387
 30
0.0
 40
0.4999999999999706
100
AcDbArc
 50
282.6757364535
 51
0.0
  0
ARC
  5
F0
330
1F
100
AcDbEntity
  8
0
  6
Continuous
 62
     7
370
    25
100
AcDbCircle
 10
1229.9719566177
 20
646.1809336387
 30
0.0
 40
0.5000000000001137
100
AcDbArc
 50
203.5781784782
 51
270.0
  0
LINE
  5
F1
330
1F
100
AcDbEntity
  8
0
  6
Continuous
 62
     8
370
    25
100
AcDbLine
 10
1229.6719566177
 20
467.5879900083
 30
0.0
 11
1229.6719566177
 21
467.9809336387
 31
0.0
  0
LINE
  5
F2
330
1F
100
AcDbEntity
  8
0
  6
Continuous
 62
     8
370
    25
100
AcDbLine
 10
31.5118701288
 20
646.1809336387
 30
0.0
 11
31.4719566177
 21
646.1809336387
 31
0.0
  0
LINE
  5
F3
330
1F
100
AcDbEntity
  8
0
  6
Continuous
 62
     8
370
    25
100
AcDbLine
 10
1229.9719566177
 20
645.6809336387
 30
0.0
 11
1229.9719566177
 21
644.9809336387
 31
0.0
  0
LINE
  5
F4
330
1F
100
AcDbEntity
  8
0
  6
Continuous
 62
     8
370
    25
100
AcDbLine
 10
1229.9719566177
 20
468.9809336387
 30
0.0
 11
1229.9719566177
 21
468.6809336387
 31
0.0
  0
LINE
  5
F5
330
1F
100
AcDbEntity
  8
0
  6
Continuous
 62
     8
370
    25
100
AcDbLine
 10
31.4719566177
 20
468.1809336387
 30
0.0
 11
31.5118701289
 21
468.1809336387
 31
0.0
  0
LINE
  5
F6
330
1F
100
AcDbEntity
  8
0
  6
Continuous
 62
     8
370
    25
100
AcDbLine
 10
1229.3921295954
 20
468.1809336387
 30
0.0
 11
1229.4719566177
 21
468.1809336387
 31
0.0
  0
LINE
  5
F7
330
1F
100
AcDbEntity
  8
0
  6
Continuous
 62
     7
370
    25
100
AcDbLine
 10
457.3814889603
 20
234.3696128212
 30
0.0
 11
457.3814889603
 21
232.8696128212
 31
0.0
  0
LINE
  5
F8
330
1F
100
AcDbEntity
  8
0
  6
Continuous
 62
     7
370
    25
100
AcDbLine
 10
472.3814889603
 20
232.8696128212
 30
0.0
 11
472.3814889603
 21
234.3696128212
 31
0.0
  0
CIRCLE
  5
F9
330
1F
100
AcDbEntity
  8
0
  6
Continuous
 62
     7
370
    25
100
AcDbCircle
 10
1223.9719566177
 20
206.1618693316
 30
0.0
 40
3.119999999999891
  0
CIRCLE
  5
FA
330
1F
100
AcDbEntity
  8
0
  6
Continuous
 62
     7
370
    25
100
AcDbCircle
 10
1223.9719566177
 20
206.1618693316
 30
0.0
 40
0.9250000000000114
  0
LINE
  5
FB
330
1F
100
AcDbEntity
  8
0
  6
Continuous
 62
     7
370
    25
100
AcDbLine
 10
426.9746560083
 20
233.1179319687
 30
0.0
 11
426.5746567559
 21
233.1187053235
 31
0.0
  0
SPLINE
  5
FC
330
1F
100
AcDbEntity
  8
0
  6
Continuous
 62
     7
370
    25
100
AcDbSpline
210
0.0
220
0.0
230
1.0
 70
     8
 71
     3
 72
     9
 73
     5
 74
     0
 42
0.00000001
 43
0.00000001
 40
0.0
 40
0.0
 40
0.0
 40
0.0
 40
0.5600000000000309
 40
0.9999999999999999
 40
0.9999999999999999
 40
0.9999999999999999
 40
0.9999999999999999
 10
426.9746560083418
 20
233.1179319686986
 30
0.0
 10
427.129072905995
 20
233.1166531266717
 30
0.0
 10
427.40481736609
 20
233.114369480195
 30
0.0
 10
427.6117793364746
 20
233.1044191340234
 30
0.0
 10
427.7028426034439
 20
233.100040981708
 30
0.0
  0
LINE
  5
FD
330
1F
100
AcDbEntity
  8
0
  6
Continuous
 62
     7
370
    25
100
AcDbLine
 10
427.7028426034
 20
233.1000409817
 30
0.0
 11
425.8464064245
 21
233.103630198
 31
0.0
  0
SPLINE
  5
FE
330
1F
100
AcDbEntity
  8
0
  6
Continuous
 62
     7
370
    25
100
AcDbSpline
210
0.0
220
0.0
230
1.0
 70
     8
 71
     3
 72
     9
 73
     5
 74
     0
 42
0.00000001
 43
0.00000001
 40
0.0
 40
0.0
 40
0.0
 40
0.0
 40
0.5599999999999928
 40
1.0
 40
1.0
 40
1.0
 40
1.0
 10
425.8464064244648
 20
233.103630197995
 30
0.0
 10
425.9658739169008
 20
233.1086180742389
 30
0.0
 10
426.1792087248224
 20
233.1175249961029
 30
0.0
 10
426.4538254130982
 20
233.1183446679061
 30
0.0
 10
426.5746567559395
 20
233.1187053234995
 30
0.0
  0
SPLINE
  5
FF
330
1F
100
AcDbEntity
  8
0
  6
Continuous
 62
     7
370
    25
100
AcDbSpline
210
0.0
220
0.0
230
1.0
 70
     8
 71
     3
 72
    11
 73
     7
 74
     0
 42
0.00000001
 43
0.00000001
 40
0.0
 40
0.0
 40
0.0
 40
0.0
 40
0.2796579740371147
 40
0.5592666022933507
 40
0.7796650582494001
 40
1.0
 40
1.0
 40
1.0
 40
1.0
 10
426.978533464364
 20
235.1234532486756
 30
0.0
 10
427.1257161479263
 20
235.1206544491331
 30
0.0
 10
427.4200555445972
 20
235.1150573438977
 30
0.0
 10
427.7487325495082
 20
235.0769005747024
 30
0.0
 10
427.9438563077574
 20
235.0275643675469
 30
0.0
 10
427.9667740400179
 20
234.986636755095
 30
0.0
 10
427.978231254808
 20
234.9661758979136
 30
0.0
  0
LINE
  5
100
330
1F
100
AcDbEntity
  8
0
  6
Continuous
 62
     7
370
    25
100
AcDbLine
 10
427.9778833224
 20
234.7862161887
 30
0.0
 11
427.9782312548
 21
234.9661758979
 31
0.0
  0
SPLINE
  5
101
330
1F
100
AcDbEntity
  8
0
  6
Continuous
 62
     7
370
    25
100
AcDbSpline
210
0.0
220
0.0
230
1.0
 70
     8
 71
     3
 72
     9
 73
     5
 74
     0
 42
0.00000001
 43
0.00000001
 40
0.0
 40
0.0
 40
0.0
 40
0.0
 40
0.5304166037466888
 40
1.0
 40
1.0
 40
1.0
 40
1.0
 10
427.7028426034439
 20
233.100040981708
 30
0.0
 10
427.7895979549318
 20
233.3931881157636
 30
0.0
 10
427.9531587312633
 20
233.945861489834
 30
0.0
 10
427.9699829490618
 20
234.517693412382
 30
0.0
 10
427.9778833223949
 20
234.7862161886582
 30
0.0
  0
LINE
  5
102
330
1F
100
AcDbEntity
  8
0
  6
Continuous
 62
     7
370
    25
100
AcDbLine
 10
426.9785334644
 20
235.1234532487
 30
0.0
 11
426.9746560083
 21
233.1179319687
 31
0.0
  0
LINE
  5
103
330
1F
100
AcDbEntity
  8
0
  6
Continuous
 62
     7
370
    25
100
AcDbLine
 10
426.9785334644
 20
235.1234532487
 30
0.0
 11
426.578534212
 21
235.1242266035
 31
0.0
  0
LINE
  5
104
330
1F
100
AcDbEntity
  8
0
  6
Continuous
 62
     7
370
    25
100
AcDbLine
 10
426.5746567559
 20
233.1187053235
 30
0.0
 11
426.578534212
 21
235.1242266035
 31
0.0
  0
SPLINE
  5
105
330
1F
100
AcDbEntity
  8
0
  6
Continuous
 62
     7
370
    25
100
AcDbSpline
210
0.0
220
0.0
230
1.0
 70
     8
 71
     3
 72
    11
 73
     7
 74
     0
 42
0.00000001
 43
0.00000001
 40
0.0
 40
0.0
 40
0.0
 40
0.0
 40
0.2796579740371835
 40
0.5592666022935514
 40
0.7796650582495895
 40
1.0
 40
1.0
 40
1.0
 40
1.0
 10
426.5785342119618
 20
235.1242266034765
 30
0.0
 10
426.4313418064279
 20
235.1219969459688
 30
0.0
 10
426.1369829675289
 20
235.1175380243773
 30
0.0
 10
425.80816087647
 20
235.080652457764
 30
0.0
 10
425.6128478053536
 20
235.0320711175105
 30
0.0
 10
425.5897719868934
 20
234.9912324285579
 30
0.0
 10
425.5782357403945
 20
234.9708160267188
 30
0.0
  0
SPLINE
  5
106
330
1F
100
AcDbEntity
  8
0
  6
Continuous
 62
     7
370
    25
100
AcDbSpline
210
0.0
220
0.0
230
1.0
 70
     8
 71
     3
 72
     9
 73
     5
 74
     0
 42
0.00000001
 43
0.00000001
 40
0.0
 40
0.0
 40
0.0
 40
0.0
 40
0.5931105904960063
 40
1.0
 40
1.0
 40
1.0
 40
1.0
 10
425.5778878079814
 20
234.7908563174634
 30
0.0
 10
425.5889516582777
 20
234.45118339524
 30
0.0
 10
425.6076055998422
 20
233.8784859461195
 30
0.0
 10
425.7773423417705
 20
233.3277278389861
 30
0.0
 10
425.8464064244648
 20
233.103630197995
 30
0.0
  0
LINE
  5
107
330
1F
100
AcDbEntity
  8
0
  6
Continuous
 62
     7
370
    25
100
AcDbLine
 10
425.5782357404
 20
234.9708160267
 30
0.0
 11
425.577887808
 21
234.7908563175
 31
0.0
  0
SPLINE
  5
108
330
1F
100
AcDbEntity
  8
0
  6
Continuous
 62
     7
370
    25
100
AcDbSpline
210
0.0
220
0.0
230
1.0
 70
    24
 71
     3
 72
     9
 73
     5
 74
     0
 42
0.00000001
 43
0.00000001
 40
0.0
 40
0.0
 40
0.0
 40
0.0
 40
0.5600000000000069
 40
1.0
 40
1.0
 40
1.0
 40
1.0
 10
425.5789138573242
 20
235.32155577077
 30
0.0
 10
425.5788257949122
 20
235.276007596847
 30
0.0
 10
425.578668540605
 20
235.1946715719845
 30
0.0
 10
425.5783679849033
 20
235.0392163322166
 30
0.0
 10
425.5782357403945
 20
234.9708160267188
 30
0.0
  0
SPLINE
  5
109
330
1F
100
AcDbEntity
  8
0
  6
Continuous
 62
     7
370
    25
100
AcDbSpline
210
0.0
220
0.0
230
1.0
 70
     8
 71
     3
 72
    11
 73
     7
 74
     0
 42
0.00000001
 43
0.00000001
 40
0.0
 40
0.0
 40
0.0
 40
0.0
 40
0.2702613318129021
 40
0.5624293896420933
 40
0.789736421859536
 40
1.0
 40
1.0
 40
1.0
 40
1.0
 10
426.5807217136146
 20
236.2556594525913
 30
0.0
 10
426.4389844638248
 20
236.239431743896
 30
0.0
 10
426.1440210876213
 20
236.2056609479202
 30
0.0
 10
425.8081099167782
 20
235.9531127463535
 30
0.0
 10
425.6122742173955
 20
235.6386036352469
 30
0.0
 10
425.5897414252439
 20
235.4244580559693
 30
0.0
 10
425.5789138573242
 20
235.32155577077
 30
0.0
  0
SPLINE
  5
10A
330
1F
100
AcDbEntity
  8
0
  6
Continuous
 62
     7
370
    25
100
AcDbSpline
210
0.0
220
0.0
230
1.0
 70
    24
 71
     3
 72
    10
 73
     6
 74
     0
 42
0.00000001
 43
0.00000001
 40
0.0
 40
0.0
 40
0.0
 40
0.0
 40
0.276877923429171
 40
0.5624038656204431
 40
1.0
 40
1.0
 40
1.0
 40
1.0
 10
426.5785342119618
 20
235.1242266034765
 30
0.0
 10
426.5787997968628
 20
235.261594033911
 30
0.0
 10
426.5793392619565
 20
235.5406194359
 30
0.0
 10
426.5801713180524
 20
235.9709805275672
 30
0.0
 10
426.5805142119419
 20
236.1483341810873
 30
0.0
 10
426.5807217136146
 20
236.2556594525913
 30
0.0
  0
SPLINE
  5
10B
330
1F
100
AcDbEntity
  8
0
  6
Continuous
 62
     7
370
    25
100
AcDbSpline
210
0.0
220
0.0
230
1.0
 70
    24
 71
     3
 72
    10
 73
     6
 74
     0
 42
0.00000001
 43
0.00000001
 40
0.0
 40
0.0
 40
0.0
 40
0.0
 40
0.2768779234291215
 40
0.5624038656203875
 40
1.0
 40
1.0
 40
1.0
 40
1.0
 10
426.9807209660168
 20
236.2548860977904
 30
0.0
 10
426.9806020338677
 20
236.1933712915634
 30
0.0
 10
426.9803604548369
 20
236.0684203226076
 30
0.0
 10
426.9796419315483
 20
235.6967813569019
 30
0.0
 10
426.9789513616197
 20
235.339600597381
 30
0.0
 10
426.978533464364
 20
235.1234532486756
 30
0.0
  0
SPLINE
  5
10C
330
1F
100
AcDbEntity
  8
0
  6
Continuous
 62
     7
370
    25
100
AcDbSpline
210
0.0
220
0.0
230
1.0
 70
     8
 71
     3
 72
    11
 73
     7
 74
     0
 42
0.00000001
 43
0.00000001
 40
0.0
 40
0.0
 40
0.0
 40
0.0
 40
0.2702613318128897
 40
0.5624293896420934
 40
0.789736421859546
 40
1.0
 40
1.0
 40
1.0
 40
1.0
 10
427.9789093717376
 20
235.3169156419647
 30
0.0
 10
427.9615365505804
 20
235.4495914304632
 30
0.0
 10
427.9253827096508
 20
235.7256973840784
 30
0.0
 10
427.6554916523748
 20
236.0401880405969
 30
0.0
 10
427.319441645598
 20
236.2235783969981
 30
0.0
 10
427.0906574641878
 20
236.2447247489317
 30
0.0
 10
426.9807209660168
 20
236.2548860977904
 30
0.0
  0
SPLINE
  5
10D
330
1F
100
AcDbEntity
  8
0
  6
Continuous
 62
     7
370
    25
100
AcDbSpline
210
0.0
220
0.0
230
1.0
 70
    24
 71
     3
 72
     9
 73
     5
 74
     0
 42
0.00000001
 43
0.00000001
 40
0.0
 40
0.0
 40
0.0
 40
0.0
 40
0.5600000000000277
 40
1.0
 40
1.0
 40
1.0
 40
1.0
 10
427.978231254808
 20
234.9661758979136
 30
0.0
 10
427.9783985689496
 20
235.0527151313246
 30
0.0
 10
427.9786973442027
 20
235.2072494767015
 30
0.0
 10
427.9788445855464
 20
235.2834065359121
 30
0.0
 10
427.9789093717376
 20
235.3169156419647
 30
0.0
  0
LINE
  5
10E
330
1F
100
AcDbEntity
  8
0
  6
Continuous
 62
     7
370
    25
100
AcDbLine
 10
426.5807217136
 20
236.2556594526
 30
0.0
 11
426.980720966
 21
236.2548860978
 31
0.0
  0
SPLINE
  5
10F
330
1F
100
AcDbEntity
  8
0
  6
Continuous
 62
     7
370
    25
100
AcDbSpline
210
0.0
220
0.0
230
1.0
 70
    24
 71
     3
 72
     9
 73
     5
 74
     0
 42
0.00000001
 43
0.00000001
 40
0.0
 40
0.0
 40
0.0
 40
0.0
 40
0.5599999999999908
 40
1.0
 40
1.0
 40
1.0
 40
1.0
 10
426.9808446277342
 20
236.3188471599725
 30
0.0
 10
426.9808379949632
 20
236.3154165179975
 30
0.0
 10
426.9808261507292
 20
236.3092903716136
 30
0.0
 10
426.9807531057901
 20
236.271509625903
 30
0.0
 10
426.9807209660168
 20
236.2548860977904
 30
0.0
  0
SPLINE
  5
110
330
1F
100
AcDbEntity
  8
0
  6
Continuous
 62
     7
370
    25
100
AcDbSpline
210
0.0
220
0.0
230
1.0
 70
     8
 71
     3
 72
    11
 73
     7
 74
     0
 42
0.00000001
 43
0.00000001
 40
0.0
 40
0.0
 40
0.0
 40
0.0
 40
0.27026133181288
 40
0.5624293896420834
 40
0.7897364218595204
 40
0.9999999999999999
 40
0.9999999999999999
 40
0.9999999999999999
 40
0.9999999999999999
 10
426.9808446277342
 20
236.3188471599725
 30
0.0
 10
427.1225158890658
 20
236.3009439188037
 30
0.0
 10
427.4173419394892
 20
236.2636862432951
 30
0.0
 10
427.7522406037551
 20
235.9925396628006
 30
0.0
 10
427.9468171054044
 20
235.6557588984473
 30
0.0
 10
427.9684933812424
 20
235.4268919241704
 30
0.0
 10
427.9789093717376
 20
235.3169156419647
 30
0.0
  0
SPLINE
  5
111
330
1F
100
AcDbEntity
  8
0
  6
Continuous
 62
     7
370
    25
100
AcDbSpline
210
0.0
220
0.0
230
1.0
 70
    24
 71
     3
 72
     9
 73
     5
 74
     0
 42
0.00000001
 43
0.00000001
 40
0.0
 40
0.0
 40
0.0
 40
0.0
 40
0.5600000000000049
 40
1.0
 40
1.0
 40
1.0
 40
1.0
 10
426.5807217136146
 20
236.2556594525913
 30
0.0
 10
426.5807613127005
 20
236.2761411315743
 30
0.0
 10
426.580832025354
 20
236.3127155583298
 30
0.0
 10
426.580841296172
 20
236.3175106669712
 30
0.0
 10
426.580845375332
 20
236.3196205147734
 30
0.0
  0
SPLINE
  5
112
330
1F
100
AcDbEntity
  8
0
  6
Continuous
 62
     7
370
    25
100
AcDbSpline
210
0.0
220
0.0
230
1.0
 70
     8
 71
     3
 72
    11
 73
     7
 74
     0
 42
0.00000001
 43
0.00000001
 40
0.0
 40
0.0
 40
0.0
 40
0.0
 40
0.0661662827718023
 40
0.4400485989930262
 40
0.7309294034528832
 40
1.0
 40
1.0
 40
1.0
 40
1.0
 10
425.6514489235582
 20
235.6547411718247
 30
0.0
 10
425.6564103981196
 20
235.6812899150871
 30
0.0
 10
425.6894074147
 20
235.8578562384201
 30
0.0
 10
425.9114066756219
 20
236.0907164738337
 30
0.0
 10
426.2407413669468
 20
236.2879838633673
 30
0.0
 10
426.4704598985965
 20
236.309352400427
 30
0.0
 10
426.580845375332
 20
236.3196205147734
 30
0.0
  0
LINE
  5
113
330
1F
100
AcDbEntity
  8
0
  6
Continuous
 62
     7
370
    25
100
AcDbLine
 10
426.5808453753
 20
236.3196205148
 30
0.0
 11
426.9808446277
 21
236.31884716
 31
0.0
  0
LINE
  5
114
330
1F
100
AcDbEntity
  8
0
  6
Continuous
 62
     7
370
    25
100
AcDbLine
 10
427.9778832451
 20
234.7861761887
 30
0.0
 11
427.9741777794
 21
232.8696128212
 31
0.0
  0
LINE
  5
115
330
1F
100
AcDbEntity
  8
0
  6
Continuous
 62
     7
370
    25
100
AcDbLine
 10
425.5741732938
 20
232.8696128212
 30
0.0
 11
425.5778931378
 21
234.7936130469
 31
0.0
  0
LINE
  5
116
330
1F
100
AcDbEntity
  8
0
  6
Continuous
 62
     7
370
    25
100
AcDbLine
 10
464.8814889603
 20
232.8696128212
 30
0.0
 11
464.8814889603
 21
234.3696128212
 31
0.0
  0
LINE
  5
117
330
1F
100
AcDbEntity
  8
0
  6
Continuous
 62
     7
370
    25
100
AcDbLine
 10
457.3814889603
 20
234.3696128212
 30
0.0
 11
464.8814889603
 21
234.3696128212
 31
0.0
  0
LINE
  5
118
330
1F
100
AcDbEntity
  8
0
  6
Continuous
 62
     7
370
    25
100
AcDbLine
 10
464.8814889603
 20
234.3696128212
 30
0.0
 11
472.3814889603
 21
234.3696128212
 31
0.0
  0
SPLINE
  5
119
330
1F
100
AcDbEntity
  8
0
  6
Continuous
 62
     7
370
    25
100
AcDbSpline
210
0.0
220
0.0
230
1.0
 70
     8
 71
     3
 72
     9
 73
     5
 74
     0
 42
0.00000001
 43
0.00000001
 40
0.0
 40
0.0
 40
0.0
 40
0.0
 40
0.5000000000000133
 40
1.0
 40
1.0
 40
1.0
 40
1.0
 10
1230.457843878487
 20
189.6618693316219
 30
0.0
 10
1230.519535992987
 20
189.6395402322526
 30
0.0
 10
1230.642920221987
 20
189.5948820335141
 30
0.0
 10
1230.662277819135
 20
189.5502238347756
 30
0.0
 10
1230.67195661771
 20
189.5278947354063
 30
0.0
  0
LINE
  5
11A
330
1F
100
AcDbEntity
  8
0
  6
Continuous
 62
     7
370
    25
100
AcDbLine
 10
1229.9719566177
 20
189.6618693316
 30
0.0
 11
1230.4578438785
 21
189.6618693316
 31
0.0
  0
SPLINE
  5
11B
330
1F
100
AcDbEntity
  8
0
  6
Continuous
 62
     7
370
    25
100
AcDbSpline
210
0.0
220
0.0
230
1.0
 70
     8
 71
     3
 72
     9
 73
     5
 74
     0
 42
0.00000001
 43
0.00000001
 40
0.0
 40
0.0
 40
0.0
 40
0.0
 40
0.4999999999999872
 40
1.0
 40
1.0
 40
1.0
 40
1.0
 10
1230.671956617709
 20
222.7958439278372
 30
0.0
 10
1230.662277819135
 20
222.773514828468
 30
0.0
 10
1230.642920221987
 20
222.7288566297295
 30
0.0
 10
1230.519535992987
 20
222.6841984309909
 30
0.0
 10
1230.457843878486
 20
222.6618693316217
 30
0.0
  0
LINE
  5
11C
330
1F
100
AcDbEntity
  8
0
  6
Continuous
 62
     7
370
    25
100
AcDbLine
 10
1230.6719566177
 20
217.1618693316
 30
0.0
 11
1230.6719566177
 21
189.5278947354
 31
0.0
  0
LINE
  5
11D
330
1F
100
AcDbEntity
  8
0
  6
Continuous
 62
     7
370
    25
100
AcDbLine
 10
1230.4578438785
 20
222.6618693316
 30
0.0
 11
1229.9719566177
 21
222.6618693316
 31
0.0
  0
LINE
  5
11E
330
1F
100
AcDbEntity
  8
0
  6
Continuous
 62
     7
370
    25
100
AcDbLine
 10
1230.6719566177
 20
222.7958439278
 30
0.0
 11
1230.1719566177
 21
222.7958439278
 31
0.0
  0
SPLINE
  5
11F
330
1F
100
AcDbEntity
  8
0
  6
Continuous
 62
     7
370
    25
100
AcDbSpline
210
0.0
220
0.0
230
1.0
 70
     8
 71
     3
 72
     9
 73
     5
 74
     0
 42
0.00000001
 43
0.00000001
 40
0.0
 40
0.0
 40
0.0
 40
0.0
 40
0.4999999999999918
 40
0.9999999999999999
 40
0.9999999999999999
 40
0.9999999999999999
 40
0.9999999999999999
 10
1230.171956617709
 20
222.7958439278372
 30
0.0
 10
1230.167117218422
 20
222.773514828468
 30
0.0
 10
1230.157438419848
 20
222.7288566297294
 30
0.0
 10
1230.095746305348
 20
222.6841984309909
 30
0.0
 10
1230.064900248098
 20
222.6618693316217
 30
0.0
  0
LINE
  5
120
330
1F
100
AcDbEntity
  8
0
  6
Continuous
 62
     7
370
    25
100
AcDbLine
 10
1230.1719566177
 20
189.5278947354
 30
0.0
 11
1230.6719566177
 21
189.5278947354
 31
0.0
  0
SPLINE
  5
121
330
1F
100
AcDbEntity
  8
0
  6
Continuous
 62
     7
370
    25
100
AcDbSpline
210
0.0
220
0.0
230
1.0
 70
     8
 71
     3
 72
     9
 73
     5
 74
     0
 42
0.00000001
 43
0.00000001
 40
0.0
 40
0.0
 40
0.0
 40
0.0
 40
0.5000000000000062
 40
1.0
 40
1.0
 40
1.0
 40
1.0
 10
1230.064900248098
 20
189.6618693316219
 30
0.0
 10
1230.095746305348
 20
189.6395402322526
 30
0.0
 10
1230.157438419849
 20
189.5948820335141
 30
0.0
 10
1230.167117218423
 20
189.5502238347756
 30
0.0
 10
1230.171956617709
 20
189.5278947354063
 30
0.0
  0
LINE
  5
122
330
1F
100
AcDbEntity
  8
0
  6
Continuous
 62
     7
370
    25
100
AcDbLine
 10
1230.1719566177
 20
223.1618693316
 30
0.0
 11
1230.6719566177
 21
223.1618693316
 31
0.0
  0
LINE
  5
123
330
1F
100
AcDbEntity
  8
0
  6
Continuous
 62
     7
370
    25
100
AcDbLine
 10
1230.1719566177
 20
222.7958439278
 30
0.0
 11
1230.1719566177
 21
223.1618693316
 31
0.0
  0
LINE
  5
124
330
1F
100
AcDbEntity
  8
0
  6
Continuous
 62
     7
370
    25
100
AcDbLine
 10
1230.6719566177
 20
189.1618693316
 30
0.0
 11
1230.1719566177
 21
189.1618693316
 31
0.0
  0
LINE
  5
125
330
1F
100
AcDbEntity
  8
0
  6
Continuous
 62
     7
370
    25
100
AcDbLine
 10
1230.6719566177
 20
189.1618693316
 30
0.0
 11
1230.6719566177
 21
189.5278947354
 31
0.0
  0
LINE
  5
126
330
1F
100
AcDbEntity
  8
0
  6
Continuous
 62
     7
370
    25
100
AcDbLine
 10
1230.1719566177
 20
189.1618693316
 30
0.0
 11
1230.1719566177
 21
189.5278947354
 31
0.0
  0
SPLINE
  5
127
330
1F
100
AcDbEntity
  8
0
  6
Continuous
 62
     7
370
    25
100
AcDbSpline
210
0.0
220
0.0
230
1.0
 70
     8
 71
     3
 72
     9
 73
     5
 74
     0
 42
0.00000001
 43
0.00000001
 40
0.0
 40
0.0
 40
0.0
 40
0.0
 40
0.4999999999999918
 40
1.0
 40
1.0
 40
1.0
 40
1.0
 10
1230.064900248098
 20
223.4710542331566
 30
0.0
 10
1230.095746305348
 20
223.4240258650495
 30
0.0
 10
1230.157438419848
 20
223.3299691288351
 30
0.0
 10
1230.167117218422
 20
223.2179025973595
 30
0.0
 10
1230.171956617709
 20
223.1618693316217
 30
0.0
  0
LINE
  5
128
330
1F
100
AcDbEntity
  8
0
  6
Continuous
 62
     7
370
    25
100
AcDbLine
 10
1230.0649002481
 20
223.4710542332
 30
0.0
 11
1230.4578438785
 21
223.7802391347
 31
0.0
  0
SPLINE
  5
129
330
1F
100
AcDbEntity
  8
0
  6
Continuous
 62
     7
370
    25
100
AcDbSpline
210
0.0
220
0.0
230
1.0
 70
     8
 71
     3
 72
     9
 73
     5
 74
     0
 42
0.00000001
 43
0.00000001
 40
0.0
 40
0.0
 40
0.0
 40
0.0
 40
0.4999999999999947
 40
0.9999999999999999
 40
0.9999999999999999
 40
0.9999999999999999
 40
0.9999999999999999
 10
1230.457843878486
 20
223.7802391346915
 30
0.0
 10
1230.519535992987
 20
223.6861823984771
 30
0.0
 10
1230.642920221987
 20
223.4980689260485
 30
0.0
 10
1230.662277819135
 20
223.2739358630973
 30
0.0
 10
1230.671956617709
 20
223.1618693316217
 30
0.0
  0
LINE
  5
12A
330
1F
100
AcDbEntity
  8
0
  6
Continuous
 62
     7
370
    25
100
AcDbLine
 10
1230.0649002481
 20
188.8526844301
 30
0.0
 11
1230.4578438785
 21
188.5434995286
 31
0.0
  0
SPLINE
  5
12B
330
1F
100
AcDbEntity
  8
0
  6
Continuous
 62
     7
370
    25
100
AcDbSpline
210
0.0
220
0.0
230
1.0
 70
     8
 71
     3
 72
     9
 73
     5
 74
     0
 42
0.00000001
 43
0.00000001
 40
0.0
 40
0.0
 40
0.0
 40
0.0
 40
0.5000000000000042
 40
0.9999999999999999
 40
0.9999999999999999
 40
0.9999999999999999
 40
0.9999999999999999
 10
1230.171956617709
 20
189.1618693316219
 30
0.0
 10
1230.167117218422
 20
189.1058360658841
 30
0.0
 10
1230.157438419849
 20
188.9937695344085
 30
0.0
 10
1230.095746305348
 20
188.8997127981941
 30
0.0
 10
1230.064900248098
 20
188.852684430087
 30
0.0
  0
SPLINE
  5
12C
330
1F
100
AcDbEntity
  8
0
  6
Continuous
 62
     7
370
    25
100
AcDbSpline
210
0.0
220
0.0
230
1.0
 70
     8
 71
     3
 72
     9
 73
     5
 74
     0
 42
0.00000001
 43
0.00000001
 40
0.0
 40
0.0
 40
0.0
 40
0.0
 40
0.500000000000018
 40
1.0
 40
1.0
 40
1.0
 40
1.0
 10
1230.67195661771
 20
189.1618693316219
 30
0.0
 10
1230.662277819136
 20
189.0498028001463
 30
0.0
 10
1230.642920221987
 20
188.8256697371951
 30
0.0
 10
1230.519535992987
 20
188.6375562647664
 30
0.0
 10
1230.457843878487
 20
188.5434995285521
 30
0.0
  0
ARC
  5
12D
330
1F
100
AcDbEntity
  8
0
  6
Continuous
 62
     7
370
    25
100
AcDbCircle
 10
1229.6719566177
 20
223.1618693316
 30
0.0
 40
0.5000000000001001
100
AcDbArc
 50
38.1971863421
 51
53.1301023541
  0
ARC
  5
12E
330
1F
100
AcDbEntity
  8
0
  6
Continuous
 62
     7
370
    25
100
AcDbCircle
 10
1229.6719566177
 20
223.1618693316
 30
0.0
 40
1.000000000000026
100
AcDbArc
 50
38.1971863421
 51
72.5423968763
  0
LINE
  5
12F
330
1F
100
AcDbEntity
  8
0
  6
Continuous
 62
     7
370
    25
100
AcDbLine
 10
1229.6719566177
 20
188.1618693316
 30
0.0
 11
1229.6719566177
 21
188.6618693316
 31
0.0
  0
ARC
  5
130
330
1F
100
AcDbEntity
  8
0
  6
Continuous
 62
     7
370
    25
100
AcDbCircle
 10
1229.6719566177
 20
189.1618693316
 30
0.0
 40
0.5
100
AcDbArc
 50
270.0
 51
321.8028136579
  0
ARC
  5
131
330
1F
100
AcDbEntity
  8
0
  6
Continuous
 62
     7
370
    25
100
AcDbCircle
 10
1229.6719566177
 20
189.1618693316
 30
0.0
 40
1.000000000000039
100
AcDbArc
 50
270.0
 51
321.8028136579
  0
LINE
  5
132
330
1F
100
AcDbEntity
  8
0
  6
Continuous
 62
     7
370
    25
100
AcDbLine
 10
1228.733789868
 20
188.1618693316
 30
0.0
 11
1228.733789868
 21
188.6618693316
 31
0.0
  0
LINE
  5
133
330
1F
100
AcDbEntity
  8
0
  6
Continuous
 62
     7
370
    25
100
AcDbLine
 10
1229.4103114136
 20
188.6618693316
 30
0.0
 11
1229.6719566177
 21
188.6618693316
 31
0.0
  0
LINE
  5
134
330
1F
100
AcDbEntity
  8
0
  6
Continuous
 62
     7
370
    25
100
AcDbLine
 10
1228.733789868
 20
188.1618693316
 30
0.0
 11
1229.6719566177
 21
188.1618693316
 31
0.0
  0
LINE
  5
135
330
1F
100
AcDbEntity
  8
0
  6
Continuous
 62
     7
370
    25
100
AcDbLine
 10
1228.0648251364
 20
188.1618693316
 30
0.0
 11
1228.0648251364
 21
188.6618693316
 31
0.0
  0
LINE
  5
136
330
1F
100
AcDbEntity
  8
0
  6
Continuous
 62
     7
370
    25
100
AcDbLine
 10
1228.0648251364
 20
188.1618693316
 30
0.0
 11
1228.733789868
 21
188.1618693316
 31
0.0
  0
LINE
  5
137
330
1F
100
AcDbEntity
  8
0
  6
Continuous
 62
     7
370
    25
100
AcDbLine
 10
1218.3500538628
 20
188.1618693316
 30
0.0
 11
1218.3500538628
 21
188.6618693316
 31
0.0
  0
LINE
  5
138
330
1F
100
AcDbEntity
  8
0
  6
Continuous
 62
     7
370
    25
100
AcDbLine
 10
1218.3500538628
 20
188.1618693316
 30
0.0
 11
1228.0648251364
 21
188.1618693316
 31
0.0
  0
LINE
  5
139
330
1F
100
AcDbEntity
  8
0
  6
Continuous
 62
     7
370
    25
100
AcDbLine
 10
30.9719566177
 20
231.6696128212
 30
0.0
 11
29.7719566177
 21
231.6696128212
 31
0.0
  0
LINE
  5
13A
330
1F
100
AcDbEntity
  8
0
  6
Continuous
 62
     7
370
    25
100
AcDbLine
 10
30.9719566177
 20
231.6696128212
 30
0.0
 11
30.9719566177
 21
190.4079975868
 31
0.0
  0
SPLINE
  5
13B
330
1F
100
AcDbEntity
  8
0
  6
Continuous
 62
     7
370
    25
100
AcDbSpline
210
0.0
220
0.0
230
1.0
 70
     8
 71
     3
 72
    11
 73
     7
 74
     0
 42
0.00000001
 43
0.00000001
 40
0.0
 40
0.0
 40
0.0
 40
0.0
 40
0.2499999999999944
 40
0.4999999999999806
 40
0.7500000000000194
 40
1.0
 40
1.0
 40
1.0
 40
1.0
 10
29.77195661770937
 20
189.6618693316119
 30
0.0
 10
29.78999450505404
 20
189.7240466862141
 30
0.0
 10
29.82607027974371
 20
189.8484013954187
 30
0.0
 10
30.10356933549041
 20
190.0349334592256
 30
0.0
 10
30.50022326000701
 20
190.2214655230325
 30
0.0
 10
30.81471216514198
 20
190.3458202322371
 30
0.0
 10
30.97195661770935
 20
190.4079975868394
 30
0.0
  0
LINE
  5
13C
330
1F
100
AcDbEntity
  8
0
  6
Continuous
 62
     7
370
    25
100
AcDbLine
 10
29.7719566177
 20
231.6696128212
 30
0.0
 11
29.7719566177
 21
189.6618693316
 31
0.0
  0
LINE
  5
13D
330
1F
100
AcDbEntity
  8
0
  6
Continuous
 62
     7
370
    25
100
AcDbLine
 10
54.4797001073
 20
231.6696128212
 30
0.0
 11
54.4797001073
 21
202.1618693316
 31
0.0
  0
LINE
  5
13E
330
1F
100
AcDbEntity
  8
0
  6
Continuous
 62
     7
370
    25
100
AcDbLine
 10
54.4797001073
 20
202.1618693316
 30
0.0
 11
30.9719566177
 21
190.4079975868
 31
0.0
  0
LINE
  5
13F
330
1F
100
AcDbEntity
  8
0
  6
Continuous
 62
     7
370
    25
100
AcDbLine
 10
54.4797001073
 20
231.6696128212
 30
0.0
 11
30.9719566177
 21
231.6696128212
 31
0.0
  0
LINE
  5
140
330
1F
100
AcDbEntity
  8
0
  6
Continuous
 62
     7
370
    25
100
AcDbLine
 10
29.7719566177
 20
189.6618693316
 30
0.0
 11
30.2719566177
 21
189.6618693316
 31
0.0
  0
SPLINE
  5
141
330
1F
100
AcDbEntity
  8
0
  6
Continuous
 62
     7
370
    25
100
AcDbSpline
210
0.0
220
0.0
230
1.0
 70
     8
 71
     3
 72
    11
 73
     7
 74
     0
 42
0.00000001
 43
0.00000001
 40
0.0
 40
0.0
 40
0.0
 40
0.0
 40
0.25
 40
0.4999999999999822
 40
0.7500000000000141
 40
1.0
 40
1.0
 40
1.0
 40
1.0
 10
30.27195661770932
 20
189.6618693316119
 30
0.0
 10
30.28247871866041
 20
189.7240466862141
 30
0.0
 10
30.3035229205626
 20
189.8484013954187
 30
0.0
 10
30.46539736974852
 20
190.0349334592256
 30
0.0
 10
30.6967788257162
 20
190.2214655230325
 30
0.0
 10
30.88023068704504
 20
190.3458202322371
 30
0.0
 10
30.97195661770935
 20
190.4079975868394
 30
0.0
  0
LINE
  5
142
330
1F
100
AcDbEntity
  8
0
  6
Continuous
 62
     7
370
    25
100
AcDbLine
 10
1229.4719566177
 20
232.8696128212
 30
0.0
 11
31.4719566177
 21
232.8696128212
 31
0.0
  0
SPLINE
  5
143
330
1F
100
AcDbEntity
  8
0
  6
Continuous
 62
     7
370
    25
100
AcDbSpline
210
0.0
220
0.0
230
1.0
 70
     8
 71
     3
 72
    12
 73
     8
 74
     0
 42
0.00000001
 43
0.00000001
 40
0.0
 40
0.0
 40
0.0
 40
0.0
 40
0.2893414007734416
 40
0.3971452045866187
 40
0.4846423278168006
 40
0.6854347491847457
 40
1.0
 40
1.0
 40
1.0
 40
1.0
 10
1229.971956617709
 20
232.7072092634958
 30
0.0
 10
1229.891217253966
 20
232.7203349412482
 30
0.0
 10
1229.780395743298
 20
232.7383510286882
 30
0.0
 10
1229.659519501747
 20
232.7701770500266
 30
0.0
 10
1229.577725280537
 20
232.8019672028876
 30
0.0
 10
1229.519442780376
 20
232.855007731651
 30
0.0
 10
1229.489955273073
 20
232.8640770617311
 30
0.0
 10
1229.471956617709
 20
232.8696128211567
 30
0.0
  0
LINE
  5
144
330
1F
100
AcDbEntity
  8
0
  6
Continuous
 62
     7
370
    25
100
AcDbLine
 10
1229.9719566177
 20
231.6696128212
 30
0.0
 11
30.9719566177
 21
231.6696128212
 31
0.0
  0
LINE
  5
145
330
1F
100
AcDbEntity
  8
0
  6
Continuous
 62
     7
370
    25
100
AcDbLine
 10
30.9719566177
 20
232.7072092635
 30
0.0
 11
30.9719566177
 21
231.6696128212
 31
0.0
  0
SPLINE
  5
146
330
1F
100
AcDbEntity
  8
0
  6
Continuous
 62
     7
370
    25
100
AcDbSpline
210
0.0
220
0.0
230
1.0
 70
     8
 71
     3
 72
    12
 73
     8
 74
     0
 42
0.00000001
 43
0.00000001
 40
0.0
 40
0.0
 40
0.0
 40
0.0
 40
0.3006396949343335
 40
0.4108252157061801
 40
0.4972322866732313
 40
0.6936496682105892
 40
1.0
 40
1.0
 40
1.0
 40
1.0
 10
31.47195661770919
 20
232.8696128211567
 30
0.0
 10
31.45950696151889
 20
232.8643454820146
 30
0.0
 10
31.44249446191871
 20
232.8571476442849
 30
0.0
 10
31.3941170916594
 20
232.8217795200348
 30
0.0
 10
31.33452040003604
 20
232.7905453645653
 30
0.0
 10
31.18602192114061
 20
232.7526667751822
 30
0.0
 10
31.05300656725207
 20
232.7244205021667
 30
0.0
 10
30.97195661770924
 20
232.7072092634958
 30
0.0
  0
LINE
  5
147
330
1F
100
AcDbEntity
  8
0
  6
Continuous
 62
     7
370
    25
100
AcDbLine
 10
1229.9719566177
 20
231.6696128212
 30
0.0
 11
1229.9719566177
 21
232.7072092635
 31
0.0
  0
LINE
  5
148
330
1F
100
AcDbEntity
  8
0
  6
Continuous
 62
     7
370
    25
100
AcDbLine
 10
30.9719566177
 20
189.6618693316
 30
0.0
 11
30.9719566177
 21
231.6696128212
 31
0.0
  0
LINE
  5
149
330
1F
100
AcDbEntity
  8
0
  6
Continuous
 62
     7
370
    25
100
AcDbLine
 10
1229.9719566177
 20
231.6696128212
 30
0.0
 11
1229.9719566177
 21
189.6618693316
 31
0.0
  0
LINE
  5
14A
330
1F
100
AcDbEntity
  8
0
  6
Continuous
 62
     7
370
    25
100
AcDbLine
 10
1229.9719566177
 20
189.6618693316
 30
0.0
 11
30.9719566177
 21
189.6618693316
 31
0.0
  0
LINE
  5
14B
330
1F
100
AcDbEntity
  8
0
  6
Continuous
 62
     7
370
    25
100
AcDbLine
 10
30.9719566177
 20
189.6618693316
 30
0.0
 11
30.9719566177
 21
189.0434995285
 31
0.0
  0
LINE
  5
14C
330
1F
100
AcDbEntity
  8
0
  6
Continuous
 62
     7
370
    25
100
AcDbLine
 10
1229.9719566177
 20
189.0434995285
 30
0.0
 11
1229.9719566177
 21
189.6618693316
 31
0.0
  0
LINE
  5
14D
330
1F
100
AcDbEntity
  8
0
  6
Continuous
 62
     7
370
    25
100
AcDbLine
 10
1229.4719566177
 20
189.0434995285
 30
0.0
 11
1229.9719566177
 21
189.0434995285
 31
0.0
  0
SPLINE
  5
14E
330
1F
100
AcDbEntity
  8
0
  6
Continuous
 62
     7
370
    25
100
AcDbSpline
210
0.0
220
0.0
230
1.0
 70
     8
 71
     3
 72
    11
 73
     7
 74
     0
 42
0.00000001
 43
0.00000001
 40
0.0
 40
0.0
 40
0.0
 40
0.0
 40
0.2500000000000068
 40
0.4999999999999954
 40
0.7500000000000049
 40
1.0
 40
1.0
 40
1.0
 40
1.0
 10
1229.41031141361
 20
188.6618693316119
 30
0.0
 10
1229.415448513951
 20
188.6667752849435
 30
0.0
 10
1229.425722714635
 20
188.6765871916067
 30
0.0
 10
1229.441134015659
 20
188.7556183961883
 30
0.0
 10
1229.456545316684
 20
188.8748728920641
 30
0.0
 10
1229.466819517368
 20
188.9872906497164
 30
0.0
 10
1229.471956617709
 20
189.0434995285426
 30
0.0
  0
LINE
  5
14F
330
1F
100
AcDbEntity
  8
0
  6
Continuous
 62
     7
370
    25
100
AcDbLine
 10
1229.4103114136
 20
188.6618693316
 30
0.0
 11
31.5027792198
 21
188.6618693316
 31
0.0
  0
SPLINE
  5
150
330
1F
100
AcDbEntity
  8
0
  6
Continuous
 62
     7
370
    25
100
AcDbSpline
210
0.0
220
0.0
230
1.0
 70
     8
 71
     3
 72
    11
 73
     7
 74
     0
 42
0.00000001
 43
0.00000001
 40
0.0
 40
0.0
 40
0.0
 40
0.0
 40
0.2499999999999988
 40
0.4999999999999964
 40
0.7500000000000092
 40
1.0
 40
1.0
 40
1.0
 40
1.0
 10
31.47195661770908
 20
189.0434995285422
 30
0.0
 10
31.47452516787985
 20
188.9872906497161
 30
0.0
 10
31.47966226822141
 20
188.8748728920639
 30
0.0
 10
31.48736791873397
 20
188.7556183961883
 30
0.0
 10
31.49507356924652
 20
188.6765871916068
 30
0.0
 10
31.50021066958819
 20
188.6667752849436
 30
0.0
 10
31.50277921975897
 20
188.6618693316119
 30
0.0
  0
LINE
  5
151
330
1F
100
AcDbEntity
  8
0
  6
Continuous
 62
     7
370
    25
100
AcDbLine
 10
30.9719566177
 20
189.0434995285
 30
0.0
 11
31.4719566177
 21
189.0434995285
 31
0.0
  0
SPLINE
  5
152
330
1F
100
AcDbEntity
  8
0
  6
Continuous
 62
     7
370
    25
100
AcDbSpline
210
0.0
220
0.0
230
1.0
 70
     8
 71
     3
 72
    12
 73
     8
 74
     0
 42
0.00000001
 43
0.00000001
 40
0.0
 40
0.0
 40
0.0
 40
0.0
 40
0.300639694895468
 40
0.4108252156770383
 40
0.497232286671103
 40
0.6936496681650234
 40
1.0
 40
1.0
 40
1.0
 40
1.0
 10
1229.971956617709
 20
232.8696128211567
 30
0.0
 10
1230.058938102334
 20
232.8643454820158
 30
0.0
 10
1230.1777986114
 20
232.8571476442872
 30
0.0
 10
1230.310192063689
 20
232.8217795200417
 30
0.0
 10
1230.404335351101
 20
232.7905453645698
 30
0.0
 10
1230.492269411886
 20
232.7526667751817
 30
0.0
 10
1230.543538390559
 20
232.7244205021681
 30
0.0
 10
1230.574778003233
 20
232.7072092634958
 30
0.0
  0
LINE
  5
153
330
1F
100
AcDbEntity
  8
0
  6
Continuous
 62
     7
370
    25
100
AcDbLine
 10
1230.3236024259
 20
232.2748774125
 30
0.0
 11
1230.5747780032
 21
232.7072092635
 31
0.0
  0
SPLINE
  5
154
330
1F
100
AcDbEntity
  8
0
  6
Continuous
 62
     7
370
    25
100
AcDbSpline
210
0.0
220
0.0
230
1.0
 70
     8
 71
     3
 72
    11
 73
     7
 74
     0
 42
0.00000001
 43
0.00000001
 40
0.0
 40
0.0
 40
0.0
 40
0.0
 40
0.2349722126482224
 40
0.3277350520849866
 40
0.4088708125510674
 40
1.0
 40
1.0
 40
1.0
 40
1.0
 10
1229.971956617709
 20
232.3696128211567
 30
0.0
 10
1230.023513038609
 20
232.3663281146441
 30
0.0
 10
1230.095423015106
 20
232.3617466645744
 30
0.0
 10
1230.172002235891
 20
232.3408770406428
 30
0.0
 10
1230.281452151074
 20
232.303981578624
 30
0.0
 10
1230.303880743656
 20
232.2884949540137
 30
0.0
 10
1230.323602425932
 20
232.2748774125212
 30
0.0
  0
ARC
  5
155
330
1F
100
AcDbEntity
  8
0
  6
Continuous
 62
     7
370
    25
100
AcDbCircle
 10
1229.9719566177
 20
231.6696128212
 30
0.0
 40
1.200000000000045
100
AcDbArc
 50
0.0
 51
59.8443265721
  0
LINE
  5
156
330
1F
100
AcDbEntity
  8
0
  6
Continuous
 62
     7
370
    25
100
AcDbLine
 10
1231.1719566177
 20
231.6696128212
 30
0.0
 11
1230.6719566177
 21
231.6696128212
 31
0.0
  0
ARC
  5
157
330
1F
100
AcDbEntity
  8
0
  6
Continuous
 62
     7
370
    25
100
AcDbCircle
 10
1229.9719566177
 20
231.6696128212
 30
0.0
 40
0.7000000000000455
100
AcDbArc
 50
0.0
 51
59.8443265721
  0
LINE
  5
158
330
1F
100
AcDbEntity
  8
0
  6
Continuous
 62
     7
370
    25
100
AcDbLine
 10
1229.9719566177
 20
232.8696128212
 30
0.0
 11
1229.4719566177
 21
232.8696128212
 31
0.0
  0
LINE
  5
159
330
1F
100
AcDbEntity
  8
0
  6
Continuous
 62
     7
370
    25
100
AcDbLine
 10
31.4719566177
 20
232.8696128212
 30
0.0
 11
30.9719566177
 21
232.8696128212
 31
0.0
  0
LINE
  5
15A
330
1F
100
AcDbEntity
  8
0
  6
Continuous
 62
     7
370
    25
100
AcDbLine
 10
30.6203108095
 20
232.2748774125
 30
0.0
 11
30.3691352322
 21
232.7072092635
 31
0.0
  0
ARC
  5
15B
330
1F
100
AcDbEntity
  8
0
  6
Continuous
 62
     7
370
    25
100
AcDbCircle
 10
30.9719566177
 20
231.6696128212
 30
0.0
 40
0.7000000000000313
100
AcDbArc
 50
120.1556734279
 51
180.0
  0
ARC
  5
15C
330
1F
100
AcDbEntity
  8
0
  6
Continuous
 62
     7
370
    25
100
AcDbCircle
 10
30.9719566177
 20
231.6696128212
 30
0.0
 40
1.199999999999998
100
AcDbArc
 50
120.1556734279
 51
180.0
  0
SPLINE
  5
15D
330
1F
100
AcDbEntity
  8
0
  6
Continuous
 62
     7
370
    25
100
AcDbSpline
210
0.0
220
0.0
230
1.0
 70
     8
 71
     3
 72
    12
 73
     8
 74
     0
 42
0.00000001
 43
0.00000001
 40
0.0
 40
0.0
 40
0.0
 40
0.0
 40
0.2893414005755502
 40
0.3971452044389828
 40
0.4846423278027054
 40
0.6854347489014986
 40
1.0
 40
1.0
 40
1.0
 40
1.0
 10
30.36913523218509
 20
232.7072092634958
 30
0.0
 10
30.39224466013235
 20
232.7203349412421
 30
0.0
 10
30.42396427740224
 20
232.7383510286792
 30
0.0
 10
30.49261042100482
 20
232.770177050023
 30
0.0
 10
30.57055705707556
 20
232.8019672028411
 30
0.0
 10
30.73468675371549
 20
232.8550077316355
 30
0.0
 10
30.88202434538589
 20
232.8640770617222
 30
0.0
 10
30.97195661770924
 20
232.8696128211567
 30
0.0
  0
SPLINE
  5
15E
330
1F
100
AcDbEntity
  8
0
  6
Continuous
 62
     7
370
    25
100
AcDbSpline
210
0.0
220
0.0
230
1.0
 70
     8
 71
     3
 72
    12
 73
     8
 74
     0
 42
0.00000001
 43
0.00000001
 40
0.0
 40
0.0
 40
0.0
 40
0.0
 40
0.3588037909426816
 40
0.5752394285271228
 40
0.6544863257260315
 40
0.750339658571799
 40
1.0
 40
1.0
 40
1.0
 40
1.0
 10
30.62031080948668
 20
232.2748774125212
 30
0.0
 10
30.63379964513901
 20
232.282363560746
 30
0.0
 10
30.65542514160269
 20
232.2943654618836
 30
0.0
 10
30.70217078526582
 20
232.3168183718633
 30
0.0
 10
30.76473762266574
 20
232.3387606032621
 30
0.0
 10
30.84409261484322
 20
232.3611930395484
 30
0.0
 10
30.91832092500468
 20
232.3660809372108
 30
0.0
 10
30.97195661770924
 20
232.3696128211567
 30
0.0
  0
LINE
  5
15F
330
1F
100
AcDbEntity
  8
0
  6
Continuous
 62
     7
370
    25
100
AcDbLine
 10
30.2719566177
 20
189.1618693316
 30
0.0
 11
29.7719566177
 21
189.1618693316
 31
0.0
  0
LINE
  5
160
330
1F
100
AcDbEntity
  8
0
  6
Continuous
 62
     7
370
    25
100
AcDbLine
 10
29.7719566177
 20
189.6618693316
 30
0.0
 11
29.7719566177
 21
189.1618693316
 31
0.0
  0
LINE
  5
161
330
1F
100
AcDbEntity
  8
0
  6
Continuous
 62
     7
370
    25
100
AcDbLine
 10
30.2719566177
 20
189.6618693316
 30
0.0
 11
30.2719566177
 21
189.1618693316
 31
0.0
  0
LINE
  5
162
330
1F
100
AcDbEntity
  8
0
  6
Continuous
 62
     7
370
    25
100
AcDbLine
 10
30.6543378311
 20
188.6759003809
 30
0.0
 11
30.5367190444
 21
188.1899314302
 31
0.0
  0
LINE
  5
163
330
1F
100
AcDbEntity
  8
0
  6
Continuous
 62
     7
370
    25
100
AcDbLine
 10
30.7719566177
 20
188.6618693316
 30
0.0
 11
30.7719566177
 21
188.1618693316
 31
0.0
  0
LINE
  5
164
330
1F
100
AcDbEntity
  8
0
  6
Continuous
 62
     7
370
    25
100
AcDbLine
 10
30.7719566177
 20
188.1618693316
 30
0.0
 11
30.5367190444
 21
188.1899314302
 31
0.0
  0
LINE
  5
165
330
1F
100
AcDbEntity
  8
0
  6
Continuous
 62
     7
370
    25
100
AcDbLine
 10
30.7719566177
 20
188.6618693316
 30
0.0
 11
30.6543378311
 21
188.6759003809
 31
0.0
  0
ARC
  5
166
330
1F
100
AcDbEntity
  8
0
  6
Continuous
 62
     7
370
    25
100
AcDbCircle
 10
30.7719566177
 20
189.1618693316
 30
0.0
 40
1.000000000000026
100
AcDbArc
 50
180.0
 51
256.3943726841
  0
ARC
  5
167
330
1F
100
AcDbEntity
  8
0
  6
Continuous
 62
     7
370
    25
100
AcDbCircle
 10
30.7719566177
 20
189.1618693316
 30
0.0
 40
0.4999999999999855
100
AcDbArc
 50
180.0
 51
256.3943726841
  0
LINE
  5
168
330
1F
100
AcDbEntity
  8
0
  6
Continuous
 62
     7
370
    25
100
AcDbLine
 10
1231.1719566177
 20
217.1618693316
 30
0.0
 11
1230.6719566177
 21
217.1618693316
 31
0.0
  0
LINE
  5
169
330
1F
100
AcDbEntity
  8
0
  6
Continuous
 62
     7
370
    25
100
AcDbLine
 10
1230.6719566177
 20
217.1618693316
 30
0.0
 11
1230.6719566177
 21
231.6696128212
 31
0.0
  0
LINE
  5
16A
330
1F
100
AcDbEntity
  8
0
  6
Continuous
 62
     7
370
    25
100
AcDbLine
 10
1231.1719566177
 20
217.1618693316
 30
0.0
 11
1231.1719566177
 21
231.6696128212
 31
0.0
  0
LINE
  5
16B
330
1F
100
AcDbEntity
  8
0
  6
Continuous
 62
     7
370
    25
100
AcDbLine
 10
40.5938593726
 20
188.1618693316
 30
0.0
 11
40.5938593726
 21
188.6618693316
 31
0.0
  0
LINE
  5
16C
330
1F
100
AcDbEntity
  8
0
  6
Continuous
 62
     7
370
    25
100
AcDbLine
 10
30.7719566177
 20
188.1618693316
 30
0.0
 11
40.5938593726
 21
188.1618693316
 31
0.0
  0
LINE
  5
16D
330
1F
100
AcDbEntity
  8
0
  6
Continuous
 62
     7
370
    25
100
AcDbLine
 10
30.7719566177
 20
188.6618693316
 30
0.0
 11
31.5027792198
 21
188.6618693316
 31
0.0
  0
ARC
  5
16E
330
1F
100
AcDbEntity
  8
0
  6
Continuous
 62
     7
370
    25
100
AcDbCircle
 10
1383.341870741
 20
206.1618693316
 30
0.0
 40
4.176571428571468
100
AcDbArc
 50
131.666740314
 51
167.204404999
  0
ARC
  5
16F
330
1F
100
AcDbEntity
  8
0
  6
Continuous
 62
     7
370
    25
100
AcDbCircle
 10
1383.341870741
 20
206.1618693316
 30
0.0
 40
4.176571428571511
100
AcDbArc
 50
192.795595001
 51
228.333259686
  0
ARC
  5
170
330
1F
100
AcDbEntity
  8
0
  6
Continuous
 62
     7
370
    25
100
AcDbCircle
 10
1558.1887278838
 20
206.1618693316
 30
0.0
 40
4.176571428571404
100
AcDbArc
 50
12.795595001
 51
48.333259686
  0
ARC
  5
171
330
1F
100
AcDbEntity
  8
0
  6
Continuous
 62
     7
370
    25
100
AcDbCircle
 10
1558.1887278838
 20
206.1618693316
 30
0.0
 40
4.176571428571411
100
AcDbArc
 50
311.666740314
 51
347.204404999
  0
LINE
  5
172
330
1F
100
AcDbEntity
  8
0
  6
Continuous
 62
     7
370
    25
100
AcDbLine
 10
1524.3547973297
 20
232.8696128212
 30
0.0
 11
1523.858015205
 21
235.1242274078
 31
0.0
  0
LINE
  5
173
330
1F
100
AcDbEntity
  8
0
  6
Continuous
 62
     7
370
    25
100
AcDbLine
 10
1541.6725834198
 20
235.1242274078
 30
0.0
 11
1541.1758012951
 21
232.8696128212
 31
0.0
  0
LINE
  5
174
330
1F
100
AcDbEntity
  8
0
  6
Continuous
 62
     7
370
    25
100
AcDbLine
 10
1520.7924270412
 20
235.1242267993
 30
0.0
 11
1520.6872243556
 21
233.1187054214
 31
0.0
  0
LINE
  5
175
330
1F
100
AcDbEntity
  8
0
  6
Continuous
 62
     7
370
    25
100
AcDbLine
 10
1544.8433742691
 20
233.1187054214
 30
0.0
 11
1544.7381715836
 21
235.1242267993
 31
0.0
  0
LINE
  5
176
330
1F
100
AcDbEntity
  8
0
  6
Continuous
 62
     7
370
    25
100
AcDbLine
 10
1379.2690186815
 20
207.0868693316
 30
0.0
 11
1379.2690186815
 21
205.2368693316
 31
0.0
  0
LINE
  5
177
330
1F
100
AcDbEntity
  8
0
  6
Continuous
 62
     7
370
    25
100
AcDbLine
 10
1562.2615799432
 20
205.2368693316
 30
0.0
 11
1562.2615799432
 21
207.0868693316
 31
0.0
  0
SPLINE
  5
178
330
1F
100
AcDbEntity
  8
0
  6
Continuous
 62
     7
370
    25
100
AcDbSpline
210
0.0
220
0.0
230
1.0
 70
    24
 71
     3
 72
    11
 73
     7
 74
     0
 42
0.00000001
 43
0.00000001
 40
0.0
 40
0.0
 40
0.0
 40
0.0
 40
0.2702613318128789
 40
0.5624293896420955
 40
0.7897364218595335
 40
1.0
 40
1.0
 40
1.0
 40
1.0
 10
1522.525647987603
 20
236.3196205147734
 30
0.0
 10
1522.525647987603
 20
236.3022652171753
 30
0.0
 10
1522.525647987603
 20
236.266147843781
 30
0.0
 10
1522.525647987603
 20
235.9962982653991
 30
0.0
 10
1522.525647987603
 20
235.6602724007611
 30
0.0
 10
1522.525647987603
 20
235.4314909545902
 30
0.0
 10
1522.525647987603
 20
235.32155577077
 30
0.0
  0
SPLINE
  5
179
330
1F
100
AcDbEntity
  8
0
  6
Continuous
 62
     7
370
    25
100
AcDbSpline
210
0.0
220
0.0
230
1.0
 70
     8
 71
     3
 72
     9
 73
     5
 74
     0
 42
0.00000001
 43
0.00000001
 40
0.0
 40
0.0
 40
0.0
 40
0.0
 40
0.5599999999999762
 40
1.0
 40
1.0
 40
1.0
 40
1.0
 10
1522.525647987603
 20
236.3196205147734
 30
0.0
 10
1522.59297721573
 20
236.3161898727984
 30
0.0
 10
1522.713207980241
 20
236.3100637264145
 30
0.0
 10
1522.827330736325
 20
236.2722829807039
 30
0.0
 10
1522.877544749001
 20
236.2556594525913
 30
0.0
  0
SPLINE
  5
17A
330
1F
100
AcDbEntity
  8
0
  6
Continuous
 62
     7
370
    25
100
AcDbSpline
210
0.0
220
0.0
230
1.0
 70
     8
 71
     3
 72
    11
 73
     7
 74
     0
 42
0.00000001
 43
0.00000001
 40
0.0
 40
0.0
 40
0.0
 40
0.0
 40
0.270261331812895
 40
0.5624293896420995
 40
0.789736421859517
 40
1.0
 40
1.0
 40
1.0
 40
1.0
 10
1522.525647987603
 20
235.32155577077
 30
0.0
 10
1522.57551373299
 20
235.4541633907405
 30
0.0
 10
1522.679287219762
 20
235.7301274817247
 30
0.0
 10
1522.797321230141
 20
236.0435721813465
 30
0.0
 10
1522.866021072621
 20
236.2256617397251
 30
0.0
 10
1522.873804579878
 20
236.2459232784973
 30
0.0
 10
1522.877544749001
 20
236.2556594525913
 30
0.0
  0
SPLINE
  5
17B
330
1F
100
AcDbEntity
  8
0
  6
Continuous
 62
     7
370
    25
100
AcDbSpline
210
0.0
220
0.0
230
1.0
 70
     8
 71
     3
 72
     9
 73
     5
 74
     0
 42
0.00000001
 43
0.00000001
 40
0.0
 40
0.0
 40
0.0
 40
0.0
 40
0.5599999999999762
 40
1.0
 40
1.0
 40
1.0
 40
1.0
 10
1543.004950637179
 20
236.3196205147734
 30
0.0
 10
1542.937621409053
 20
236.3161898727984
 30
0.0
 10
1542.817390644541
 20
236.3100637264145
 30
0.0
 10
1542.703267888458
 20
236.2722829807039
 30
0.0
 10
1542.653053875781
 20
236.2556594525913
 30
0.0
  0
SPLINE
  5
17C
330
1F
100
AcDbEntity
  8
0
  6
Continuous
 62
     7
370
    25
100
AcDbSpline
210
0.0
220
0.0
230
1.0
 70
    24
 71
     3
 72
    11
 73
     7
 74
     0
 42
0.00000001
 43
0.00000001
 40
0.0
 40
0.0
 40
0.0
 40
0.0
 40
0.2702613318128789
 40
0.5624293896420955
 40
0.7897364218595335
 40
1.0
 40
1.0
 40
1.0
 40
1.0
 10
1543.004950637179
 20
236.3196205147734
 30
0.0
 10
1543.004950637179
 20
236.3022652171753
 30
0.0
 10
1543.004950637179
 20
236.266147843781
 30
0.0
 10
1543.004950637179
 20
235.9962982653991
 30
0.0
 10
1543.004950637179
 20
235.6602724007611
 30
0.0
 10
1543.004950637179
 20
235.4314909545902
 30
0.0
 10
1543.004950637179
 20
235.32155577077
 30
0.0
  0
SPLINE
  5
17D
330
1F
100
AcDbEntity
  8
0
  6
Continuous
 62
     7
370
    25
100
AcDbSpline
210
0.0
220
0.0
230
1.0
 70
     8
 71
     3
 72
    11
 73
     7
 74
     0
 42
0.00000001
 43
0.00000001
 40
0.0
 40
0.0
 40
0.0
 40
0.0
 40
0.270261331812895
 40
0.5624293896420995
 40
0.789736421859517
 40
1.0
 40
1.0
 40
1.0
 40
1.0
 10
1543.004950637179
 20
235.32155577077
 30
0.0
 10
1542.955084891792
 20
235.4541633907405
 30
0.0
 10
1542.85131140502
 20
235.7301274817247
 30
0.0
 10
1542.733277394641
 20
236.0435721813465
 30
0.0
 10
1542.664577552162
 20
236.2256617397251
 30
0.0
 10
1542.656794044905
 20
236.2459232784973
 30
0.0
 10
1542.653053875781
 20
236.2556594525913
 30
0.0
  0
SPLINE
  5
17E
330
1F
100
AcDbEntity
  8
0
  6
Continuous
 62
     7
370
    25
100
AcDbSpline
210
0.0
220
0.0
230
1.0
 70
     8
 71
     3
 72
    11
 73
     7
 74
     0
 42
0.00000001
 43
0.00000001
 40
0.0
 40
0.0
 40
0.0
 40
0.0
 40
0.2702613318129019
 40
0.5624293896420924
 40
0.7897364218595333
 40
0.9999999999999999
 40
0.9999999999999999
 40
0.9999999999999999
 40
0.9999999999999999
 10
1521.772897580602
 20
236.2556594525913
 30
0.0
 10
1521.779101274999
 20
236.239431743896
 30
0.0
 10
1521.792011520166
 20
236.2056609479202
 30
0.0
 10
1521.88719909619
 20
235.9531127463535
 30
0.0
 10
1522.005578554335
 20
235.6386036352469
 30
0.0
 10
1522.086101203339
 20
235.4244580559693
 30
0.0
 10
1522.124794342
 20
235.32155577077
 30
0.0
  0
SPLINE
  5
17F
330
1F
100
AcDbEntity
  8
0
  6
Continuous
 62
     7
370
    25
100
AcDbSpline
210
0.0
220
0.0
230
1.0
 70
     8
 71
     3
 72
     9
 73
     5
 74
     0
 42
0.00000001
 43
0.00000001
 40
0.0
 40
0.0
 40
0.0
 40
0.0
 40
0.5599999999999834
 40
1.0
 40
1.0
 40
1.0
 40
1.0
 10
1521.772897580602
 20
236.2556594525913
 30
0.0
 10
1521.83712758579
 20
236.2761411315743
 30
0.0
 10
1521.951824023625
 20
236.3127155583298
 30
0.0
 10
1522.071942300275
 20
236.3175106669712
 30
0.0
 10
1522.124794342
 20
236.3196205147734
 30
0.0
  0
SPLINE
  5
180
330
1F
100
AcDbEntity
  8
0
  6
Continuous
 62
     7
370
    25
100
AcDbSpline
210
0.0
220
0.0
230
1.0
 70
    24
 71
     3
 72
    11
 73
     7
 74
     0
 42
0.00000001
 43
0.00000001
 40
0.0
 40
0.0
 40
0.0
 40
0.0
 40
0.2702613318128826
 40
0.5624293896420888
 40
0.7897364218595412
 40
0.9999999999999999
 40
0.9999999999999999
 40
0.9999999999999999
 40
0.9999999999999999
 10
1522.124794342
 20
235.32155577077
 30
0.0
 10
1522.124794342
 20
235.4632270321016
 30
0.0
 10
1522.124794342
 20
235.758053082525
 30
0.0
 10
1522.124794342
 20
236.0929517467909
 30
0.0
 10
1522.124794342
 20
236.2875282484402
 30
0.0
 10
1522.124794342
 20
236.3092045242782
 30
0.0
 10
1522.124794342
 20
236.3196205147734
 30
0.0
  0
SPLINE
  5
181
330
1F
100
AcDbEntity
  8
0
  6
Continuous
 62
     7
370
    25
100
AcDbSpline
210
0.0
220
0.0
230
1.0
 70
     8
 71
     3
 72
     9
 73
     5
 74
     0
 42
0.00000001
 43
0.00000001
 40
0.0
 40
0.0
 40
0.0
 40
0.0
 40
0.5600000000000049
 40
1.0
 40
1.0
 40
1.0
 40
1.0
 10
1543.75770104418
 20
236.2556594525913
 30
0.0
 10
1543.693471038992
 20
236.2761411315743
 30
0.0
 10
1543.578774601157
 20
236.3127155583298
 30
0.0
 10
1543.458656324508
 20
236.3175106669712
 30
0.0
 10
1543.405804282782
 20
236.3196205147734
 30
0.0
  0
SPLINE
  5
182
330
1F
100
AcDbEntity
  8
0
  6
Continuous
 62
     7
370
    25
100
AcDbSpline
210
0.0
220
0.0
230
1.0
 70
     8
 71
     3
 72
    11
 73
     7
 74
     0
 42
0.00000001
 43
0.00000001
 40
0.0
 40
0.0
 40
0.0
 40
0.0
 40
0.2702613318129021
 40
0.5624293896420933
 40
0.789736421859536
 40
1.0
 40
1.0
 40
1.0
 40
1.0
 10
1543.75770104418
 20
236.2556594525913
 30
0.0
 10
1543.751497349784
 20
236.239431743896
 30
0.0
 10
1543.738587104616
 20
236.2056609479202
 30
0.0
 10
1543.643399528592
 20
235.9531127463535
 30
0.0
 10
1543.525020070447
 20
235.6386036352469
 30
0.0
 10
1543.444497421444
 20
235.4244580559693
 30
0.0
 10
1543.405804282782
 20
235.32155577077
 30
0.0
  0
SPLINE
  5
183
330
1F
100
AcDbEntity
  8
0
  6
Continuous
 62
     7
370
    25
100
AcDbSpline
210
0.0
220
0.0
230
1.0
 70
    24
 71
     3
 72
    11
 73
     7
 74
     0
 42
0.00000001
 43
0.00000001
 40
0.0
 40
0.0
 40
0.0
 40
0.0
 40
0.2702613318128826
 40
0.5624293896420888
 40
0.7897364218595412
 40
0.9999999999999999
 40
0.9999999999999999
 40
0.9999999999999999
 40
0.9999999999999999
 10
1543.405804282782
 20
235.32155577077
 30
0.0
 10
1543.405804282782
 20
235.4632270321016
 30
0.0
 10
1543.405804282782
 20
235.758053082525
 30
0.0
 10
1543.405804282782
 20
236.0929517467909
 30
0.0
 10
1543.405804282782
 20
236.2875282484402
 30
0.0
 10
1543.405804282782
 20
236.3092045242782
 30
0.0
 10
1543.405804282782
 20
236.3196205147734
 30
0.0
  0
SPLINE
  5
184
330
1F
100
AcDbEntity
  8
0
  6
Continuous
 62
     7
370
    25
100
AcDbSpline
210
0.0
220
0.0
230
1.0
 70
     8
 71
     3
 72
     9
 73
     5
 74
     0
 42
0.00000001
 43
0.00000001
 40
0.0
 40
0.0
 40
0.0
 40
0.0
 40
0.560000000000003
 40
1.0
 40
1.0
 40
1.0
 40
1.0
 10
1522.124794342
 20
235.32155577077
 30
0.0
 10
1522.03973807151
 20
235.276007596847
 30
0.0
 10
1521.887851874206
 20
235.1946715719845
 30
0.0
 10
1521.816880520278
 20
235.0392163322166
 30
0.0
 10
1521.78565312455
 20
234.9708160267188
 30
0.0
  0
LINE
  5
185
330
1F
100
AcDbEntity
  8
0
  6
Continuous
 62
     7
370
    25
100
AcDbLine
 10
1522.5256479876
 20
235.3215557708
 30
0.0
 11
1522.124794342
 21
235.3215557708
 31
0.0
  0
SPLINE
  5
186
330
1F
100
AcDbEntity
  8
0
  6
Continuous
 62
     7
370
    25
100
AcDbSpline
210
0.0
220
0.0
230
1.0
 70
     8
 71
     3
 72
    10
 73
     6
 74
     0
 42
0.00000001
 43
0.00000001
 40
0.0
 40
0.0
 40
0.0
 40
0.0
 40
0.2768779234291666
 40
0.5624038656204273
 40
1.0
 40
1.0
 40
1.0
 40
1.0
 10
1522.881440500759
 20
234.9109821547805
 30
0.0
 10
1522.866051822156
 20
234.9608299585425
 30
0.0
 10
1522.834793814202
 20
235.0620825148362
 30
0.0
 10
1522.720989625191
 20
235.2182516677164
 30
0.0
 10
1522.599292688518
 20
235.2826096460902
 30
0.0
 10
1522.525647987603
 20
235.32155577077
 30
0.0
  0
LINE
  5
187
330
1F
100
AcDbEntity
  8
0
  6
Continuous
 62
     7
370
    25
100
AcDbLine
 10
1522.7831455595
 20
232.8696128212
 30
0.0
 11
1522.7831455595
 21
234.7936130469
 31
0.0
  0
SPLINE
  5
188
330
1F
100
AcDbEntity
  8
0
  6
Continuous
 62
     7
370
    25
100
AcDbSpline
210
0.0
220
0.0
230
1.0
 70
     8
 71
     3
 72
    15
 73
    11
 74
     0
 42
0.00000001
 43
0.00000001
 40
0.0
 40
0.0
 40
0.0
 40
0.0
 40
0.1200542337629188
 40
0.2499999999999906
 40
0.3799457662370638
 40
0.4999999999999933
 40
0.6200542337629232
 40
0.7499999999999952
 40
0.8799457662370647
 40
0.9999999999999999
 40
0.9999999999999999
 40
0.9999999999999999
 40
0.9999999999999999
 10
1522.783145559547
 20
234.7936130469242
 30
0.0
 10
1522.776160660088
 20
234.8567761508249
 30
0.0
 10
1522.761615359935
 20
234.9883065057342
 30
0.0
 10
1522.644938079703
 20
235.1592103272066
 30
0.0
 10
1522.47522788522
 20
235.2713953956111
 30
0.0
 10
1522.280312445606
 20
235.3084745714807
 30
0.0
 10
1522.085397005992
 20
235.2713953956111
 30
0.0
 10
1521.915686811508
 20
235.1592103272066
 30
0.0
 10
1521.799009531277
 20
234.9883065057342
 30
0.0
 10
1521.784464231123
 20
234.8567761508249
 30
0.0
 10
1521.777479331664
 20
234.7936130469242
 30
0.0
  0
LINE
  5
189
330
1F
100
AcDbEntity
  8
0
  6
Continuous
 62
     7
370
    25
100
AcDbLine
 10
1521.7774793317
 20
234.7936130469
 30
0.0
 11
1521.7762130633
 21
234.7908563175
 31
0.0
  0
LINE
  5
18A
330
1F
100
AcDbEntity
  8
0
  6
Continuous
 62
     7
370
    25
100
AcDbLine
 10
1521.7856531245
 20
234.9708160267
 30
0.0
 11
1521.7762130633
 21
234.7908563175
 31
0.0
  0
SPLINE
  5
18B
330
1F
100
AcDbEntity
  8
0
  6
Continuous
 62
     7
370
    25
100
AcDbSpline
210
0.0
220
0.0
230
1.0
 70
     8
 71
     3
 72
    11
 73
     7
 74
     0
 42
0.00000001
 43
0.00000001
 40
0.0
 40
0.0
 40
0.0
 40
0.0
 40
0.2702613318128863
 40
0.5624293896420811
 40
0.7897364218595317
 40
1.0
 40
1.0
 40
1.0
 40
1.0
 10
1523.858015293568
 20
235.1242266034765
 30
0.0
 10
1523.840798961295
 20
235.1207071401411
 30
0.0
 10
1523.804970782743
 20
235.1133829343352
 30
0.0
 10
1523.540808683143
 20
235.055826135312
 30
0.0
 10
1523.21228507198
 20
234.9838169127445
 30
0.0
 10
1522.988820698637
 20
234.9346216864606
 30
0.0
 10
1522.881440500759
 20
234.9109821547805
 30
0.0
  0
LINE
  5
18C
330
1F
100
AcDbEntity
  8
0
  6
Continuous
 62
     7
370
    25
100
AcDbLine
 10
1543.7531192931
 20
234.7936130469
 30
0.0
 11
1543.7543855615
 21
234.7908563175
 31
0.0
  0
SPLINE
  5
18D
330
1F
100
AcDbEntity
  8
0
  6
Continuous
 62
     7
370
    25
100
AcDbSpline
210
0.0
220
0.0
230
1.0
 70
     8
 71
     3
 72
    15
 73
    11
 74
     0
 42
0.00000001
 43
0.00000001
 40
0.0
 40
0.0
 40
0.0
 40
0.0
 40
0.1200542337629186
 40
0.2499999999999902
 40
0.3799457662370633
 40
0.4999999999999926
 40
0.6200542337629268
 40
0.7499999999999949
 40
0.8799457662370666
 40
1.0
 40
1.0
 40
1.0
 40
1.0
 10
1542.747453065235
 20
234.7936130469242
 30
0.0
 10
1542.754437964694
 20
234.8567761508249
 30
0.0
 10
1542.768983264848
 20
234.9883065057342
 30
0.0
 10
1542.885660545079
 20
235.1592103272066
 30
0.0
 10
1543.055370739562
 20
235.2713953956111
 30
0.0
 10
1543.250286179177
 20
235.3084745714807
 30
0.0
 10
1543.445201618791
 20
235.2713953956111
 30
0.0
 10
1543.614911813274
 20
235.1592103272066
 30
0.0
 10
1543.731589093506
 20
234.9883065057342
 30
0.0
 10
1543.746134393659
 20
234.8567761508249
 30
0.0
 10
1543.753119293119
 20
234.7936130469242
 30
0.0
  0
LINE
  5
18E
330
1F
100
AcDbEntity
  8
0
  6
Continuous
 62
     7
370
    25
100
AcDbLine
 10
1542.7474530652
 20
232.8696128212
 30
0.0
 11
1542.7474530652
 21
234.7936130469
 31
0.0
  0
SPLINE
  5
18F
330
1F
100
AcDbEntity
  8
0
  6
Continuous
 62
     7
370
    25
100
AcDbSpline
210
0.0
220
0.0
230
1.0
 70
     8
 71
     3
 72
    10
 73
     6
 74
     0
 42
0.00000001
 43
0.00000001
 40
0.0
 40
0.0
 40
0.0
 40
0.0
 40
0.2768779234291666
 40
0.5624038656204273
 40
1.0
 40
1.0
 40
1.0
 40
1.0
 10
1542.649158124023
 20
234.9109821547805
 30
0.0
 10
1542.664546802626
 20
234.9608299585425
 30
0.0
 10
1542.695804810581
 20
235.0620825148362
 30
0.0
 10
1542.809608999591
 20
235.2182516677164
 30
0.0
 10
1542.931305936264
 20
235.2826096460902
 30
0.0
 10
1543.004950637179
 20
235.32155577077
 30
0.0
  0
LINE
  5
190
330
1F
100
AcDbEntity
  8
0
  6
Continuous
 62
     7
370
    25
100
AcDbLine
 10
1543.0049506372
 20
235.3215557708
 30
0.0
 11
1543.4058042828
 21
235.3215557708
 31
0.0
  0
SPLINE
  5
191
330
1F
100
AcDbEntity
  8
0
  6
Continuous
 62
     7
370
    25
100
AcDbSpline
210
0.0
220
0.0
230
1.0
 70
     8
 71
     3
 72
     9
 73
     5
 74
     0
 42
0.00000001
 43
0.00000001
 40
0.0
 40
0.0
 40
0.0
 40
0.0
 40
0.5600000000000069
 40
1.0
 40
1.0
 40
1.0
 40
1.0
 10
1543.405804282782
 20
235.32155577077
 30
0.0
 10
1543.490860553272
 20
235.276007596847
 30
0.0
 10
1543.642746750576
 20
235.1946715719845
 30
0.0
 10
1543.713718104504
 20
235.0392163322166
 30
0.0
 10
1543.744945500232
 20
234.9708160267188
 30
0.0
  0
LINE
  5
192
330
1F
100
AcDbEntity
  8
0
  6
Continuous
 62
     7
370
    25
100
AcDbLine
 10
1543.7449455002
 20
234.9708160267
 30
0.0
 11
1543.7543855615
 21
234.7908563175
 31
0.0
  0
SPLINE
  5
193
330
1F
100
AcDbEntity
  8
0
  6
Continuous
 62
     7
370
    25
100
AcDbSpline
210
0.0
220
0.0
230
1.0
 70
     8
 71
     3
 72
    11
 73
     7
 74
     0
 42
0.00000001
 43
0.00000001
 40
0.0
 40
0.0
 40
0.0
 40
0.0
 40
0.2702613318128863
 40
0.5624293896420811
 40
0.7897364218595317
 40
1.0
 40
1.0
 40
1.0
 40
1.0
 10
1541.672583331215
 20
235.1242266034765
 30
0.0
 10
1541.689799663487
 20
235.1207071401411
 30
0.0
 10
1541.72562784204
 20
235.1133829343352
 30
0.0
 10
1541.98978994164
 20
235.055826135312
 30
0.0
 10
1542.318313552802
 20
234.9838169127445
 30
0.0
 10
1542.541777926145
 20
234.9346216864606
 30
0.0
 10
1542.649158124023
 20
234.9109821547805
 30
0.0
  0
LINE
  5
194
330
1F
100
AcDbEntity
  8
0
  6
Continuous
 62
     7
370
    25
100
AcDbLine
 10
1521.7774793317
 20
234.7889729181
 30
0.0
 11
1521.7774793317
 21
234.7936130469
 31
0.0
  0
LINE
  5
195
330
1F
100
AcDbEntity
  8
0
  6
Continuous
 62
     7
370
    25
100
AcDbLine
 10
1521.7762130633
 20
234.7862161887
 30
0.0
 11
1521.7774793317
 21
234.7889729181
 31
0.0
  0
SPLINE
  5
196
330
1F
100
AcDbEntity
  8
0
  6
Continuous
 62
     7
370
    25
100
AcDbSpline
210
0.0
220
0.0
230
1.0
 70
     8
 71
     3
 72
     9
 73
     5
 74
     0
 42
0.00000001
 43
0.00000001
 40
0.0
 40
0.0
 40
0.0
 40
0.0
 40
0.530416603746688
 40
1.0
 40
1.0
 40
1.0
 40
1.0
 10
1521.001448703413
 20
233.100040981708
 30
0.0
 10
1521.136178629074
 20
233.3931881157636
 30
0.0
 10
1521.390186374512
 20
233.9458614898339
 30
0.0
 10
1521.652864008013
 20
234.517693412382
 30
0.0
 10
1521.776213063272
 20
234.7862161886582
 30
0.0
  0
LINE
  5
197
330
1F
100
AcDbEntity
  8
0
  6
Continuous
 62
     7
370
    25
100
AcDbLine
 10
1521.0014487034
 20
233.1000409817
 30
0.0
 11
1521.0014487034
 21
233.103630198
 31
0.0
  0
SPLINE
  5
198
330
1F
100
AcDbEntity
  8
0
  6
Continuous
 62
     7
370
    25
100
AcDbSpline
210
0.0
220
0.0
230
1.0
 70
     8
 71
     3
 72
     9
 73
     5
 74
     0
 42
0.00000001
 43
0.00000001
 40
0.0
 40
0.0
 40
0.0
 40
0.0
 40
0.5931105904960058
 40
1.0
 40
1.0
 40
1.0
 40
1.0
 10
1521.776213063272
 20
234.7908563174634
 30
0.0
 10
1521.620199063011
 20
234.45118339524
 30
0.0
 10
1521.357155369707
 20
233.8784859461195
 30
0.0
 10
1521.104323367496
 20
233.3277278389861
 30
0.0
 10
1521.001448703413
 20
233.103630197995
 30
0.0
  0
SPLINE
  5
199
330
1F
100
AcDbEntity
  8
0
  6
Continuous
 62
     7
370
    25
100
AcDbSpline
210
0.0
220
0.0
230
1.0
 70
     8
 71
     3
 72
     9
 73
     5
 74
     0
 42
0.00000001
 43
0.00000001
 40
0.0
 40
0.0
 40
0.0
 40
0.0
 40
0.5599999999999928
 40
1.0
 40
1.0
 40
1.0
 40
1.0
 10
1521.001448703413
 20
233.103630197995
 30
0.0
 10
1520.901959585287
 20
233.1086180742389
 30
0.0
 10
1520.724300445776
 20
233.1175249961029
 30
0.0
 10
1520.69855316096
 20
233.1183446679061
 30
0.0
 10
1520.687224355641
 20
233.1187053234995
 30
0.0
  0
SPLINE
  5
19A
330
1F
100
AcDbEntity
  8
0
  6
Continuous
 62
     7
370
    25
100
AcDbSpline
210
0.0
220
0.0
230
1.0
 70
     8
 71
     3
 72
    11
 73
     7
 74
     0
 42
0.00000001
 43
0.00000001
 40
0.0
 40
0.0
 40
0.0
 40
0.0
 40
0.2796579740372052
 40
0.5592666022935324
 40
0.7796650582495979
 40
1.0
 40
1.0
 40
1.0
 40
1.0
 10
1520.792427036036
 20
235.1242266034765
 30
0.0
 10
1520.81131075263
 20
235.1219969459688
 30
0.0
 10
1520.849074853778
 20
235.1175380243774
 30
0.0
 10
1521.116441845413
 20
235.0806524577639
 30
0.0
 10
1521.444165714736
 20
235.0320711175106
 30
0.0
 10
1521.671834924435
 20
234.991232428558
 30
0.0
 10
1521.78565312455
 20
234.9708160267188
 30
0.0
  0
LINE
  5
19B
330
1F
100
AcDbEntity
  8
0
  6
Continuous
 62
     7
370
    25
100
AcDbLine
 10
1544.5291499214
 20
233.1000409817
 30
0.0
 11
1544.5291499214
 21
233.103630198
 31
0.0
  0
SPLINE
  5
19C
330
1F
100
AcDbEntity
  8
0
  6
Continuous
 62
     7
370
    25
100
AcDbSpline
210
0.0
220
0.0
230
1.0
 70
     8
 71
     3
 72
     9
 73
     5
 74
     0
 42
0.00000001
 43
0.00000001
 40
0.0
 40
0.0
 40
0.0
 40
0.0
 40
0.5304166037466888
 40
1.0
 40
1.0
 40
1.0
 40
1.0
 10
1544.529149921369
 20
233.100040981708
 30
0.0
 10
1544.394419995708
 20
233.3931881157636
 30
0.0
 10
1544.14041225027
 20
233.945861489834
 30
0.0
 10
1543.877734616769
 20
234.517693412382
 30
0.0
 10
1543.75438556151
 20
234.7862161886582
 30
0.0
  0
LINE
  5
19D
330
1F
100
AcDbEntity
  8
0
  6
Continuous
 62
     7
370
    25
100
AcDbLine
 10
1543.7543855615
 20
234.7862161887
 30
0.0
 11
1543.7531192931
 21
234.7889729181
 31
0.0
  0
LINE
  5
19E
330
1F
100
AcDbEntity
  8
0
  6
Continuous
 62
     7
370
    25
100
AcDbLine
 10
1543.7531192931
 20
234.7889729181
 30
0.0
 11
1543.7531192931
 21
234.7936130469
 31
0.0
  0
SPLINE
  5
19F
330
1F
100
AcDbEntity
  8
0
  6
Continuous
 62
     7
370
    25
100
AcDbSpline
210
0.0
220
0.0
230
1.0
 70
     8
 71
     3
 72
     9
 73
     5
 74
     0
 42
0.00000001
 43
0.00000001
 40
0.0
 40
0.0
 40
0.0
 40
0.0
 40
0.5931105904960063
 40
1.0
 40
1.0
 40
1.0
 40
1.0
 10
1543.75438556151
 20
234.7908563174634
 30
0.0
 10
1543.910399561772
 20
234.45118339524
 30
0.0
 10
1544.173443255075
 20
233.8784859461195
 30
0.0
 10
1544.426275257286
 20
233.3277278389861
 30
0.0
 10
1544.529149921369
 20
233.103630197995
 30
0.0
  0
SPLINE
  5
1A0
330
1F
100
AcDbEntity
  8
0
  6
Continuous
 62
     7
370
    25
100
AcDbSpline
210
0.0
220
0.0
230
1.0
 70
     8
 71
     3
 72
    11
 73
     7
 74
     0
 42
0.00000001
 43
0.00000001
 40
0.0
 40
0.0
 40
0.0
 40
0.0
 40
0.2796579740371835
 40
0.5592666022935514
 40
0.7796650582495895
 40
1.0
 40
1.0
 40
1.0
 40
1.0
 10
1544.738171588747
 20
235.1242266034765
 30
0.0
 10
1544.719287872152
 20
235.1219969459688
 30
0.0
 10
1544.681523771004
 20
235.1175380243773
 30
0.0
 10
1544.41415677937
 20
235.080652457764
 30
0.0
 10
1544.086432910047
 20
235.0320711175105
 30
0.0
 10
1543.858763700347
 20
234.9912324285579
 30
0.0
 10
1543.744945500232
 20
234.9708160267188
 30
0.0
  0
SPLINE
  5
1A1
330
1F
100
AcDbEntity
  8
0
  6
Continuous
 62
     7
370
    25
100
AcDbSpline
210
0.0
220
0.0
230
1.0
 70
     8
 71
     3
 72
     9
 73
     5
 74
     0
 42
0.00000001
 43
0.00000001
 40
0.0
 40
0.0
 40
0.0
 40
0.0
 40
0.5599999999999928
 40
1.0
 40
1.0
 40
1.0
 40
1.0
 10
1544.529149921369
 20
233.103630197995
 30
0.0
 10
1544.628639039495
 20
233.1086180742389
 30
0.0
 10
1544.806298179006
 20
233.1175249961029
 30
0.0
 10
1544.832045463822
 20
233.1183446679061
 30
0.0
 10
1544.843374269142
 20
233.1187053234995
 30
0.0
  0
SPLINE
  5
1A2
330
1F
100
AcDbEntity
  8
0
  6
Continuous
 62
     7
370
    25
100
AcDbSpline
210
0.0
220
0.0
230
1.0
 70
     8
 71
     3
 72
    15
 73
    11
 74
     0
 42
0.00000001
 43
0.00000001
 40
0.0
 40
0.0
 40
0.0
 40
0.0
 40
0.1200542337629373
 40
0.2500000000000046
 40
0.3799457662370727
 40
0.5000000000000072
 40
0.6200542337629327
 40
0.7500000000000094
 40
0.8799457662370792
 40
1.0
 40
1.0
 40
1.0
 40
1.0
 10
1521.777479331664
 20
234.7889729181189
 30
0.0
 10
1521.784464231123
 20
234.8521360220197
 30
0.0
 10
1521.799009531277
 20
234.9836663769289
 30
0.0
 10
1521.915686811508
 20
235.1545701984012
 30
0.0
 10
1522.085397005992
 20
235.2667552668059
 30
0.0
 10
1522.280312445606
 20
235.3038344426755
 30
0.0
 10
1522.47522788522
 20
235.2667552668059
 30
0.0
 10
1522.644938079703
 20
235.1545701984013
 30
0.0
 10
1522.761615359935
 20
234.9836663769289
 30
0.0
 10
1522.776160660088
 20
234.8521360220197
 30
0.0
 10
1522.783145559547
 20
234.7889729181189
 30
0.0
  0
SPLINE
  5
1A3
330
1F
100
AcDbEntity
  8
0
  6
Continuous
 62
     7
370
    25
100
AcDbSpline
210
0.0
220
0.0
230
1.0
 70
     8
 71
     3
 72
    15
 73
    11
 74
     0
 42
0.00000001
 43
0.00000001
 40
0.0
 40
0.0
 40
0.0
 40
0.0
 40
0.1200542337629355
 40
0.2500000000000052
 40
0.3799457662370732
 40
0.5000000000000077
 40
0.6200542337629329
 40
0.7500000000000095
 40
0.8799457662370793
 40
0.9999999999999999
 40
0.9999999999999999
 40
0.9999999999999999
 40
0.9999999999999999
 10
1543.753119293119
 20
234.7889729181189
 30
0.0
 10
1543.746134393659
 20
234.8521360220197
 30
0.0
 10
1543.731589093506
 20
234.9836663769289
 30
0.0
 10
1543.614911813274
 20
235.1545701984012
 30
0.0
 10
1543.445201618791
 20
235.2667552668059
 30
0.0
 10
1543.250286179177
 20
235.3038344426754
 30
0.0
 10
1543.055370739562
 20
235.2667552668059
 30
0.0
 10
1542.885660545079
 20
235.1545701984013
 30
0.0
 10
1542.768983264848
 20
234.9836663769289
 30
0.0
 10
1542.754437964694
 20
234.8521360220197
 30
0.0
 10
1542.747453065235
 20
234.7889729181189
 30
0.0
  0
SPLINE
  5
1A4
330
1F
100
AcDbEntity
  8
0
  6
Continuous
 62
     7
370
    25
100
AcDbSpline
210
0.0
220
0.0
230
1.0
 70
     8
 71
     3
 72
    10
 73
     6
 74
     0
 42
0.00000001
 43
0.00000001
 40
0.0
 40
0.0
 40
0.0
 40
0.0
 40
0.2768779234291709
 40
0.5624038656204445
 40
1.0
 40
1.0
 40
1.0
 40
1.0
 10
1520.792427036036
 20
235.1242266034765
 30
0.0
 10
1520.834834184955
 20
235.261594033911
 30
0.0
 10
1520.920973029782
 20
235.5406194359
 30
0.0
 10
1521.234587428756
 20
235.9709805275671
 30
0.0
 10
1521.569952163426
 20
236.1483341810873
 30
0.0
 10
1521.772897580602
 20
236.2556594525913
 30
0.0
  0
SPLINE
  5
1A5
330
1F
100
AcDbEntity
  8
0
  6
Continuous
 62
     7
370
    25
100
AcDbSpline
210
0.0
220
0.0
230
1.0
 70
     8
 71
     3
 72
    10
 73
     6
 74
     0
 42
0.00000001
 43
0.00000001
 40
0.0
 40
0.0
 40
0.0
 40
0.0
 40
0.2768779234291553
 40
0.5624038656204172
 40
1.0
 40
1.0
 40
1.0
 40
1.0
 10
1522.877544749001
 20
236.2556594525913
 30
0.0
 10
1523.007483820219
 20
236.1941446463642
 30
0.0
 10
1523.271420486036
 20
236.0691936774083
 30
0.0
 10
1523.652798665375
 20
235.6975547117027
 30
0.0
 10
1523.780647675518
 20
235.3403739521819
 30
0.0
 10
1523.858015293568
 20
235.1242266034765
 30
0.0
  0
SPLINE
  5
1A6
330
1F
100
AcDbEntity
  8
0
  6
Continuous
 62
     7
370
    25
100
AcDbSpline
210
0.0
220
0.0
230
1.0
 70
     8
 71
     3
 72
    10
 73
     6
 74
     0
 42
0.00000001
 43
0.00000001
 40
0.0
 40
0.0
 40
0.0
 40
0.0
 40
0.276877923429171
 40
0.5624038656204431
 40
1.0
 40
1.0
 40
1.0
 40
1.0
 10
1544.738171588747
 20
235.1242266034765
 30
0.0
 10
1544.695764439827
 20
235.261594033911
 30
0.0
 10
1544.609625595001
 20
235.5406194359
 30
0.0
 10
1544.296011196026
 20
235.9709805275672
 30
0.0
 10
1543.960646461356
 20
236.1483341810873
 30
0.0
 10
1543.75770104418
 20
236.2556594525913
 30
0.0
  0
SPLINE
  5
1A7
330
1F
100
AcDbEntity
  8
0
  6
Continuous
 62
     7
370
    25
100
AcDbSpline
210
0.0
220
0.0
230
1.0
 70
     8
 71
     3
 72
    10
 73
     6
 74
     0
 42
0.00000001
 43
0.00000001
 40
0.0
 40
0.0
 40
0.0
 40
0.0
 40
0.2768779234291553
 40
0.5624038656204172
 40
1.0
 40
1.0
 40
1.0
 40
1.0
 10
1542.653053875781
 20
236.2556594525913
 30
0.0
 10
1542.523114804563
 20
236.1941446463642
 30
0.0
 10
1542.259178138747
 20
236.0691936774083
 30
0.0
 10
1541.877799959408
 20
235.6975547117027
 30
0.0
 10
1541.749950949264
 20
235.3403739521819
 30
0.0
 10
1541.672583331215
 20
235.1242266034765
 30
0.0
  0
LINE
  5
1A8
330
1F
100
AcDbEntity
  8
0
  6
Continuous
 62
     7
370
    25
100
AcDbLine
 10
1522.124794342
 20
236.3196205148
 30
0.0
 11
1522.5256479876
 21
236.3196205148
 31
0.0
  0
LINE
  5
1A9
330
1F
100
AcDbEntity
  8
0
  6
Continuous
 62
     7
370
    25
100
AcDbLine
 10
1543.4058042828
 20
236.3196205148
 30
0.0
 11
1543.0049506372
 21
236.3196205148
 31
0.0
  0
SPLINE
  5
1AA
330
1F
100
AcDbEntity
  8
0
  6
Continuous
 62
     7
370
    25
100
AcDbSpline
210
0.0
220
0.0
230
1.0
 70
     8
 71
     3
 72
     9
 73
     5
 74
     0
 42
0.00000001
 43
0.00000001
 40
0.0
 40
0.0
 40
0.0
 40
0.0
 40
0.5600000000000309
 40
0.9999999999999999
 40
0.9999999999999999
 40
0.9999999999999999
 40
0.9999999999999999
 10
1520.687224355641
 20
233.1179319686986
 30
0.0
 10
1520.705912094029
 20
233.1166531266717
 30
0.0
 10
1520.739283055438
 20
233.114369480195
 30
0.0
 10
1520.921342533198
 20
233.1044191340234
 30
0.0
 10
1521.001448703413
 20
233.100040981708
 30
0.0
  0
LINE
  5
1AB
330
1F
100
AcDbEntity
  8
0
  6
Continuous
 62
     7
370
    25
100
AcDbLine
 10
1520.6872243556
 20
233.1179319687
 30
0.0
 11
1520.6872243556
 21
233.1187053235
 31
0.0
  0
LINE
  5
1AC
330
1F
100
AcDbEntity
  8
0
  6
Continuous
 62
     7
370
    25
100
AcDbLine
 10
1544.8433742691
 20
233.1179319687
 30
0.0
 11
1544.8433742691
 21
233.1187053235
 31
0.0
  0
SPLINE
  5
1AD
330
1F
100
AcDbEntity
  8
0
  6
Continuous
 62
     7
370
    25
100
AcDbSpline
210
0.0
220
0.0
230
1.0
 70
     8
 71
     3
 72
     9
 73
     5
 74
     0
 42
0.00000001
 43
0.00000001
 40
0.0
 40
0.0
 40
0.0
 40
0.0
 40
0.5600000000000309
 40
0.9999999999999999
 40
0.9999999999999999
 40
0.9999999999999999
 40
0.9999999999999999
 10
1544.843374269142
 20
233.1179319686986
 30
0.0
 10
1544.824686530753
 20
233.1166531266717
 30
0.0
 10
1544.791315569344
 20
233.114369480195
 30
0.0
 10
1544.609256091584
 20
233.1044191340234
 30
0.0
 10
1544.529149921369
 20
233.100040981708
 30
0.0
  0
LINE
  5
1AE
330
1F
100
AcDbEntity
  8
0
  6
Continuous
 62
     7
370
    25
100
AcDbLine
 10
1528.3581644932
 20
234.3696128212
 30
0.0
 11
1541.5063115258
 21
234.3696128212
 31
0.0
  0
LINE
  5
1AF
330
1F
100
AcDbEntity
  8
0
  6
Continuous
 62
     7
370
    25
100
AcDbLine
 10
1542.8049263825
 20
234.3696128212
 30
0.0
 11
1543.3581644932
 21
234.3696128212
 31
0.0
  0
LINE
  5
1B0
330
1F
100
AcDbEntity
  8
0
  6
Continuous
 62
     7
370
    25
100
AcDbLine
 10
1543.3581644932
 20
232.8696128212
 30
0.0
 11
1543.3581644932
 21
234.3696128212
 31
0.0
  0
LINE
  5
1B1
330
1F
100
AcDbEntity
  8
0
  6
Continuous
 62
     7
370
    25
100
AcDbLine
 10
1528.3581644932
 20
232.8696128212
 30
0.0
 11
1528.3581644932
 21
234.3696128212
 31
0.0
  0
LINE
  5
1B2
330
1F
100
AcDbEntity
  8
0
  6
Continuous
 62
     7
370
    25
100
AcDbLine
 10
1381.0652993124
 20
189.6618693316
 30
0.0
 11
1381.5652993124
 21
189.6618693316
 31
0.0
  0
LINE
  5
1B3
330
1F
100
AcDbEntity
  8
0
  6
Continuous
 62
     7
370
    25
100
AcDbLine
 10
1560.0652993124
 20
189.6618693316
 30
0.0
 11
1559.7652993124
 21
189.6618693316
 31
0.0
  0
SPLINE
  5
1B4
330
1F
100
AcDbEntity
  8
0
  6
Continuous
 62
     7
370
    25
100
AcDbSpline
210
0.0
220
0.0
230
1.0
 70
     8
 71
     3
 72
     9
 73
     5
 74
     0
 42
0.00000001
 43
0.00000001
 40
0.0
 40
0.0
 40
0.0
 40
0.0
 40
0.0165241238323927
 40
1.0
 40
1.0
 40
1.0
 40
1.0
 10
1381.743602061763
 20
189.5937565291312
 30
0.0
 10
1381.741767912995
 20
189.5941316972588
 30
0.0
 10
1381.630769666599
 20
189.6168359647556
 30
0.0
 10
1381.538083811688
 20
189.6395402322526
 30
0.0
 10
1381.446929509321
 20
189.6618693316219
 30
0.0
  0
LINE
  5
1B5
330
1F
100
AcDbEntity
  8
0
  6
Continuous
 62
     7
370
    25
100
AcDbLine
 10
1381.7561144109
 20
189.6618693316
 30
0.0
 11
1381.5652993124
 21
189.6618693316
 31
0.0
  0
LINE
  5
1B6
330
1F
100
AcDbEntity
  8
0
  6
Continuous
 62
     7
370
    25
100
AcDbLine
 10
1381.7652993124
 20
189.6618693316
 30
0.0
 11
1381.7652993124
 21
231.6696128212
 31
0.0
  0
LINE
  5
1B7
330
1F
100
AcDbEntity
  8
0
  6
Continuous
 62
     7
370
    25
100
AcDbLine
 10
1559.7652993124
 20
231.6696128212
 30
0.0
 11
1381.7652993124
 21
231.6696128212
 31
0.0
  0
LINE
  5
1B8
330
1F
100
AcDbEntity
  8
0
  6
Continuous
 62
     7
370
    25
100
AcDbLine
 10
1559.7652993124
 20
231.6696128212
 30
0.0
 11
1559.7652993124
 21
189.6618693316
 31
0.0
  0
LINE
  5
1B9
330
1F
100
AcDbEntity
  8
0
  6
Continuous
 62
     7
370
    25
100
AcDbLine
 10
1559.7652993124
 20
189.6618693316
 30
0.0
 11
1559.7652993124
 21
189.1618693316
 31
0.0
  0
LINE
  5
1BA
330
1F
100
AcDbEntity
  8
0
  6
Continuous
 62
     7
370
    25
100
AcDbLine
 10
1381.7652993124
 20
189.1618693316
 30
0.0
 11
1559.7652993124
 21
189.1618693316
 31
0.0
  0
LINE
  5
1BB
330
1F
100
AcDbEntity
  8
0
  6
Continuous
 62
     7
370
    25
100
AcDbLine
 10
1381.7652993124
 20
189.1618693316
 30
0.0
 11
1381.7652993124
 21
189.6618693316
 31
0.0
  0
LINE
  5
1BC
330
1F
100
AcDbEntity
  8
0
  6
Continuous
 62
     7
370
    25
100
AcDbLine
 10
1380.5652993124
 20
190.4079975868
 30
0.0
 11
1380.5652993124
 21
231.6696128212
 31
0.0
  0
LINE
  5
1BD
330
1F
100
AcDbEntity
  8
0
  6
Continuous
 62
     7
370
    25
100
AcDbLine
 10
1381.7652993124
 20
231.6696128212
 30
0.0
 11
1380.5652993124
 21
231.6696128212
 31
0.0
  0
SPLINE
  5
1BE
330
1F
100
AcDbEntity
  8
0
  6
Continuous
 62
     7
370
    25
100
AcDbSpline
210
0.0
220
0.0
230
1.0
 70
     8
 71
     3
 72
    11
 73
     7
 74
     0
 42
0.00000001
 43
0.00000001
 40
0.0
 40
0.0
 40
0.0
 40
0.0
 40
0.2499999999999782
 40
0.500000000000003
 40
0.749999999999995
 40
1.0
 40
1.0
 40
1.0
 40
1.0
 10
1380.565299312396
 20
190.4079975868393
 30
0.0
 10
1380.58333719974
 20
190.3458202322371
 30
0.0
 10
1380.61941297443
 20
190.2214655230324
 30
0.0
 10
1380.896912030175
 20
190.0349334592256
 30
0.0
 10
1381.29356595469
 20
189.8484013954187
 30
0.0
 10
1381.608054859824
 20
189.7240466862141
 30
0.0
 10
1381.765299312391
 20
189.6618693316118
 30
0.0
  0
LINE
  5
1BF
330
1F
100
AcDbEntity
  8
0
  6
Continuous
 62
     7
370
    25
100
AcDbLine
 10
1560.9652993124
 20
231.6696128212
 30
0.0
 11
1559.7652993124
 21
231.6696128212
 31
0.0
  0
LINE
  5
1C0
330
1F
100
AcDbEntity
  8
0
  6
Continuous
 62
     7
370
    25
100
AcDbLine
 10
1560.9652993124
 20
231.6696128212
 30
0.0
 11
1560.9652993124
 21
190.4079975868
 31
0.0
  0
SPLINE
  5
1C1
330
1F
100
AcDbEntity
  8
0
  6
Continuous
 62
     7
370
    25
100
AcDbSpline
210
0.0
220
0.0
230
1.0
 70
     8
 71
     3
 72
    11
 73
     7
 74
     0
 42
0.00000001
 43
0.00000001
 40
0.0
 40
0.0
 40
0.0
 40
0.0
 40
0.2499999999999944
 40
0.4999999999999806
 40
0.7500000000000194
 40
1.0
 40
1.0
 40
1.0
 40
1.0
 10
1559.765299312391
 20
189.6618693316119
 30
0.0
 10
1559.922543764959
 20
189.7240466862141
 30
0.0
 10
1560.237032670094
 20
189.8484013954187
 30
0.0
 10
1560.63368659461
 20
190.0349334592256
 30
0.0
 10
1560.911185650357
 20
190.2214655230325
 30
0.0
 10
1560.947261425046
 20
190.3458202322371
 30
0.0
 10
1560.965299312391
 20
190.4079975868394
 30
0.0
  0
SPLINE
  5
1C2
330
1F
100
AcDbEntity
  8
0
  6
Continuous
 62
     7
370
    25
100
AcDbSpline
210
0.0
220
0.0
230
1.0
 70
     8
 71
     3
 72
    12
 73
     8
 74
     0
 42
0.00000001
 43
0.00000001
 40
0.0
 40
0.0
 40
0.0
 40
0.0
 40
0.3006396947851855
 40
0.410825215594402
 40
0.497232286665126
 40
0.6936496680342423
 40
1.0
 40
1.0
 40
1.0
 40
1.0
 10
1382.265299312391
 20
232.8696128211567
 30
0.0
 10
1382.252849656205
 20
232.864345482019
 30
0.0
 10
1382.235837156606
 20
232.8571476442937
 30
0.0
 10
1382.187459786333
 20
232.8217795200614
 30
0.0
 10
1382.127863094793
 20
232.7905453645823
 30
0.0
 10
1381.979364615879
 20
232.7526667751807
 30
0.0
 10
1381.846349261984
 20
232.7244205021722
 30
0.0
 10
1381.765299312391
 20
232.7072092634958
 30
0.0
  0
LINE
  5
1C3
330
1F
100
AcDbEntity
  8
0
  6
Continuous
 62
     7
370
    25
100
AcDbLine
 10
1559.2652993124
 20
232.8696128212
 30
0.0
 11
1382.2652993124
 21
232.8696128212
 31
0.0
  0
SPLINE
  5
1C4
330
1F
100
AcDbEntity
  8
0
  6
Continuous
 62
     7
370
    25
100
AcDbSpline
210
0.0
220
0.0
230
1.0
 70
     8
 71
     3
 72
    12
 73
     8
 74
     0
 42
0.00000001
 43
0.00000001
 40
0.0
 40
0.0
 40
0.0
 40
0.0
 40
0.2893414005755502
 40
0.3971452044389828
 40
0.4846423278027054
 40
0.6854347489014986
 40
1.0
 40
1.0
 40
1.0
 40
1.0
 10
1559.765299312391
 20
232.7072092634958
 30
0.0
 10
1559.684559948703
 20
232.7203349412421
 30
0.0
 10
1559.573738438077
 20
232.7383510286792
 30
0.0
 10
1559.452862196554
 20
232.770177050023
 30
0.0
 10
1559.371067975257
 20
232.8019672028411
 30
0.0
 10
1559.312785475038
 20
232.8550077316355
 30
0.0
 10
1559.283297967757
 20
232.8640770617222
 30
0.0
 10
1559.265299312391
 20
232.8696128211567
 30
0.0
  0
LINE
  5
1C5
330
1F
100
AcDbEntity
  8
0
  6
Continuous
 62
     7
370
    25
100
AcDbLine
 10
1559.7652993124
 20
231.6696128212
 30
0.0
 11
1559.7652993124
 21
232.7072092635
 31
0.0
  0
LINE
  5
1C6
330
1F
100
AcDbEntity
  8
0
  6
Continuous
 62
     7
370
    25
100
AcDbLine
 10
1381.7652993124
 20
232.7072092635
 30
0.0
 11
1381.7652993124
 21
231.6696128212
 31
0.0
  0
LINE
  5
1C7
330
1F
100
AcDbEntity
  8
0
  6
Continuous
 62
     7
370
    25
100
AcDbLine
 10
1559.7652993124
 20
188.1899314302
 30
0.0
 11
1559.7652993124
 21
189.1618693316
 31
0.0
  0
LINE
  5
1C8
330
1F
100
AcDbEntity
  8
0
  6
Continuous
 62
     7
370
    25
100
AcDbLine
 10
1559.5872020673
 20
188.1618693316
 30
0.0
 11
1559.7652993124
 21
188.1899314302
 31
0.0
  0
LINE
  5
1C9
330
1F
100
AcDbEntity
  8
0
  6
Continuous
 62
     7
370
    25
100
AcDbLine
 10
1381.9433965575
 20
188.1618693316
 30
0.0
 11
1559.5872020673
 21
188.1618693316
 31
0.0
  0
LINE
  5
1CA
330
1F
100
AcDbEntity
  8
0
  6
Continuous
 62
     7
370
    25
100
AcDbLine
 10
1381.7652993124
 20
188.1899314302
 30
0.0
 11
1381.9433965575
 21
188.1618693316
 31
0.0
  0
LINE
  5
1CB
330
1F
100
AcDbEntity
  8
0
  6
Continuous
 62
     7
370
    25
100
AcDbLine
 10
1381.7652993124
 20
189.1618693316
 30
0.0
 11
1381.7652993124
 21
188.1899314302
 31
0.0
  0
SPLINE
  5
1CC
330
1F
100
AcDbEntity
  8
0
  6
Continuous
 62
     7
370
    25
100
AcDbSpline
210
0.0
220
0.0
230
1.0
 70
     8
 71
     3
 72
    12
 73
     8
 74
     0
 42
0.00000001
 43
0.00000001
 40
0.0
 40
0.0
 40
0.0
 40
0.0
 40
0.2893414007735222
 40
0.3971452045867248
 40
0.4846423278168971
 40
0.6854347491851381
 40
1.0
 40
1.0
 40
1.0
 40
1.0
 10
1381.162477926867
 20
232.7072092634958
 30
0.0
 10
1381.185587354826
 20
232.7203349412483
 30
0.0
 10
1381.217306972102
 20
232.7383510286882
 30
0.0
 10
1381.285953115695
 20
232.7701770500266
 30
0.0
 10
1381.363899751877
 20
232.8019672028876
 30
0.0
 10
1381.528029448482
 20
232.855007731651
 30
0.0
 10
1381.675367040149
 20
232.8640770617311
 30
0.0
 10
1381.765299312391
 20
232.8696128211567
 30
0.0
  0
SPLINE
  5
1CD
330
1F
100
AcDbEntity
  8
0
  6
Continuous
 62
     7
370
    25
100
AcDbSpline
210
0.0
220
0.0
230
1.0
 70
     8
 71
     3
 72
    12
 73
     8
 74
     0
 42
0.00000001
 43
0.00000001
 40
0.0
 40
0.0
 40
0.0
 40
0.0
 40
0.3588037912016214
 40
0.5752394285407502
 40
0.6544863258876601
 40
0.7503396587871615
 40
0.9999999999999999
 40
0.9999999999999999
 40
0.9999999999999999
 40
0.9999999999999999
 10
1381.413653504169
 20
232.2748774125212
 30
0.0
 10
1381.427142339821
 20
232.2823635607462
 30
0.0
 10
1381.44876783627
 20
232.2943654618757
 30
0.0
 10
1381.495513479972
 20
232.3168183718749
 30
0.0
 10
1381.558080317443
 20
232.3387606032934
 30
0.0
 10
1381.637435309608
 20
232.3611930395591
 30
0.0
 10
1381.711663619734
 20
232.3660809372161
 30
0.0
 10
1381.765299312391
 20
232.3696128211567
 30
0.0
  0
LINE
  5
1CE
330
1F
100
AcDbEntity
  8
0
  6
Continuous
 62
     7
370
    25
100
AcDbLine
 10
1381.4136535042
 20
232.2748774125
 30
0.0
 11
1381.1624779269
 21
232.7072092635
 31
0.0
  0
ARC
  5
1CF
330
1F
100
AcDbEntity
  8
0
  6
Continuous
 62
     7
370
    25
100
AcDbCircle
 10
1381.7652993124
 20
231.6696128212
 30
0.0
 40
0.7000000000002728
100
AcDbArc
 50
120.155673428
 51
180.0
  0
ARC
  5
1D0
330
1F
100
AcDbEntity
  8
0
  6
Continuous
 62
     7
370
    25
100
AcDbCircle
 10
1381.7652993124
 20
231.6696128212
 30
0.0
 40
1.200000000000273
100
AcDbArc
 50
120.1556734279
 51
180.0
  0
LINE
  5
1D1
330
1F
100
AcDbEntity
  8
0
  6
Continuous
 62
     7
370
    25
100
AcDbLine
 10
1382.2652993124
 20
232.8696128212
 30
0.0
 11
1381.7652993124
 21
232.8696128212
 31
0.0
  0
LINE
  5
1D2
330
1F
100
AcDbEntity
  8
0
  6
Continuous
 62
     7
370
    25
100
AcDbLine
 10
1560.1169451206
 20
232.2748774125
 30
0.0
 11
1560.3681206979
 21
232.7072092635
 31
0.0
  0
ARC
  5
1D3
330
1F
100
AcDbEntity
  8
0
  6
Continuous
 62
     7
370
    25
100
AcDbCircle
 10
1559.7652993124
 20
231.6696128212
 30
0.0
 40
1.200000000000045
100
AcDbArc
 50
360.0
 51
59.8443265721
  0
ARC
  5
1D4
330
1F
100
AcDbEntity
  8
0
  6
Continuous
 62
     7
370
    25
100
AcDbCircle
 10
1559.7652993124
 20
231.6696128212
 30
0.0
 40
0.7000000000000455
100
AcDbArc
 50
360.0
 51
59.8443265721
  0
LINE
  5
1D5
330
1F
100
AcDbEntity
  8
0
  6
Continuous
 62
     7
370
    25
100
AcDbLine
 10
1559.7652993124
 20
232.8696128212
 30
0.0
 11
1559.2652993124
 21
232.8696128212
 31
0.0
  0
SPLINE
  5
1D6
330
1F
100
AcDbEntity
  8
0
  6
Continuous
 62
     7
370
    25
100
AcDbSpline
210
0.0
220
0.0
230
1.0
 70
     8
 71
     3
 72
    12
 73
     8
 74
     0
 42
0.00000001
 43
0.00000001
 40
0.0
 40
0.0
 40
0.0
 40
0.0
 40
0.3006396949343335
 40
0.4108252157061801
 40
0.4972322866732313
 40
0.6936496682105892
 40
1.0
 40
1.0
 40
1.0
 40
1.0
 10
1559.765299312391
 20
232.8696128211567
 30
0.0
 10
1559.852280797027
 20
232.8643454820146
 30
0.0
 10
1559.971141306102
 20
232.8571476442849
 30
0.0
 10
1560.103534758393
 20
232.8217795200348
 30
0.0
 10
1560.197678045794
 20
232.7905453645653
 30
0.0
 10
1560.285612106567
 20
232.7526667751822
 30
0.0
 10
1560.336881085244
 20
232.7244205021667
 30
0.0
 10
1560.368120697915
 20
232.7072092634958
 30
0.0
  0
SPLINE
  5
1D7
330
1F
100
AcDbEntity
  8
0
  6
Continuous
 62
     7
370
    25
100
AcDbSpline
210
0.0
220
0.0
230
1.0
 70
     8
 71
     3
 72
    11
 73
     7
 74
     0
 42
0.00000001
 43
0.00000001
 40
0.0
 40
0.0
 40
0.0
 40
0.0
 40
0.234972212677281
 40
0.327735052106609
 40
0.4088708125535875
 40
1.0
 40
1.0
 40
1.0
 40
1.0
 10
1559.765299312391
 20
232.3696128211567
 30
0.0
 10
1559.816855733298
 20
232.3663281146433
 30
0.0
 10
1559.8887657098
 20
232.3617466645729
 30
0.0
 10
1559.965344930587
 20
232.3408770406383
 30
0.0
 10
1560.074794845741
 20
232.3039815786285
 30
0.0
 10
1560.09722343833
 20
232.288494954016
 30
0.0
 10
1560.116945120614
 20
232.2748774125212
 30
0.0
  0
LINE
  5
1D8
330
1F
100
AcDbEntity
  8
0
  6
Continuous
 62
     7
370
    25
100
AcDbLine
 10
1381.0652993124
 20
189.9637680614
 30
0.0
 11
1381.0652993124
 21
189.6618693316
 31
0.0
  0
LINE
  5
1D9
330
1F
100
AcDbEntity
  8
0
  6
Continuous
 62
     7
370
    25
100
AcDbLine
 10
1381.0652993124
 20
189.6618693316
 30
0.0
 11
1380.5652993124
 21
189.6618693316
 31
0.0
  0
LINE
  5
1DA
330
1F
100
AcDbEntity
  8
0
  6
Continuous
 62
     7
370
    25
100
AcDbLine
 10
1380.5652993124
 20
231.6696128212
 30
0.0
 11
1380.5652993124
 21
189.6618693316
 31
0.0
  0
ARC
  5
1DB
330
1F
100
AcDbEntity
  8
0
  6
Continuous
 62
     7
370
    25
100
AcDbCircle
 10
1381.5652993124
 20
189.6618693316
 30
0.0
 40
1.0
100
AcDbArc
 50
180.0
 51
218.1971863421
  0
LINE
  5
1DC
330
1F
100
AcDbEntity
  8
0
  6
Continuous
 62
     7
370
    25
100
AcDbLine
 10
1381.172355682
 20
189.3526844301
 30
0.0
 11
1380.7794120516
 21
189.0434995285
 31
0.0
  0
ARC
  5
1DD
330
1F
100
AcDbEntity
  8
0
  6
Continuous
 62
     7
370
    25
100
AcDbCircle
 10
1381.5652993124
 20
189.6618693316
 30
0.0
 40
0.500000000000065
100
AcDbArc
 50
180.0
 51
218.197186342
  0
LINE
  5
1DE
330
1F
100
AcDbEntity
  8
0
  6
Continuous
 62
     7
370
    25
100
AcDbLine
 10
1560.4652993124
 20
189.6618693316
 30
0.0
 11
1560.9652993124
 21
189.6618693316
 31
0.0
  0
ARC
  5
1DF
330
1F
100
AcDbEntity
  8
0
  6
Continuous
 62
     7
370
    25
100
AcDbCircle
 10
1559.9652993124
 20
189.6618693316
 30
0.0
 40
1.000000000000183
100
AcDbArc
 50
321.802813658
 51
0.0
  0
LINE
  5
1E0
330
1F
100
AcDbEntity
  8
0
  6
Continuous
 62
     7
370
    25
100
AcDbLine
 10
1560.3582429428
 20
189.3526844301
 30
0.0
 11
1560.7511865732
 21
189.0434995285
 31
0.0
  0
ARC
  5
1E1
330
1F
100
AcDbEntity
  8
0
  6
Continuous
 62
     7
370
    25
100
AcDbCircle
 10
1559.9652993124
 20
189.6618693316
 30
0.0
 40
0.5000000000002274
100
AcDbArc
 50
321.802813658
 51
0.0
  0
LINE
  5
1E2
330
1F
100
AcDbEntity
  8
0
  6
Continuous
 62
     7
370
    25
100
AcDbLine
 10
1560.9652993124
 20
189.6618693316
 30
0.0
 11
1560.9652993124
 21
231.6696128212
 31
0.0
  0
LINE
  5
1E3
330
1F
100
AcDbEntity
  8
0
  6
Continuous
 62
     7
370
    25
100
AcDbLine
 10
1560.4652993124
 20
189.6618693316
 30
0.0
 11
1560.4652993124
 21
189.9637680614
 31
0.0
  0
LINE
  5
1E4
330
1F
100
AcDbEntity
  8
0
  6
Continuous
 62
     7
370
    25
100
AcDbLine
 10
1381.5652993124
 20
189.1618693316
 30
0.0
 11
1381.5652993124
 21
188.6618693316
 31
0.0
  0
SPLINE
  5
1E5
330
1F
100
AcDbEntity
  8
0
  6
Continuous
 62
     7
370
    25
100
AcDbSpline
210
0.0
220
0.0
230
1.0
 70
     8
 71
     3
 72
    11
 73
     7
 74
     0
 42
0.00000001
 43
0.00000001
 40
0.0
 40
0.0
 40
0.0
 40
0.0
 40
0.2500000000000007
 40
0.4999999999999954
 40
0.7500000000000061
 40
1.0
 40
1.0
 40
1.0
 40
1.0
 10
1381.565299312391
 20
188.6618693316118
 30
0.0
 10
1381.489916270601
 20
188.6667752849434
 30
0.0
 10
1381.33915018702
 20
188.6765871916066
 30
0.0
 10
1381.125220003036
 20
188.7556183961881
 30
0.0
 10
1380.93082242041
 20
188.8748728920638
 30
0.0
 10
1380.829882174546
 20
188.987290649716
 30
0.0
 10
1380.779412051614
 20
189.0434995285421
 30
0.0
  0
SPLINE
  5
1E6
330
1F
100
AcDbEntity
  8
0
  6
Continuous
 62
     7
370
    25
100
AcDbSpline
210
0.0
220
0.0
230
1.0
 70
     8
 71
     3
 72
    11
 73
     7
 74
     0
 42
0.00000001
 43
0.00000001
 40
0.0
 40
0.0
 40
0.0
 40
0.0
 40
0.2500000000000013
 40
0.5000000000000072
 40
0.7500000000000305
 40
1.0
 40
1.0
 40
1.0
 40
1.0
 10
1381.565299312391
 20
189.1618693316118
 30
0.0
 10
1381.527607791496
 20
189.1643223082776
 30
0.0
 10
1381.452224749706
 20
189.1692282616092
 30
0.0
 10
1381.345259657714
 20
189.2087438639
 30
0.0
 10
1381.248060866401
 20
189.2683711118378
 30
0.0
 10
1381.197590743469
 20
189.3245799906639
 30
0.0
 10
1381.172355682003
 20
189.352684430077
 30
0.0
  0
LINE
  5
1E7
330
1F
100
AcDbEntity
  8
0
  6
Continuous
 62
     7
370
    25
100
AcDbLine
 10
1559.9652993124
 20
189.1618693316
 30
0.0
 11
1559.9652993124
 21
188.6618693316
 31
0.0
  0
SPLINE
  5
1E8
330
1F
100
AcDbEntity
  8
0
  6
Continuous
 62
     7
370
    25
100
AcDbSpline
210
0.0
220
0.0
230
1.0
 70
     8
 71
     3
 72
    11
 73
     7
 74
     0
 42
0.00000001
 43
0.00000001
 40
0.0
 40
0.0
 40
0.0
 40
0.0
 40
0.2499999999999988
 40
0.4999999999999964
 40
0.7500000000000092
 40
1.0
 40
1.0
 40
1.0
 40
1.0
 10
1560.751186573168
 20
189.0434995285422
 30
0.0
 10
1560.700716450236
 20
188.9872906497161
 30
0.0
 10
1560.599776204372
 20
188.8748728920639
 30
0.0
 10
1560.405378621746
 20
188.7556183961883
 30
0.0
 10
1560.191448437762
 20
188.6765871916068
 30
0.0
 10
1560.040682354181
 20
188.6667752849436
 30
0.0
 10
1559.965299312391
 20
188.6618693316119
 30
0.0
  0
SPLINE
  5
1E9
330
1F
100
AcDbEntity
  8
0
  6
Continuous
 62
     7
370
    25
100
AcDbSpline
210
0.0
220
0.0
230
1.0
 70
     8
 71
     3
 72
    11
 73
     7
 74
     0
 42
0.00000001
 43
0.00000001
 40
0.0
 40
0.0
 40
0.0
 40
0.0
 40
0.2500000000000072
 40
0.5000000000000023
 40
0.7499999999999963
 40
1.0
 40
1.0
 40
1.0
 40
1.0
 10
1560.358242942779
 20
189.3526844300771
 30
0.0
 10
1560.333007881314
 20
189.324579990664
 30
0.0
 10
1560.282537758382
 20
189.2683711118379
 30
0.0
 10
1560.185338967069
 20
189.2087438639001
 30
0.0
 10
1560.078373875077
 20
189.1692282616093
 30
0.0
 10
1560.002990833286
 20
189.1643223082777
 30
0.0
 10
1559.965299312391
 20
189.1618693316119
 30
0.0
  0
LINE
  5
1EA
330
1F
100
AcDbEntity
  8
0
  6
Continuous
 62
     7
370
    25
100
AcDbLine
 10
1381.5652993124
 20
189.1618693316
 30
0.0
 11
1381.7652993124
 21
189.1618693316
 31
0.0
  0
LINE
  5
1EB
330
1F
100
AcDbEntity
  8
0
  6
Continuous
 62
     7
370
    25
100
AcDbLine
 10
1381.5652993124
 20
188.6618693316
 30
0.0
 11
1381.7652993124
 21
188.6618693316
 31
0.0
  0
LINE
  5
1EC
330
1F
100
AcDbEntity
  8
0
  6
Continuous
 62
     7
370
    25
100
AcDbLine
 10
1559.7652993124
 20
188.6618693316
 30
0.0
 11
1559.9652993124
 21
188.6618693316
 31
0.0
  0
LINE
  5
1ED
330
1F
100
AcDbEntity
  8
0
  6
Continuous
 62
     7
370
    25
100
AcDbLine
 10
1559.7652993124
 20
189.1618693316
 30
0.0
 11
1559.9652993124
 21
189.1618693316
 31
0.0
  0
LINE
  5
1EE
330
1F
100
AcDbEntity
  8
0
  6
Continuous
 62
     8
370
    25
100
AcDbLine
 10
1523.3312361337
 20
232.8696128212
 30
0.0
 11
1522.8814405008
 21
234.9109821548
 31
0.0
  0
LINE
  5
1EF
330
1F
100
AcDbEntity
  8
0
  6
Continuous
 62
     8
370
    25
100
AcDbLine
 10
1542.1993624911
 20
232.8696128212
 30
0.0
 11
1542.649158124
 21
234.9109821548
 31
0.0
  0
ENDSEC
  0
SECTION
  2
OBJECTS
  0
DICTIONARY
  5
C
330
0
100
AcDbDictionary
281
     1
  3
ACAD_GROUP
350
D
  3
ACAD_LAYOUT
350
1A
  3
ACAD_MLINESTYLE
350
17
  3
ACAD_PLOTSETTINGS
350
19
  3
ACAD_PLOTSTYLENAME
350
E
  3
ACAD_SCALELIST
350
47
  3
DWGPROPS
350
1F0
  0
DICTIONARY
  5
D
102
{ACAD_REACTORS
330
C
102
}
330
C
100
AcDbDictionary
281
     1
  0
DICTIONARY
  5
1A
102
{ACAD_REACTORS
330
C
102
}
330
C
100
AcDbDictionary
281
     1
  3
Layout1
350
1E
  3
Layout2
350
26
  3
Model
350
22
  0
DICTIONARY
  5
17
102
{ACAD_REACTORS
330
C
102
}
330
C
100
AcDbDictionary
281
     1
  3
Standard
350
18
  0
DICTIONARY
  5
19
102
{ACAD_REACTORS
330
C
102
}
330
C
100
AcDbDictionary
281
     1
  0
ACDBDICTIONARYWDFLT
  5
E
102
{ACAD_REACTORS
330
C
102
}
330
C
100
AcDbDictionary
281
     1
  3
Normal
350
F
100
AcDbDictionaryWithDefault
340
F
  0
DICTIONARY
  5
47
102
{ACAD_REACTORS
330
C
102
}
330
C
100
AcDbDictionary
281
     1
  3
A0
350
48
  3
A1
350
49
  3
A2
350
4A
  3
A3
350
4B
  3
A4
350
4C
  3
A5
350
4D
  3
A6
350
4E
  3
A7
350
4F
  3
A8
350
50
  3
A9
350
51
  3
B0
350
52
  3
B1
350
53
  3
B2
350
54
  3
B3
350
55
  3
B4
350
56
  3
B5
350
57
  3
B6
350
58
  3
B7
350
59
  3
B8
350
5A
  3
B9
350
5B
  3
C0
350
5C
  3
C1
350
5D
  3
C2
350
5E
  3
C3
350
5F
  3
C4
350
60
  3
C5
350
61
  3
C6
350
62
  3
C7
350
63
  3
C8
350
64
  3
C9
350
65
  3
D0
350
66
  3
D1
350
67
  3
D2
350
68
  0
XRECORD
  5
1F0
102
{ACAD_REACTORS
330
C
102
}
330
C
100
AcDbXrecord
280
     1
  1
DWGPROPS COOKIE
  2

  3

  4

  6

  7

  8
Vostorgin
  9

300
=
301
=
302
=
303
=
304
=
305
=
306
=
307
=
308
=
309
=
 40
0.0
 41
2459275.416073102
 42
2459275.416073599
  1

 90
        0
  0
LAYOUT
  5
1E
102
{ACAD_REACTORS
330
1A
102
}
330
1A
100
AcDbPlotSettings
  1

  2
none_device
  4

  6

 40
0.0
 41
0.0
 42
0.0
 43
0.0
 44
0.0
 45
0.0
 46
0.0
 47
0.0
 48
0.0
 49
0.0
140
0.0
141
0.0
142
1.0
143
1.0
 70
   688
 72
     1
 73
     0
 74
     5
  7

 75
    16
147
1.0
148
0.0
149
0.0
100
AcDbLayout
  1
Layout1
 70
     1
 71
     1
 10
0.0
 20
0.0
 11
420.0
 21
297.0
 12
0.0
 22
0.0
 32
0.0
 14
1.0000000000E+20
 24
1.0000000000E+20
 34
1.0000000000E+20
 15
-1.0000000000E+20
 25
-1.0000000000E+20
 35
-1.0000000000E+20
146
0.0
 13
0.0
 23
0.0
 33
0.0
 16
1.0
 26
0.0
 36
0.0
 17
0.0
 27
1.0
 37
0.0
 76
     0
330
1B
  0
LAYOUT
  5
26
102
{ACAD_REACTORS
330
1A
102
}
330
1A
100
AcDbPlotSettings
  1

  2
none_device
  4

  6

 40
0.0
 41
0.0
 42
0.0
 43
0.0
 44
0.0
 45
0.0
 46
0.0
 47
0.0
 48
0.0
 49
0.0
140
0.0
141
0.0
142
1.0
143
1.0
 70
   688
 72
     1
 73
     0
 74
     5
  7

 75
    16
147
1.0
148
0.0
149
0.0
100
AcDbLayout
  1
Layout2
 70
     1
 71
     2
 10
0.0
 20
0.0
 11
0.0
 21
0.0
 12
0.0
 22
0.0
 32
0.0
 14
0.0
 24
0.0
 34
0.0
 15
0.0
 25
0.0
 35
0.0
146
0.0
 13
0.0
 23
0.0
 33
0.0
 16
1.0
 26
0.0
 36
0.0
 17
0.0
 27
1.0
 37
0.0
 76
     0
330
23
  0
LAYOUT
  5
22
102
{ACAD_REACTORS
330
1A
102
}
330
1A
100
AcDbPlotSettings
  1

  2
none_device
  4
Letter_(8.50_x_11.00_Inches)
  6

 40
6.35
 41
6.35
 42
6.35000508
 43
6.35000508
 44
215.9
 45
279.4
 46
0.0
 47
0.0
 48
0.0
 49
0.0
140
0.0
141
0.0
142
1.0
143
1.0
 70
  1712
 72
     1
 73
     0
 74
     0
  7

 75
     0
147
1.0
148
0.0
149
0.0
100
AcDbLayout
  1
Model
 70
     1
 71
     0
 10
0.0
 20
0.0
 11
1189.0
 21
841.0
 12
0.0
 22
0.0
 32
0.0
 14
0.0
 24
0.0
 34
0.0
 15
1189.0
 25
841.0
 35
0.0
146
0.0
 13
0.0
 23
0.0
 33
0.0
 16
1.0
 26
0.0
 36
0.0
 17
0.0
 27
1.0
 37
0.0
 76
     0
330
1F
331
29
  0
MLINESTYLE
  5
18
102
{ACAD_REACTORS
330
17
102
}
330
17
100
AcDbMlineStyle
  2
Standard
 70
     0
  3

 62
   256
 51
90.0
 52
90.0
 71
     2
 49
0.5
 62
   256
  6
BYLAYER
 49
-0.5
 62
   256
  6
BYLAYER
  0
ACDBPLACEHOLDER
  5
F
102
{ACAD_REACTORS
330
E
102
}
330
E
  0
SCALE
  5
48
102
{ACAD_REACTORS
330
47
102
}
330
47
100
AcDbScale
 70
     0
300
1:1
140
1.0
141
1.0
290
     1
  0
SCALE
  5
49
102
{ACAD_REACTORS
330
47
102
}
330
47
100
AcDbScale
 70
     0
300
1:2
140
1.0
141
2.0
290
     0
  0
SCALE
  5
4A
102
{ACAD_REACTORS
330
47
102
}
330
47
100
AcDbScale
 70
     0
300
1:4
140
1.0
141
4.0
290
     0
  0
SCALE
  5
4B
102
{ACAD_REACTORS
330
47
102
}
330
47
100
AcDbScale
 70
     0
300
1:5
140
1.0
141
5.0
290
     0
  0
SCALE
  5
4C
102
{ACAD_REACTORS
330
47
102
}
330
47
100
AcDbScale
 70
     0
300
1:8
140
1.0
141
8.0
290
     0
  0
SCALE
  5
4D
102
{ACAD_REACTORS
330
47
102
}
330
47
100
AcDbScale
 70
     0
300
1:10
140
1.0
141
10.0
290
     0
  0
SCALE
  5
4E
102
{ACAD_REACTORS
330
47
102
}
330
47
100
AcDbScale
 70
     0
300
1:16
140
1.0
141
16.0
290
     0
  0
SCALE
  5
4F
102
{ACAD_REACTORS
330
47
102
}
330
47
100
AcDbScale
 70
     0
300
1:20
140
1.0
141
20.0
290
     0
  0
SCALE
  5
50
102
{ACAD_REACTORS
330
47
102
}
330
47
100
AcDbScale
 70
     0
300
1:30
140
1.0
141
30.0
290
     0
  0
SCALE
  5
51
102
{ACAD_REACTORS
330
47
102
}
330
47
100
AcDbScale
 70
     0
300
1:40
140
1.0
141
40.0
290
     0
  0
SCALE
  5
52
102
{ACAD_REACTORS
330
47
102
}
330
47
100
AcDbScale
 70
     0
300
1:50
140
1.0
141
50.0
290
     0
  0
SCALE
  5
53
102
{ACAD_REACTORS
330
47
102
}
330
47
100
AcDbScale
 70
     0
300
1:100
140
1.0
141
100.0
290
     0
  0
SCALE
  5
54
102
{ACAD_REACTORS
330
47
102
}
330
47
100
AcDbScale
 70
     0
300
2:1
140
2.0
141
1.0
290
     0
  0
SCALE
  5
55
102
{ACAD_REACTORS
330
47
102
}
330
47
100
AcDbScale
 70
     0
300
4:1
140
4.0
141
1.0
290
     0
  0
SCALE
  5
56
102
{ACAD_REACTORS
330
47
102
}
330
47
100
AcDbScale
 70
     0
300
8:1
140
8.0
141
1.0
290
     0
  0
SCALE
  5
57
102
{ACAD_REACTORS
330
47
102
}
330
47
100
AcDbScale
 70
     0
300
10:1
140
10.0
141
1.0
290
     0
  0
SCALE
  5
58
102
{ACAD_REACTORS
330
47
102
}
330
47
100
AcDbScale
 70
     0
300
100:1
140
100.0
141
1.0
290
     0
  0
SCALE
  5
59
102
{ACAD_REACTORS
330
47
102
}
330
47
100
AcDbScale
 70
     0
300
1/128" = 1'-0"
140
0.0078125
141
12.0
290
     0
  0
SCALE
  5
5A
102
{ACAD_REACTORS
330
47
102
}
330
47
100
AcDbScale
 70
     0
300
1/64" = 1'-0"
140
0.015625
141
12.0
290
     0
  0
SCALE
  5
5B
102
{ACAD_REACTORS
330
47
102
}
330
47
100
AcDbScale
 70
     0
300
1/32" = 1'-0"
140
0.03125
141
12.0
290
     0
  0
SCALE
  5
5C
102
{ACAD_REACTORS
330
47
102
}
330
47
100
AcDbScale
 70
     0
300
1/16" = 1'-0"
140
0.0625
141
12.0
290
     0
  0
SCALE
  5
5D
102
{ACAD_REACTORS
330
47
102
}
330
47
100
AcDbScale
 70
     0
300
3/32" = 1'-0"
140
0.09375
141
12.0
290
     0
  0
SCALE
  5
5E
102
{ACAD_REACTORS
330
47
102
}
330
47
100
AcDbScale
 70
     0
300
1/8" = 1'-0"
140
0.125
141
12.0
290
     0
  0
SCALE
  5
5F
102
{ACAD_REACTORS
330
47
102
}
330
47
100
AcDbScale
 70
     0
300
3/16" = 1'-0"
140
0.1875
141
12.0
290
     0
  0
SCALE
  5
60
102
{ACAD_REACTORS
330
47
102
}
330
47
100
AcDbScale
 70
     0
300
1/4" = 1'-0"
140
0.25
141
12.0
290
     0
  0
SCALE
  5
61
102
{ACAD_REACTORS
330
47
102
}
330
47
100
AcDbScale
 70
     0
300
3/8" = 1'-0"
140
0.375
141
12.0
290
     0
  0
SCALE
  5
62
102
{ACAD_REACTORS
330
47
102
}
330
47
100
AcDbScale
 70
     0
300
1/2" = 1'-0"
140
0.5
141
12.0
290
     0
  0
SCALE
  5
63
102
{ACAD_REACTORS
330
47
102
}
330
47
100
AcDbScale
 70
     0
300
3/4" = 1'-0"
140
0.75
141
12.0
290
     0
  0
SCALE
  5
64
102
{ACAD_REACTORS
330
47
102
}
330
47
100
AcDbScale
 70
     0
300
1" = 1'-0"
140
1.0
141
12.0
290
     0
  0
SCALE
  5
65
102
{ACAD_REACTORS
330
47
102
}
330
47
100
AcDbScale
 70
     0
300
1-1/2" = 1'-0"
140
1.5
141
12.0
290
     0
  0
SCALE
  5
66
102
{ACAD_REACTORS
330
47
102
}
330
47
100
AcDbScale
 70
     0
300
3" = 1'-0"
140
3.0
141
12.0
290
     0
  0
SCALE
  5
67
102
{ACAD_REACTORS
330
47
102
}
330
47
100
AcDbScale
 70
     0
300
6" = 1'-0"
140
6.0
141
12.0
290
     0
  0
SCALE
  5
68
102
{ACAD_REACTORS
330
47
102
}
330
47
100
AcDbScale
 70
     0
300
1'-0" = 1'-0"
140
12.0
141
12.0
290
     0
  0
ENDSEC
  0
EOF
