  0
SECTION
  2
HEADER
  9
$ACADVER
  1
AC1015
  9
$ACADMAINTVER
 70
     6
  9
$DWGCODEPAGE
  3
ANSI_1251
  9
$INSBASE
 10
0.0
 20
0.0
 30
0.0
  9
$EXTMIN
 10
0.0
 20
0.0
 30
0.0
  9
$EXTMAX
 10
1189.0
 20
841.0
 30
0.0
  9
$LIMMIN
 10
0.0
 20
0.0
  9
$LIMMAX
 10
1189.0
 20
841.0
  9
$ORTHOMODE
 70
     0
  9
$REGENMODE
 70
     1
  9
$FILLMODE
 70
     1
  9
$QTEXTMODE
 70
     0
  9
$MIRRTEXT
 70
     1
  9
$LTSCALE
 40
1.0
  9
$ATTMODE
 70
     1
  9
$TEXTSIZE
 40
3.5
  9
$TRACEWID
 40
1.0
  9
$TEXTSTYLE
  7
Standard
  9
$CLAYER
  8
0
  9
$CELTYPE
  6
ByLayer
  9
$CECOLOR
 62
   256
  9
$CELTSCALE
 40
1.0
  9
$DISPSILH
 70
     0
  9
$DIMSCALE
 40
1.0
  9
$DIMASZ
 40
3.5
  9
$DIMEXO
 40
0.01
  9
$DIMDLI
 40
3.75
  9
$DIMRND
 40
0.0
  9
$DIMDLE
 40
0.0
  9
$DIMEXE
 40
1.0
  9
$DIMTP
 40
0.0
  9
$DIMTM
 40
0.0
  9
$DIMTXT
 40
3.5
  9
$DIMCEN
 40
2.5
  9
$DIMTSZ
 40
0.0
  9
$DIMTOL
 70
     0
  9
$DIMLIM
 70
     0
  9
$DIMTIH
 70
     1
  9
$DIMTOH
 70
     1
  9
$DIMSE1
 70
     0
  9
$DIMSE2
 70
     0
  9
$DIMTAD
 70
     1
  9
$DIMZIN
 70
     0
  9
$DIMBLK
  1

  9
$DIMASO
 70
     1
  9
$DIMSHO
 70
     1
  9
$DIMPOST
  1

  9
$DIMAPOST
  1

  9
$DIMALT
 70
     0
  9
$DIMALTD
 70
     3
  9
$DIMALTF
 40
0.0393700787
  9
$DIMLFAC
 40
1.0
  9
$DIMTOFL
 70
     1
  9
$DIMTVP
 40
0.0
  9
$DIMTIX
 70
     0
  9
$DIMSOXD
 70
     0
  9
$DIMSAH
 70
     0
  9
$DIMBLK1
  1

  9
$DIMBLK2
  1

  9
$DIMSTYLE
  2
ISO-25
  9
$DIMCLRD
 70
     0
  9
$DIMCLRE
 70
     0
  9
$DIMCLRT
 70
     0
  9
$DIMTFAC
 40
1.0
  9
$DIMGAP
 40
3.0
  9
$DIMJUST
 70
     0
  9
$DIMSD1
 70
     0
  9
$DIMSD2
 70
     0
  9
$DIMTOLJ
 70
     0
  9
$DIMTZIN
 70
     0
  9
$DIMALTZ
 70
     0
  9
$DIMALTTZ
 70
     0
  9
$DIMUPT
 70
     0
  9
$DIMDEC
 70
     2
  9
$DIMTDEC
 70
     3
  9
$DIMALTU
 70
     2
  9
$DIMALTTD
 70
     3
  9
$DIMTXSTY
  7
Standard
  9
$DIMAUNIT
 70
     0
  9
$DIMADEC
 70
     2
  9
$DIMALTRND
 40
0.0
  9
$DIMAZIN
 70
     0
  9
$DIMDSEP
 70
    44
  9
$DIMATFIT
 70
     3
  9
$DIMFRAC
 70
     0
  9
$DIMLDRBLK
  1

  9
$DIMLUNIT
 70
     2
  9
$DIMLWD
 70
    -2
  9
$DIMLWE
 70
    -2
  9
$DIMTMOVE
 70
     0
  9
$LUNITS
 70
     2
  9
$LUPREC
 70
     4
  9
$SKETCHINC
 40
1.0
  9
$FILLETRAD
 40
10.0
  9
$AUNITS
 70
     0
  9
$AUPREC
 70
     2
  9
$MENU
  1
.
  9
$ELEVATION
 40
0.0
  9
$PELEVATION
 40
0.0
  9
$THICKNESS
 40
0.0
  9
$LIMCHECK
 70
     0
  9
$CHAMFERA
 40
0.0
  9
$CHAMFERB
 40
0.0
  9
$CHAMFERC
 40
0.0
  9
$CHAMFERD
 40
0.0
  9
$SKPOLY
 70
     0
  9
$TDCREATE
 40
2459275.534760648
  9
$TDUCREATE
 40
2459275.409760648
  9
$TDUPDATE
 40
2459275.5347611
  9
$TDUUPDATE
 40
2459275.4097611
  9
$TDINDWG
 40
0.0000000116
  9
$TDUSRTIMER
 40
0.0000000116
  9
$USRTIMER
 70
     1
  9
$ANGBASE
 50
0.0
  9
$ANGDIR
 70
     0
  9
$PDMODE
 70
     0
  9
$PDSIZE
 40
-1.0
  9
$PLINEWID
 40
0.0
  9
$SPLFRAME
 70
     0
  9
$SPLINETYPE
 70
     6
  9
$SPLINESEGS
 70
     8
  9
$HANDSEED
  5
1F9
  9
$SURFTAB1
 70
     6
  9
$SURFTAB2
 70
     6
  9
$SURFTYPE
 70
     6
  9
$SURFU
 70
     6
  9
$SURFV
 70
     6
  9
$UCSBASE
  2

  9
$UCSNAME
  2

  9
$UCSORG
 10
0.0
 20
0.0
 30
0.0
  9
$UCSXDIR
 10
1.0
 20
0.0
 30
0.0
  9
$UCSYDIR
 10
0.0
 20
1.0
 30
0.0
  9
$UCSORTHOREF
  2

  9
$UCSORTHOVIEW
 70
     0
  9
$UCSORGTOP
 10
0.0
 20
0.0
 30
0.0
  9
$UCSORGBOTTOM
 10
0.0
 20
0.0
 30
0.0
  9
$UCSORGLEFT
 10
0.0
 20
0.0
 30
0.0
  9
$UCSORGRIGHT
 10
0.0
 20
0.0
 30
0.0
  9
$UCSORGFRONT
 10
0.0
 20
0.0
 30
0.0
  9
$UCSORGBACK
 10
0.0
 20
0.0
 30
0.0
  9
$PUCSBASE
  2

  9
$PUCSNAME
  2

  9
$PUCSORG
 10
0.0
 20
0.0
 30
0.0
  9
$PUCSXDIR
 10
1.0
 20
0.0
 30
0.0
  9
$PUCSYDIR
 10
0.0
 20
1.0
 30
0.0
  9
$PUCSORTHOREF
  2

  9
$PUCSORTHOVIEW
 70
     0
  9
$PUCSORGTOP
 10
0.0
 20
0.0
 30
0.0
  9
$PUCSORGBOTTOM
 10
0.0
 20
0.0
 30
0.0
  9
$PUCSORGLEFT
 10
0.0
 20
0.0
 30
0.0
  9
$PUCSORGRIGHT
 10
0.0
 20
0.0
 30
0.0
  9
$PUCSORGFRONT
 10
0.0
 20
0.0
 30
0.0
  9
$PUCSORGBACK
 10
0.0
 20
0.0
 30
0.0
  9
$USERI1
 70
     0
  9
$USERI2
 70
     0
  9
$USERI3
 70
     0
  9
$USERI4
 70
     0
  9
$USERI5
 70
     0
  9
$USERR1
 40
0.0
  9
$USERR2
 40
0.0
  9
$USERR3
 40
0.0
  9
$USERR4
 40
0.0
  9
$USERR5
 40
0.0
  9
$WORLDVIEW
 70
     1
  9
$SHADEDGE
 70
     3
  9
$SHADEDIF
 70
    70
  9
$TILEMODE
 70
     1
  9
$MAXACTVP
 70
    64
  9
$PINSBASE
 10
0.0
 20
0.0
 30
0.0
  9
$PLIMCHECK
 70
     0
  9
$PEXTMIN
 10
1.0000000000E+20
 20
1.0000000000E+20
 30
1.0000000000E+20
  9
$PEXTMAX
 10
-1.0000000000E+20
 20
-1.0000000000E+20
 30
-1.0000000000E+20
  9
$PLIMMIN
 10
0.0
 20
0.0
  9
$PLIMMAX
 10
420.0
 20
297.0
  9
$UNITMODE
 70
     0
  9
$VISRETAIN
 70
     1
  9
$PLINEGEN
 70
     0
  9
$PSLTSCALE
 70
     1
  9
$TREEDEPTH
 70
  3020
  9
$CMLSTYLE
  2
Standard
  9
$CMLJUST
 70
     0
  9
$CMLSCALE
 40
20.0
  9
$PROXYGRAPHICS
 70
     1
  9
$MEASUREMENT
 70
     1
  9
$CELWEIGHT
370
    -1
  9
$ENDCAPS
280
     0
  9
$JOINSTYLE
280
     0
  9
$LWDISPLAY
290
     1
  9
$INSUNITS
 70
     4
  9
$HYPERLINKBASE
  1

  9
$STYLESHEET
  1

  9
$XEDIT
290
     1
  9
$CEPSNTYPE
380
     0
  9
$PSTYLEMODE
290
     1
  9
$FINGERPRINTGUID
  2
{1cb0e890-3029-49de-9a07-e21f73f027f8}
  9
$VERSIONGUID
  2
{FAEB1C32-E019-11D5-929B-00C0DF256EC4}
  9
$EXTNAMES
290
     1
  9
$PSVPSCALE
 40
0.0
  9
$OLESTARTUP
290
     0
  0
ENDSEC
  0
SECTION
  2
CLASSES
  0
CLASS
  1
ACDBDICTIONARYWDFLT
  2
AcDbDictionaryWithDefault
  3
ObjectDBX Classes
 90
        0
280
     0
281
     0
  0
CLASS
  1
VISUALSTYLE
  2
AcDbVisualStyle
  3
ObjectDBX Classes
 90
     4095
280
     0
281
     0
  0
CLASS
  1
MATERIAL
  2
AcDbMaterial
  3
ObjectDBX Classes
 90
     1153
280
     0
281
     0
  0
CLASS
  1
SCALE
  2
AcDbScale
  3
ObjectDBX Classes
 90
     1153
280
     0
281
     0
  0
CLASS
  1
TABLESTYLE
  2
AcDbTableStyle
  3
ObjectDBX Classes
 90
     4095
280
     0
281
     0
  0
CLASS
  1
MLEADERSTYLE
  2
AcDbMLeaderStyle
  3
ACDB_MLEADERSTYLE_CLASS
 90
     4095
280
     0
281
     0
  0
CLASS
  1
SUN
  2
AcDbSun
  3
SCENEOE
 90
     1153
280
     0
281
     0
  0
CLASS
  1
ACDBPLACEHOLDER
  2
AcDbPlaceHolder
  3
ObjectDBX Classes
 90
        0
280
     0
281
     0
  0
CLASS
  1
LAYOUT
  2
AcDbLayout
  3
ObjectDBX Classes
 90
        0
280
     0
281
     0
  0
ENDSEC
  0
SECTION
  2
TABLES
  0
TABLE
  2
VPORT
  5
8
330
0
100
AcDbSymbolTable
 70
     1
  0
VPORT
  5
29
330
8
100
AcDbSymbolTableRecord
100
AcDbViewportTableRecord
  2
*Active
 70
     0
 10
0.0
 20
0.0
 11
1.0
 21
1.0
 12
594.5
 22
420.5
 13
0.0
 23
0.0
 14
10.0
 24
10.0
 15
10.0
 25
10.0
 16
0.0
 26
0.0
 36
1.0
 17
0.0
 27
0.0
 37
0.0
 40
841.0
 41
1.4137931034
 42
50.0
 43
0.0
 44
0.0
 50
0.0
 51
0.0
 71
     0
 72
  2000
 73
     1
 74
     3
 75
     0
 76
     0
 77
     0
 78
     0
281
     0
 65
     1
110
0.0
120
0.0
130
0.0
111
1.0
121
0.0
131
0.0
112
0.0
122
1.0
132
0.0
 79
     0
146
0.0
  0
ENDTAB
  0
TABLE
  2
LTYPE
  5
5
330
0
100
AcDbSymbolTable
 70
     6
  0
LTYPE
  5
14
330
5
100
AcDbSymbolTableRecord
100
AcDbLinetypeTableRecord
  2
ByBlock
 70
     0
  3

 72
    65
 73
     0
 40
0.0
  0
LTYPE
  5
15
330
5
100
AcDbSymbolTableRecord
100
AcDbLinetypeTableRecord
  2
ByLayer
 70
     0
  3

 72
    65
 73
     0
 40
0.0
  0
LTYPE
  5
16
330
5
100
AcDbSymbolTableRecord
100
AcDbLinetypeTableRecord
  2
Continuous
 70
     0
  3
Solid line
 72
    65
 73
     0
 40
0.0
  0
LTYPE
  5
6E
330
5
100
AcDbSymbolTableRecord
100
AcDbLinetypeTableRecord
  2
HIDDEN
 70
     0
  3
Hidden __ __ __ __ __ __ __ __ __ __ __ __ __ __
 72
    65
 73
     2
 40
1.905
 49
1.27
 74
     0
 49
-0.635
 74
     0
  0
LTYPE
  5
6F
330
5
100
AcDbSymbolTableRecord
100
AcDbLinetypeTableRecord
  2
PHANTOM
 70
     0
  3
Phantom ______  __  __  ______  __  __  ______
 72
    65
 73
     6
 40
12.7
 49
6.35
 74
     0
 49
-1.27
 74
     0
 49
1.27
 74
     0
 49
-1.27
 74
     0
 49
1.27
 74
     0
 49
-1.27
 74
     0
  0
LTYPE
  5
70
330
5
100
AcDbSymbolTableRecord
100
AcDbLinetypeTableRecord
  2
CENTER
 70
     0
  3
Center ____ _ ____ _ ____ _ ____ _ ____ _ ____
 72
    65
 73
     4
 40
10.16
 49
6.35
 74
     0
 49
-1.27
 74
     0
 49
1.27
 74
     0
 49
-1.27
 74
     0
  0
LTYPE
  5
71
330
5
100
AcDbSymbolTableRecord
100
AcDbLinetypeTableRecord
  2
CENTERX2
 70
     0
  3
Center (2x) ________  __  ________  __  _____
 72
    65
 73
     4
 40
20.32
 49
12.7
 74
     0
 49
-2.54
 74
     0
 49
2.54
 74
     0
 49
-2.54
 74
     0
  0
LTYPE
  5
72
330
5
100
AcDbSymbolTableRecord
100
AcDbLinetypeTableRecord
  2
DOT2
 70
     0
  3
Dot (.5x) ........................................
 72
    65
 73
     2
 40
0.635
 49
0.0
 74
     0
 49
-0.635
 74
     0
  0
ENDTAB
  0
TABLE
  2
LAYER
  5
2
330
0
100
AcDbSymbolTable
 70
     5
  0
LAYER
  5
10
330
2
100
AcDbSymbolTableRecord
100
AcDbLayerTableRecord
  2
0
 70
     0
 62
     7
  6
Continuous
370
    -3
390
F
  0
LAYER
  5
73
330
2
100
AcDbSymbolTableRecord
100
AcDbLayerTableRecord
  2
ОСЕВЫЕ
 70
     0
 62
     7
  6
Continuous
370
    -3
390
F
  0
LAYER
  5
74
330
2
100
AcDbSymbolTableRecord
100
AcDbLayerTableRecord
  2
ВОДЯНЫЕ_ЗНАКИ
 70
     0
 62
    11
  6
Continuous
370
    -3
390
F
  0
LAYER
  5
75
330
2
100
AcDbSymbolTableRecord
100
AcDbLayerTableRecord
  2
ОСНОВНОЙ
 70
     0
 62
     7
  6
Continuous
370
    25
390
F
  0
LAYER
  5
76
330
2
100
AcDbSymbolTableRecord
100
AcDbLayerTableRecord
  2
FORMAT
 70
     0
 62
     7
  6
Continuous
370
    -3
390
F
  0
ENDTAB
  0
TABLE
  2
STYLE
  5
3
330
0
100
AcDbSymbolTable
 70
     1
  0
STYLE
  5
11
330
3
100
AcDbSymbolTableRecord
100
AcDbTextStyleTableRecord
  2
Standard
 70
     0
 40
0.0
 41
1.0
 50
0.0
 71
     0
 42
3.5
  3
txt
  4

  0
ENDTAB
  0
TABLE
  2
VIEW
  5
6
330
0
100
AcDbSymbolTable
 70
     0
  0
ENDTAB
  0
TABLE
  2
UCS
  5
7
330
0
100
AcDbSymbolTable
 70
     0
  0
ENDTAB
  0
TABLE
  2
APPID
  5
9
330
0
100
AcDbSymbolTable
 70
     1
  0
APPID
  5
12
330
9
100
AcDbSymbolTableRecord
100
AcDbRegAppTableRecord
  2
ACAD
 70
     0
  0
ENDTAB
  0
TABLE
  2
DIMSTYLE
  5
A
330
0
100
AcDbSymbolTable
 70
     1
100
AcDbDimStyleTable
  0
DIMSTYLE
105
27
330
A
100
AcDbSymbolTableRecord
100
AcDbDimStyleTableRecord
  2
ISO-25
 70
     0
 41
2.5
 42
0.625
 43
3.75
 44
1.25
 73
     0
 74
     0
 77
     1
 78
     8
140
2.5
141
2.5
143
0.0393700787
147
0.625
171
     3
172
     1
178
     0
271
     2
272
     2
274
     3
278
    44
283
     0
284
     8
340
11
  0
ENDTAB
  0
TABLE
  2
BLOCK_RECORD
  5
1
330
0
100
AcDbSymbolTable
 70
     1
  0
BLOCK_RECORD
  5
1F
330
1
100
AcDbSymbolTableRecord
100
AcDbBlockTableRecord
  2
*Model_Space
340
22
  0
BLOCK_RECORD
  5
1B
330
1
100
AcDbSymbolTableRecord
100
AcDbBlockTableRecord
  2
*Paper_Space
340
1E
  0
BLOCK_RECORD
  5
23
330
1
100
AcDbSymbolTableRecord
100
AcDbBlockTableRecord
  2
*Paper_Space0
340
26
  0
ENDTAB
  0
ENDSEC
  0
SECTION
  2
BLOCKS
  0
BLOCK
  5
20
330
1F
100
AcDbEntity
  8
0
100
AcDbBlockBegin
  2
*Model_Space
 70
     0
 10
0.0
 20
0.0
 30
0.0
  3
*Model_Space
  1

  0
ENDBLK
  5
21
330
1F
100
AcDbEntity
  8
0
100
AcDbBlockEnd
  0
BLOCK
  5
1C
330
1B
100
AcDbEntity
 67
     1
  8
0
100
AcDbBlockBegin
  2
*Paper_Space
 70
     0
 10
0.0
 20
0.0
 30
0.0
  3
*Paper_Space
  1

  0
ENDBLK
  5
1D
330
1B
100
AcDbEntity
 67
     1
  8
0
100
AcDbBlockEnd
  0
BLOCK
  5
24
330
23
100
AcDbEntity
  8
0
100
AcDbBlockBegin
  2
*Paper_Space0
 70
     0
 10
0.0
 20
0.0
 30
0.0
  3
*Paper_Space0
  1

  0
ENDBLK
  5
25
330
23
100
AcDbEntity
  8
0
100
AcDbBlockEnd
  0
ENDSEC
  0
SECTION
  2
ENTITIES
  0
LINE
  5
77
330
1F
100
AcDbEntity
  8
0
  6
Continuous
 62
     7
370
    25
100
AcDbLine
 10
626.6326774287
 20
201.8015184175
 30
0.0
 11
627.1823254518
 21
201.8015184175
 31
0.0
  0
LINE
  5
78
330
1F
100
AcDbEntity
  8
0
  6
Continuous
 62
     7
370
    25
100
AcDbLine
 10
627.1823254518
 20
201.8015184175
 30
0.0
 11
627.1823254518
 21
202.2937749279
 31
0.0
  0
LINE
  5
79
330
1F
100
AcDbEntity
  8
0
  6
Continuous
 62
     7
370
    25
100
AcDbLine
 10
627.1823254518
 20
794.8015184175
 30
0.0
 11
626.6144956104
 21
794.8015184175
 31
0.0
  0
LINE
  5
7A
330
1F
100
AcDbEntity
  8
0
  6
Continuous
 62
     7
370
    25
100
AcDbLine
 10
628.0710384958
 20
201.5015184175
 30
0.0
 11
628.3823254518
 21
201.5015184175
 31
0.0
  0
SPLINE
  5
7B
330
1F
100
AcDbEntity
  8
0
  6
Continuous
 62
     7
370
    25
100
AcDbSpline
210
0.0
220
0.0
230
1.0
 70
     8
 71
     3
 72
    10
 73
     6
 74
     0
 42
0.00000001
 43
0.00000001
 40
0.0
 40
0.0
 40
0.0
 40
0.0
 40
0.5
 40
0.5
 40
1.0
 40
1.0
 40
1.0
 40
1.0
 10
627.1823254518048
 20
202.2937749279138
 30
0.0
 10
627.3491162961111
 20
202.1617321761713
 30
0.0
 10
627.5158237968266
 20
202.0296894244288
 30
0.0
 10
627.8208233328029
 20
201.7656039209437
 30
0.0
 10
627.9589629630761
 20
201.6335611692012
 30
0.0
 10
628.0710384957962
 20
201.5015184174587
 30
0.0
  0
LINE
  5
7C
330
1F
100
AcDbEntity
  8
0
  6
Continuous
 62
     7
370
    25
100
AcDbLine
 10
627.1823254518
 20
794.709261907
 30
0.0
 11
627.1823254518
 21
202.2937749279
 31
0.0
  0
SPLINE
  5
7D
330
1F
100
AcDbEntity
  8
0
  6
Continuous
 62
     7
370
    25
100
AcDbSpline
210
0.0
220
0.0
230
1.0
 70
     8
 71
     3
 72
    10
 73
     6
 74
     0
 42
0.00000001
 43
0.00000001
 40
0.0
 40
0.0
 40
0.0
 40
0.0
 40
0.5
 40
0.5
 40
1.0
 40
1.0
 40
1.0
 40
1.0
 10
628.0710384957961
 20
795.501518417458
 30
0.0
 10
627.9589629630761
 20
795.3694756657155
 30
0.0
 10
627.8208233328029
 20
795.237432913973
 30
0.0
 10
627.5158237968266
 20
794.9733474104879
 30
0.0
 10
627.3491162961111
 20
794.8413046587452
 30
0.0
 10
627.1823254518048
 20
794.7092619070029
 30
0.0
  0
LINE
  5
7E
330
1F
100
AcDbEntity
  8
0
  6
Continuous
 62
     7
370
    25
100
AcDbLine
 10
628.3823254518
 20
795.5015184175
 30
0.0
 11
628.0710384958
 21
795.5015184175
 31
0.0
  0
LINE
  5
7F
330
1F
100
AcDbEntity
  8
0
  6
Continuous
 62
     7
370
    25
100
AcDbLine
 10
628.3823254518
 20
795.5015184175
 30
0.0
 11
628.3823254518
 21
201.5015184175
 31
0.0
  0
LINE
  5
80
330
1F
100
AcDbEntity
  8
0
  6
Continuous
 62
     7
370
    25
100
AcDbLine
 10
627.7007413941
 20
201.5015184175
 30
0.0
 11
628.0710384958
 21
201.5015184175
 31
0.0
  0
SPLINE
  5
81
330
1F
100
AcDbEntity
  8
0
  6
Continuous
 62
     7
370
    25
100
AcDbSpline
210
0.0
220
0.0
230
1.0
 70
     8
 71
     3
 72
    10
 73
     6
 74
     0
 42
0.00000001
 43
0.00000001
 40
0.0
 40
0.0
 40
0.0
 40
0.0
 40
0.5
 40
0.5
 40
1.0
 40
1.0
 40
1.0
 40
1.0
 10
627.1823254518048
 20
202.2937749279138
 30
0.0
 10
627.2796279488327
 20
202.1617215390901
 30
0.0
 10
627.3768661530675
 20
202.0296894244288
 30
0.0
 10
627.5547825490537
 20
201.7656039209437
 30
0.0
 10
627.6353587333836
 20
201.6335718062824
 30
0.0
 10
627.700741394133
 20
201.5015184174587
 30
0.0
  0
LINE
  5
82
330
1F
100
AcDbEntity
  8
0
  6
Continuous
 62
     7
370
    25
100
AcDbLine
 10
617.9745819623
 20
211.5015184175
 30
0.0
 11
617.9745819623
 21
785.5015184175
 31
0.0
  0
LINE
  5
83
330
1F
100
AcDbEntity
  8
0
  6
Continuous
 62
     7
370
    25
100
AcDbLine
 10
617.9745819623
 20
785.5015184175
 30
0.0
 11
627.1823254518
 21
794.709261907
 31
0.0
  0
LINE
  5
84
330
1F
100
AcDbEntity
  8
0
  6
Continuous
 62
     7
370
    25
100
AcDbLine
 10
627.1823254518
 20
202.2937749279
 30
0.0
 11
617.9745819623
 21
211.5015184175
 31
0.0
  0
SPLINE
  5
85
330
1F
100
AcDbEntity
  8
0
  6
Continuous
 62
     7
370
    25
100
AcDbSpline
210
0.0
220
0.0
230
1.0
 70
     8
 71
     3
 72
    10
 73
     6
 74
     0
 42
0.00000001
 43
0.00000001
 40
0.0
 40
0.0
 40
0.0
 40
0.0
 40
0.5
 40
0.5
 40
1.0
 40
1.0
 40
1.0
 40
1.0
 10
627.7007413941329
 20
795.501518417458
 30
0.0
 10
627.6353587333836
 20
795.3694650286343
 30
0.0
 10
627.5547825490536
 20
795.2374329139728
 30
0.0
 10
627.3768661530675
 20
794.9733474104879
 30
0.0
 10
627.2796279488326
 20
794.8413152958265
 30
0.0
 10
627.1823254518048
 20
794.7092619070029
 30
0.0
  0
LINE
  5
86
330
1F
100
AcDbEntity
  8
0
  6
Continuous
 62
     7
370
    25
100
AcDbLine
 10
627.7007413941
 20
795.5015184175
 30
0.0
 11
628.0710384958
 21
795.5015184175
 31
0.0
  0
LINE
  5
87
330
1F
100
AcDbEntity
  8
0
  6
Continuous
 62
     7
370
    25
100
AcDbLine
 10
627.1823254519
 20
200.3015184175
 30
0.0
 11
33.1823254519
 21
200.3015184175
 31
0.0
  0
LINE
  5
88
330
1F
100
AcDbEntity
  8
0
  6
Continuous
 62
     7
370
    25
100
AcDbLine
 10
33.1823254519
 20
200.6128053735
 30
0.0
 11
33.1823254519
 21
200.3015184175
 31
0.0
  0
LINE
  5
89
330
1F
100
AcDbEntity
  8
0
  6
Continuous
 62
     7
370
    25
100
AcDbLine
 10
33.6823254519
 20
200.6128053735
 30
0.0
 11
33.1823254519
 21
200.6128053735
 31
0.0
  0
SPLINE
  5
8A
330
1F
100
AcDbEntity
  8
0
  6
Continuous
 62
     7
370
    25
100
AcDbSpline
210
0.0
220
0.0
230
1.0
 70
     8
 71
     3
 72
    10
 73
     6
 74
     0
 42
0.00000001
 43
0.00000001
 40
0.0
 40
0.0
 40
0.0
 40
0.0
 40
0.5
 40
0.5
 40
1.0
 40
1.0
 40
1.0
 40
1.0
 10
33.75434877099865
 20
201.5015184174585
 30
0.0
 10
33.74234488447669
 20
201.3347275731521
 30
0.0
 10
33.73034099795446
 20
201.1680200724365
 30
0.0
 10
33.70633322491051
 20
200.8630205364604
 30
0.0
 10
33.69432933838851
 20
200.7248809061871
 30
0.0
 10
33.6823254518665
 20
200.6128053734672
 30
0.0
  0
LINE
  5
8B
330
1F
100
AcDbEntity
  8
0
  6
Continuous
 62
     7
370
    25
100
AcDbLine
 10
626.6463137923
 20
201.5015184175
 30
0.0
 11
33.754348771
 21
201.5015184175
 31
0.0
  0
SPLINE
  5
8C
330
1F
100
AcDbEntity
  8
0
  6
Continuous
 62
     7
370
    25
100
AcDbSpline
210
0.0
220
0.0
230
1.0
 70
     8
 71
     3
 72
    10
 73
     6
 74
     0
 42
0.00000001
 43
0.00000001
 40
0.0
 40
0.0
 40
0.0
 40
0.0
 40
0.5
 40
0.5
 40
1.0
 40
1.0
 40
1.0
 40
1.0
 10
626.6823254518722
 20
200.6128053734673
 30
0.0
 10
626.6763235086113
 20
200.7248809061872
 30
0.0
 10
626.6703215653502
 20
200.8630205364605
 30
0.0
 10
626.6583176788281
 20
201.1680200724366
 30
0.0
 10
626.652315735567
 20
201.3347275731522
 30
0.0
 10
626.646313792306
 20
201.5015184174586
 30
0.0
  0
LINE
  5
8D
330
1F
100
AcDbEntity
  8
0
  6
Continuous
 62
     7
370
    25
100
AcDbLine
 10
627.1823254519
 20
200.6128053735
 30
0.0
 11
626.6823254519
 21
200.6128053735
 31
0.0
  0
LINE
  5
8E
330
1F
100
AcDbEntity
  8
0
  6
Continuous
 62
     7
370
    25
100
AcDbLine
 10
627.1823254519
 20
200.3015184175
 30
0.0
 11
627.1823254519
 21
200.6128053735
 31
0.0
  0
LINE
  5
8F
330
1F
100
AcDbEntity
  8
0
  6
Continuous
 62
     7
370
    25
100
AcDbLine
 10
44.2329893087
 20
211.709261907
 30
0.0
 11
617.9745819623
 21
211.7092619072
 31
0.0
  0
LINE
  5
90
330
1F
100
AcDbEntity
  8
0
  6
Continuous
 62
     7
370
    25
100
AcDbLine
 10
626.5830629271
 20
202.8930374526
 30
0.0
 11
626.6463137923
 21
201.5015184175
 31
0.0
  0
LINE
  5
91
330
1F
100
AcDbEntity
  8
0
  6
Continuous
 62
     7
370
    25
100
AcDbLine
 10
33.754348771
 20
201.5015184175
 30
0.0
 11
33.8452578619
 21
202.5015184172
 31
0.0
  0
LINE
  5
92
330
1F
100
AcDbEntity
  8
0
  6
Continuous
 62
     7
370
    25
100
AcDbLine
 10
33.6823254519
 20
200.9831024751
 30
0.0
 11
33.6823254519
 21
200.6128053735
 31
0.0
  0
SPLINE
  5
93
330
1F
100
AcDbEntity
  8
0
  6
Continuous
 62
     7
370
    25
100
AcDbSpline
210
0.0
220
0.0
230
1.0
 70
     8
 71
     3
 72
    10
 73
     6
 74
     0
 42
0.00000001
 43
0.00000001
 40
0.0
 40
0.0
 40
0.0
 40
0.0
 40
0.5
 40
0.5
 40
1.0
 40
1.0
 40
1.0
 40
1.0
 10
33.75434877099853
 20
201.5015184174585
 30
0.0
 10
33.74234217760291
 20
201.4042018183569
 30
0.0
 10
33.73034099795446
 20
201.3069777161958
 30
0.0
 10
33.70633322491046
 20
201.1290613202096
 30
0.0
 10
33.69433204526207
 20
201.0484946118041
 30
0.0
 10
33.68232545186639
 20
200.9831024751302
 30
0.0
  0
SPLINE
  5
94
330
1F
100
AcDbEntity
  8
0
  6
Continuous
 62
     7
370
    25
100
AcDbSpline
210
0.0
220
0.0
230
1.0
 70
     8
 71
     3
 72
    10
 73
     6
 74
     0
 42
0.00000001
 43
0.00000001
 40
0.0
 40
0.0
 40
0.0
 40
0.0
 40
0.5
 40
0.5
 40
1.0
 40
1.0
 40
1.0
 40
1.0
 10
626.6463137922372
 20
795.5015184172948
 30
0.0
 10
626.6523157354982
 20
795.6683092616013
 30
0.0
 10
626.6583176787592
 20
795.8350167623169
 30
0.0
 10
626.6703215652811
 20
796.1400162982931
 30
0.0
 10
626.6763235085422
 20
796.2781559285663
 30
0.0
 10
626.6823254518032
 20
796.3902314612862
 30
0.0
  0
LINE
  5
95
330
1F
100
AcDbEntity
  8
0
  6
Continuous
 62
     7
370
    25
100
AcDbLine
 10
626.6823254518
 20
796.0199343596
 30
0.0
 11
626.6823254518
 21
796.3902314613
 31
0.0
  0
SPLINE
  5
96
330
1F
100
AcDbEntity
  8
0
  6
Continuous
 62
     7
370
    25
100
AcDbSpline
210
0.0
220
0.0
230
1.0
 70
     8
 71
     3
 72
    10
 73
     6
 74
     0
 42
0.00000001
 43
0.00000001
 40
0.0
 40
0.0
 40
0.0
 40
0.0
 40
0.5
 40
0.5
 40
1.0
 40
1.0
 40
1.0
 40
1.0
 10
626.6463137922372
 20
795.5015184172948
 30
0.0
 10
626.6523171043277
 20
795.5988352659209
 30
0.0
 10
626.6583176787591
 20
795.6960591185575
 30
0.0
 10
626.6703215652811
 20
795.8739755145439
 30
0.0
 10
626.6763221397127
 20
795.9545420552809
 30
0.0
 10
626.6823254518032
 20
796.0199343596231
 30
0.0
  0
LINE
  5
97
330
1F
100
AcDbEntity
  8
0
  6
Continuous
 62
     7
370
    25
100
AcDbLine
 10
617.9745819623
 20
785.2937749278
 30
0.0
 11
44.2329893087
 21
785.2937749278
 31
0.0
  0
LINE
  5
98
330
1F
100
AcDbEntity
  8
0
  6
Continuous
 62
     7
370
    25
100
AcDbLine
 10
33.8452578618
 20
794.5015184172
 30
0.0
 11
33.7543487709
 21
795.5015184173
 31
0.0
  0
LINE
  5
99
330
1F
100
AcDbEntity
  8
0
  6
Continuous
 62
     7
370
    25
100
AcDbLine
 10
626.6463137922
 20
795.5015184173
 30
0.0
 11
33.7543487709
 21
795.5015184173
 31
0.0
  0
LINE
  5
9A
330
1F
100
AcDbEntity
  8
0
  6
Continuous
 62
     7
370
    25
100
AcDbLine
 10
626.6463137922
 20
795.5015184173
 30
0.0
 11
626.583062927
 21
794.1099993822
 31
0.0
  0
LINE
  5
9B
330
1F
100
AcDbEntity
  8
0
  6
Continuous
 62
     7
370
    25
100
AcDbLine
 10
33.1823254517
 20
796.7015184173
 30
0.0
 11
33.1823254517
 21
796.3902314613
 31
0.0
  0
LINE
  5
9C
330
1F
100
AcDbEntity
  8
0
  6
Continuous
 62
     7
370
    25
100
AcDbLine
 10
627.1823254518
 20
796.7015184173
 30
0.0
 11
33.1823254517
 21
796.7015184173
 31
0.0
  0
LINE
  5
9D
330
1F
100
AcDbEntity
  8
0
  6
Continuous
 62
     7
370
    25
100
AcDbLine
 10
627.1823254518
 20
796.3902314613
 30
0.0
 11
627.1823254518
 21
796.7015184173
 31
0.0
  0
LINE
  5
9E
330
1F
100
AcDbEntity
  8
0
  6
Continuous
 62
     7
370
    25
100
AcDbLine
 10
626.6823254518
 20
796.3902314613
 30
0.0
 11
627.1823254518
 21
796.3902314613
 31
0.0
  0
SPLINE
  5
9F
330
1F
100
AcDbEntity
  8
0
  6
Continuous
 62
     7
370
    25
100
AcDbSpline
210
0.0
220
0.0
230
1.0
 70
     8
 71
     3
 72
    10
 73
     6
 74
     0
 42
0.00000001
 43
0.00000001
 40
0.0
 40
0.0
 40
0.0
 40
0.0
 40
0.5
 40
0.5
 40
1.0
 40
1.0
 40
1.0
 40
1.0
 10
33.68232545180344
 20
796.390231461292
 30
0.0
 10
33.69432933832556
 20
796.2781559285722
 30
0.0
 10
33.70633322484756
 20
796.1400162982989
 30
0.0
 10
33.73034099789152
 20
795.8350167623228
 30
0.0
 10
33.74234488441363
 20
795.6683092616071
 30
0.0
 10
33.75434877093575
 20
795.5015184173008
 30
0.0
  0
LINE
  5
A0
330
1F
100
AcDbEntity
  8
0
  6
Continuous
 62
     7
370
    25
100
AcDbLine
 10
33.1823254517
 20
796.3902314613
 30
0.0
 11
33.6823254518
 21
796.3902314613
 31
0.0
  0
SPLINE
  5
A1
330
1F
100
AcDbEntity
  8
0
  6
Continuous
 62
     7
370
    25
100
AcDbSpline
210
0.0
220
0.0
230
1.0
 70
     8
 71
     3
 72
    10
 73
     6
 74
     0
 42
0.00000001
 43
0.00000001
 40
0.0
 40
0.0
 40
0.0
 40
0.0
 40
0.5
 40
0.5
 40
1.0
 40
1.0
 40
1.0
 40
1.0
 10
626.6823254518721
 20
200.9831024751304
 30
0.0
 10
626.6763221397815
 20
201.0484947794727
 30
0.0
 10
626.6703215653499
 20
201.1290613202098
 30
0.0
 10
626.6583176788281
 20
201.3069777161958
 30
0.0
 10
626.6523171043965
 20
201.4042015688327
 30
0.0
 10
626.6463137923059
 20
201.5015184174586
 30
0.0
  0
LINE
  5
A2
330
1F
100
AcDbEntity
  8
0
  6
Continuous
 62
     7
370
    25
100
AcDbLine
 10
626.6823254519
 20
200.9831024751
 30
0.0
 11
626.6823254519
 21
200.6128053735
 31
0.0
  0
LINE
  5
A3
330
1F
100
AcDbEntity
  8
0
  6
Continuous
 62
     7
370
    25
100
AcDbLine
 10
33.6823254518
 20
796.0199343596
 30
0.0
 11
33.6823254518
 21
796.3902314613
 31
0.0
  0
SPLINE
  5
A4
330
1F
100
AcDbEntity
  8
0
  6
Continuous
 62
     7
370
    25
100
AcDbSpline
210
0.0
220
0.0
230
1.0
 70
     8
 71
     3
 72
    10
 73
     6
 74
     0
 42
0.00000001
 43
0.00000001
 40
0.0
 40
0.0
 40
0.0
 40
0.0
 40
0.5
 40
0.5
 40
1.0
 40
1.0
 40
1.0
 40
1.0
 10
33.68232545180344
 20
796.019934359629
 30
0.0
 10
33.69433204519912
 20
795.9545422229553
 30
0.0
 10
33.7063332248475
 20
795.8739755145497
 30
0.0
 10
33.73034099789163
 20
795.6960591185635
 30
0.0
 10
33.74234217754007
 20
795.5988350164026
 30
0.0
 10
33.75434877093575
 20
795.5015184173008
 30
0.0
  0
LINE
  5
A5
330
1F
100
AcDbEntity
  8
0
  6
Continuous
 62
     7
370
    25
100
AcDbLine
 10
33.1823254519
 20
200.9831024751
 30
0.0
 11
33.1823254519
 21
200.6128053735
 31
0.0
  0
LINE
  5
A6
330
1F
100
AcDbEntity
  8
0
  6
Continuous
 62
     7
370
    25
100
AcDbLine
 10
33.6823254519
 20
200.9831024751
 30
0.0
 11
33.1823254519
 21
200.9831024751
 31
0.0
  0
LINE
  5
A7
330
1F
100
AcDbEntity
  8
0
  6
Continuous
 62
     7
370
    25
100
AcDbLine
 10
627.1823254518
 20
796.0199343596
 30
0.0
 11
627.1823254518
 21
796.3902314613
 31
0.0
  0
LINE
  5
A8
330
1F
100
AcDbEntity
  8
0
  6
Continuous
 62
     7
370
    25
100
AcDbLine
 10
626.6823254518
 20
796.0199343596
 30
0.0
 11
627.1823254518
 21
796.0199343596
 31
0.0
  0
LINE
  5
A9
330
1F
100
AcDbEntity
  8
0
  6
Continuous
 62
     7
370
    25
100
AcDbLine
 10
627.1823254519
 20
200.9831024751
 30
0.0
 11
627.1823254519
 21
200.6128053735
 31
0.0
  0
LINE
  5
AA
330
1F
100
AcDbEntity
  8
0
  6
Continuous
 62
     7
370
    25
100
AcDbLine
 10
627.1823254519
 20
200.9831024751
 30
0.0
 11
626.6823254519
 21
200.9831024751
 31
0.0
  0
LINE
  5
AB
330
1F
100
AcDbEntity
  8
0
  6
Continuous
 62
     7
370
    25
100
AcDbLine
 10
33.1823254517
 20
796.0199343596
 30
0.0
 11
33.6823254518
 21
796.0199343596
 31
0.0
  0
LINE
  5
AC
330
1F
100
AcDbEntity
  8
0
  6
Continuous
 62
     7
370
    25
100
AcDbLine
 10
33.1823254517
 20
796.0199343596
 30
0.0
 11
33.1823254517
 21
796.3902314613
 31
0.0
  0
SPLINE
  5
AD
330
1F
100
AcDbEntity
  8
0
  6
Continuous
 62
     7
370
    25
100
AcDbSpline
210
0.0
220
0.0
230
1.0
 70
     8
 71
     3
 72
    14
 73
    10
 74
     0
 42
0.00000001
 43
0.00000001
 40
0.0
 40
0.0
 40
0.0
 40
0.0
 40
0.25
 40
0.25
 40
0.5
 40
0.5
 40
0.75
 40
0.75
 40
1.0
 40
1.0
 40
1.0
 40
1.0
 10
628.3823254518047
 20
201.5015184174586
 30
0.0
 10
628.3823254518045
 20
201.344438784779
 30
0.0
 10
628.3510926638068
 20
201.1874209562274
 30
0.0
 10
628.2308691178298
 20
200.8971756410135
 30
0.0
 10
628.1419256626825
 20
200.7640623534887
 30
0.0
 10
627.9197815157745
 20
200.5419182065807
 30
0.0
 10
627.7866682282496
 20
200.4529747514335
 30
0.0
 10
627.4964229130358
 20
200.3327512054566
 30
0.0
 10
627.339405084484
 20
200.3015184174588
 30
0.0
 10
627.1823254518046
 20
200.3015184174587
 30
0.0
  0
SPLINE
  5
AE
330
1F
100
AcDbEntity
  8
0
  6
Continuous
 62
     7
370
    25
100
AcDbSpline
210
0.0
220
0.0
230
1.0
 70
     8
 71
     3
 72
    14
 73
    10
 74
     0
 42
0.00000001
 43
0.00000001
 40
0.0
 40
0.0
 40
0.0
 40
0.0
 40
0.25
 40
0.25
 40
0.5
 40
0.5
 40
0.75
 40
0.75
 40
1.0
 40
1.0
 40
1.0
 40
1.0
 10
627.8823254518047
 20
201.5015184174587
 30
0.0
 10
627.8823254518047
 20
201.4098773198066
 30
0.0
 10
627.8641063254727
 20
201.3182948984072
 30
0.0
 10
627.7939759236526
 20
201.148985131199
 30
0.0
 10
627.7420922414833
 20
201.0713357134762
 30
0.0
 10
627.612508155787
 20
200.94175162778
 30
0.0
 10
627.5348587380643
 20
200.8898679456107
 30
0.0
 10
627.365548970856
 20
200.8197375437909
 30
0.0
 10
627.2739665494566
 20
200.8015184174587
 30
0.0
 10
627.1823254518047
 20
200.8015184174587
 30
0.0
  0
SPLINE
  5
AF
330
1F
100
AcDbEntity
  8
0
  6
Continuous
 62
     7
370
    25
100
AcDbSpline
210
0.0
220
0.0
230
1.0
 70
     8
 71
     3
 72
    14
 73
    10
 74
     0
 42
0.00000001
 43
0.00000001
 40
0.0
 40
0.0
 40
0.0
 40
0.0
 40
0.25
 40
0.25
 40
0.5
 40
0.5
 40
0.75
 40
0.75
 40
1.0
 40
1.0
 40
1.0
 40
1.0
 10
627.1823254520106
 20
796.7015184172949
 30
0.0
 10
627.339405084673
 20
796.7015184172678
 30
0.0
 10
627.4964229132021
 20
796.6702856292499
 30
0.0
 10
627.7866682283689
 20
796.5500620832487
 30
0.0
 10
627.919781515869
 20
796.4611186280973
 30
0.0
 10
628.1419256627337
 20
796.2389744811946
 30
0.0
 10
628.2308691178622
 20
796.1058611936791
 30
0.0
 10
628.3510926638136
 20
795.8156158784917
 30
0.0
 10
628.3823254518046
 20
795.658598049957
 30
0.0
 10
628.3823254518046
 20
795.5015184172948
 30
0.0
  0
SPLINE
  5
B0
330
1F
100
AcDbEntity
  8
0
  6
Continuous
 62
     7
370
    25
100
AcDbSpline
210
0.0
220
0.0
230
1.0
 70
     8
 71
     3
 72
    14
 73
    10
 74
     0
 42
0.00000001
 43
0.00000001
 40
0.0
 40
0.0
 40
0.0
 40
0.0
 40
0.25
 40
0.25
 40
0.5
 40
0.5
 40
0.75
 40
0.75
 40
1.0
 40
1.0
 40
1.0
 40
1.0
 10
627.1823254519248
 20
796.2015184172948
 30
0.0
 10
627.2739665495668
 20
796.2015184172792
 30
0.0
 10
627.3655489709531
 20
796.1832992909353
 30
0.0
 10
627.5348587381337
 20
796.1131688891013
 30
0.0
 10
627.6125081558422
 20
796.0612852069296
 30
0.0
 10
627.7420922415132
 20
795.9317011212363
 30
0.0
 10
627.7939759236716
 20
795.8540517035191
 30
0.0
 10
627.8641063254765
 20
795.6847419363264
 30
0.0
 10
627.8823254518047
 20
795.5931595149368
 30
0.0
 10
627.8823254518047
 20
795.5015184172948
 30
0.0
  0
LINE
  5
B1
330
1F
100
AcDbEntity
  8
0
  6
Continuous
 62
     7
370
    25
100
AcDbLine
 10
31.9823254519
 20
795.5015184173
 30
0.0
 11
31.9823254519
 21
201.5015184173
 31
0.0
  0
LINE
  5
B2
330
1F
100
AcDbEntity
  8
0
  6
Continuous
 62
     7
370
    25
100
AcDbLine
 10
31.9823254519
 20
795.5015184173
 30
0.0
 11
32.4823254519
 21
795.5015184173
 31
0.0
  0
LINE
  5
B3
330
1F
100
AcDbEntity
  8
0
  6
Continuous
 62
     7
370
    25
100
AcDbLine
 10
31.9823254519
 20
201.5015184173
 30
0.0
 11
32.4823254519
 21
201.5015184173
 31
0.0
  0
LINE
  5
B4
330
1F
100
AcDbEntity
  8
0
  6
Continuous
 62
     7
370
    25
100
AcDbLine
 10
32.4823254519
 20
795.5015184173
 30
0.0
 11
32.4823254519
 21
794.8015184176
 31
0.0
  0
LINE
  5
B5
330
1F
100
AcDbEntity
  8
0
  6
Continuous
 62
     7
370
    25
100
AcDbLine
 10
32.4823254519
 20
202.201518417
 30
0.0
 11
32.4823254519
 21
201.5015184173
 31
0.0
  0
SPLINE
  5
B6
330
1F
100
AcDbEntity
  8
0
  6
Continuous
 62
     7
370
    25
100
AcDbSpline
210
0.0
220
0.0
230
1.0
 70
     8
 71
     3
 72
    14
 73
    10
 74
     0
 42
0.00000001
 43
0.00000001
 40
0.0
 40
0.0
 40
0.0
 40
0.0
 40
0.25
 40
0.25
 40
0.375
 40
0.375
 40
0.5
 40
0.5
 40
1.0
 40
1.0
 40
1.0
 40
1.0
 10
626.6823254518646
 20
201.5015184174585
 30
0.0
 10
626.6948696255891
 20
201.4411901428571
 30
0.0
 10
626.7114015595001
 20
201.3913634185867
 30
0.0
 10
626.7422527038982
 20
201.3327088142501
 30
0.0
 10
626.753541314661
 20
201.3158146892976
 30
0.0
 10
626.7781283281136
 20
201.2871525461269
 30
0.0
 10
626.7918520122886
 20
201.2751039019615
 30
0.0
 10
626.8612420981282
 20
201.2298851685281
 30
0.0
 10
626.9867678964891
 20
201.1906053551648
 30
0.0
 10
627.1823254518652
 20
201.1498726092361
 30
0.0
  0
LINE
  5
B7
330
1F
100
AcDbEntity
  8
0
  6
Continuous
 62
     7
370
    25
100
AcDbLine
 10
627.1823254519
 20
201.1498726092
 30
0.0
 11
627.1823254519
 21
200.9831024751
 31
0.0
  0
LINE
  5
B8
330
1F
100
AcDbEntity
  8
0
  6
Continuous
 62
     7
370
    25
100
AcDbLine
 10
627.1823254518
 20
796.0199343596
 30
0.0
 11
627.1823254518
 21
795.8531642255
 31
0.0
  0
SPLINE
  5
B9
330
1F
100
AcDbEntity
  8
0
  6
Continuous
 62
     7
370
    25
100
AcDbSpline
210
0.0
220
0.0
230
1.0
 70
     8
 71
     3
 72
    18
 73
    14
 74
     0
 42
0.00000001
 43
0.00000001
 40
0.0
 40
0.0
 40
0.0
 40
0.0
 40
0.25
 40
0.25
 40
0.375
 40
0.375
 40
0.4375
 40
0.4375
 40
0.5
 40
0.5
 40
0.75
 40
0.75
 40
1.0
 40
1.0
 40
1.0
 40
1.0
 10
627.1823254518043
 20
795.8531642255214
 30
0.0
 10
627.0863311470612
 20
795.8386855642913
 30
0.0
 10
627.0076736594648
 20
795.8227071887725
 30
0.0
 10
626.9156938831247
 20
795.7963362803823
 30
0.0
 10
626.8893682985574
 20
795.7871457371431
 30
0.0
 10
626.8563814330257
 20
795.7727445889225
 30
0.0
 10
626.8464693964016
 20
795.7678416875094
 30
0.0
 10
626.8288124935932
 20
795.7578288557767
 30
0.0
 10
626.8206543786421
 20
795.752395445458
 30
0.0
 10
626.7894142176532
 20
795.7279416096859
 30
0.0
 10
626.7659114120378
 20
795.6982128143393
 30
0.0
 10
626.7218844471578
 20
795.6165315897821
 30
0.0
 10
626.7013854022738
 20
795.5644899427656
 30
0.0
 10
626.682325451805
 20
795.5015184172951
 30
0.0
  0
SPLINE
  5
BA
330
1F
100
AcDbEntity
  8
0
  6
Continuous
 62
     7
370
    25
100
AcDbSpline
210
0.0
220
0.0
230
1.0
 70
     8
 71
     3
 72
    18
 73
    14
 74
     0
 42
0.00000001
 43
0.00000001
 40
0.0
 40
0.0
 40
0.0
 40
0.0
 40
0.25
 40
0.25
 40
0.375
 40
0.375
 40
0.4375
 40
0.4375
 40
0.5
 40
0.5
 40
0.75
 40
0.75
 40
1.0
 40
1.0
 40
1.0
 40
1.0
 10
627.5339712600654
 20
201.5015184174586
 30
0.0
 10
627.5194925988366
 20
201.5975127221787
 30
0.0
 10
627.5035142233174
 20
201.6761702097656
 30
0.0
 10
627.4771433149242
 20
201.7681499861114
 30
0.0
 10
627.4679527716835
 20
201.7944755706839
 30
0.0
 10
627.4535516234598
 20
201.8274624362287
 30
0.0
 10
627.4486487220456
 20
201.8373744728579
 30
0.0
 10
627.4386358903104
 20
201.8550313756783
 30
0.0
 10
627.4332024799834
 20
201.8631894906457
 30
0.0
 10
627.4087486442397
 20
201.8944296516252
 30
0.0
 10
627.3790198489038
 20
201.9179324572351
 30
0.0
 10
627.2973386243408
 20
201.9619594221075
 30
0.0
 10
627.2452969773072
 20
201.9824584669895
 30
0.0
 10
627.182325451805
 20
202.0015184174584
 30
0.0
  0
SPLINE
  5
BB
330
1F
100
AcDbEntity
  8
0
  6
Continuous
 62
     7
370
    25
100
AcDbSpline
210
0.0
220
0.0
230
1.0
 70
     8
 71
     3
 72
    14
 73
    10
 74
     0
 42
0.00000001
 43
0.00000001
 40
0.0
 40
0.0
 40
0.0
 40
0.0
 40
0.25
 40
0.25
 40
0.375
 40
0.375
 40
0.5
 40
0.5
 40
1.0
 40
1.0
 40
1.0
 40
1.0
 10
627.182325451805
 20
795.001518417301
 30
0.0
 10
627.2426537264281
 20
795.01406259103
 30
0.0
 10
627.2924804507088
 20
795.0305945249431
 30
0.0
 10
627.3511350550448
 20
795.0614456693411
 30
0.0
 10
627.3680291799944
 20
795.0727342801034
 30
0.0
 10
627.3966913231543
 20
795.0973212935537
 30
0.0
 10
627.4087399672972
 20
795.1110449777048
 30
0.0
 10
627.4539587007532
 20
795.1804350636446
 30
0.0
 10
627.4932385141152
 20
795.3059608620055
 30
0.0
 10
627.5339712600272
 20
795.5015184173009
 30
0.0
  0
ARC
  5
BC
330
1F
100
AcDbEntity
  8
0
  6
Continuous
 62
     7
370
    25
100
AcDbCircle
 10
627.1823254518
 20
795.5015184173
 30
0.0
 40
0.5
100
AcDbArc
 50
180.0000000007
 51
270.0
  0
ARC
  5
BD
330
1F
100
AcDbEntity
  8
0
  6
Continuous
 62
     7
370
    25
100
AcDbCircle
 10
627.1823254519
 20
201.5015184175
 30
0.0
 40
0.5000000000000057
100
AcDbArc
 50
143.1301023538
 51
180.0
  0
ARC
  5
BE
330
1F
100
AcDbEntity
  8
0
  6
Continuous
 62
     7
370
    25
100
AcDbCircle
 10
33.1823254519
 20
201.5015184173
 30
0.0
 40
0.4999999999999432
100
AcDbArc
 50
3.3753019732
 51
90.0
  0
ARC
  5
BF
330
1F
100
AcDbEntity
  8
0
  6
Continuous
 62
     7
370
    25
100
AcDbCircle
 10
33.1823254517
 20
795.5015184173
 30
0.0
 40
0.4999999999999363
100
AcDbArc
 50
270.000000019
 51
356.6249736607
  0
LINE
  5
C0
330
1F
100
AcDbEntity
  8
0
  6
Continuous
 62
     7
370
    25
100
AcDbLine
 10
32.4823254518
 20
794.5015184172
 30
0.0
 11
32.4823254518
 21
202.5015184172
 31
0.0
  0
LINE
  5
C1
330
1F
100
AcDbEntity
  8
0
  6
Continuous
 62
     7
370
    25
100
AcDbLine
 10
33.8382365448
 20
794.5015184172
 30
0.0
 11
32.4823254518
 21
794.5015184172
 31
0.0
  0
LINE
  5
C2
330
1F
100
AcDbEntity
  8
0
  6
Continuous
 62
     7
370
    25
100
AcDbLine
 10
33.8823254518
 20
794.5009713841
 30
0.0
 11
33.8382365448
 21
794.5015184172
 31
0.0
  0
LINE
  5
C3
330
1F
100
AcDbEntity
  8
0
  6
Continuous
 62
     7
370
    25
100
AcDbLine
 10
33.8823254518
 20
794.5009713841
 30
0.0
 11
33.8823254518
 21
202.5020654504
 31
0.0
  0
LINE
  5
C4
330
1F
100
AcDbEntity
  8
0
  6
Continuous
 62
     7
370
    25
100
AcDbLine
 10
33.8382365448
 20
202.5015184172
 30
0.0
 11
33.8823254518
 21
202.5020654504
 31
0.0
  0
LINE
  5
C5
330
1F
100
AcDbEntity
  8
0
  6
Continuous
 62
     7
370
    25
100
AcDbLine
 10
32.4823254518
 20
202.5015184172
 30
0.0
 11
33.8382365448
 21
202.5015184172
 31
0.0
  0
LINE
  5
C6
330
1F
100
AcDbEntity
  8
0
  6
Continuous
 62
     7
370
    25
100
AcDbLine
 10
34.5182180351
 20
794.2448125635
 30
0.0
 11
44.2329893087
 21
785.5015184172
 31
0.0
  0
LINE
  5
C7
330
1F
100
AcDbEntity
  8
0
  6
Continuous
 62
     7
370
    25
100
AcDbLine
 10
44.2329893087
 20
785.5015184172
 30
0.0
 11
44.2329893087
 21
211.5015184172
 31
0.0
  0
LINE
  5
C8
330
1F
100
AcDbEntity
  8
0
  6
Continuous
 62
     7
370
    25
100
AcDbLine
 10
44.2329893087
 20
211.5015184172
 30
0.0
 11
34.5182180351
 21
202.758224271
 31
0.0
  0
ARC
  5
C9
330
1F
100
AcDbEntity
  8
0
  6
Continuous
 62
     7
370
    25
100
AcDbCircle
 10
33.8492533035
 20
203.5015184172
 30
0.0
 40
0.9999999999998901
100
AcDbArc
 50
271.8952401197
 51
311.9872124958
  0
ARC
  5
CA
330
1F
100
AcDbEntity
  8
0
  6
Continuous
 62
     7
370
    25
100
AcDbCircle
 10
33.8492533035
 20
793.5015184172
 30
0.0
 40
0.9999999999999905
100
AcDbArc
 50
48.0127875042
 51
88.1047598803
  0
LINE
  5
CB
330
1F
100
AcDbEntity
  8
0
  6
Continuous
 62
     7
370
    25
100
AcDbLine
 10
33.8602809983
 20
794.5015184172
 30
0.0
 11
33.8382365448
 21
794.5015184172
 31
0.0
  0
LINE
  5
CC
330
1F
100
AcDbEntity
  8
0
  6
Continuous
 62
     7
370
    25
100
AcDbLine
 10
33.8823254518
 20
794.5009713841
 30
0.0
 11
33.8602809983
 21
794.5015184172
 31
0.0
  0
LINE
  5
CD
330
1F
100
AcDbEntity
  8
0
  6
Continuous
 62
     7
370
    25
100
AcDbLine
 10
33.8602809983
 20
202.5015184172
 30
0.0
 11
33.8382365448
 21
202.5015184172
 31
0.0
  0
LINE
  5
CE
330
1F
100
AcDbEntity
  8
0
  6
Continuous
 62
     7
370
    25
100
AcDbLine
 10
33.8602809983
 20
202.5015184172
 30
0.0
 11
33.8823254518
 21
202.5020654504
 31
0.0
  0
LINE
  5
CF
330
1F
100
AcDbEntity
  8
0
  6
Continuous
 62
     7
370
    25
100
AcDbLine
 10
32.4823254518
 20
794.8015184172
 30
0.0
 11
32.4823254518
 21
794.5015184172
 31
0.0
  0
LINE
  5
D0
330
1F
100
AcDbEntity
  8
0
  6
Continuous
 62
     7
370
    25
100
AcDbLine
 10
33.1823254518
 20
794.8015184172
 30
0.0
 11
32.4823254518
 21
794.8015184172
 31
0.0
  0
LINE
  5
D1
330
1F
100
AcDbEntity
  8
0
  6
Continuous
 62
     7
370
    25
100
AcDbLine
 10
33.1823254518
 20
794.8015184172
 30
0.0
 11
33.1823254518
 21
794.5015184172
 31
0.0
  0
LINE
  5
D2
330
1F
100
AcDbEntity
  8
0
  6
Continuous
 62
     7
370
    25
100
AcDbLine
 10
33.1823254518
 20
202.2015184172
 30
0.0
 11
32.4823254518
 21
202.2015184172
 31
0.0
  0
LINE
  5
D3
330
1F
100
AcDbEntity
  8
0
  6
Continuous
 62
     7
370
    25
100
AcDbLine
 10
33.1823254518
 20
202.5015184172
 30
0.0
 11
33.1823254518
 21
202.2015184172
 31
0.0
  0
LINE
  5
D4
330
1F
100
AcDbEntity
  8
0
  6
Continuous
 62
     7
370
    25
100
AcDbLine
 10
32.4823254518
 20
202.5015184172
 30
0.0
 11
32.4823254518
 21
202.2015184172
 31
0.0
  0
LINE
  5
D5
330
1F
100
AcDbEntity
  8
0
  6
Continuous
 62
     7
370
    25
100
AcDbLine
 10
33.3322043693
 20
795.2343772794
 30
0.0
 11
32.7820832867
 21
795.6672361415
 31
0.0
  0
SPLINE
  5
D6
330
1F
100
AcDbEntity
  8
0
  6
Continuous
 62
     7
370
    25
100
AcDbSpline
210
0.0
220
0.0
230
1.0
 70
     8
 71
     3
 72
    11
 73
     7
 74
     0
 42
0.00000001
 43
0.00000001
 40
0.0
 40
0.0
 40
0.0
 40
0.0
 40
0.2372173543499822
 40
0.4774552350291215
 40
0.7292422947987043
 40
1.0
 40
1.0
 40
1.0
 40
1.0
 10
33.18232545181754
 20
794.801518417249
 30
0.0
 10
33.1831587006069
 20
794.8298593853416
 30
0.0
 10
33.18483580807485
 20
794.8869021915846
 30
0.0
 10
33.20671235494094
 20
794.9957540864431
 30
0.0
 10
33.2507921703476
 20
795.1165862610785
 30
0.0
 10
33.30441801919232
 20
795.1941746744486
 30
0.0
 10
33.33220436927364
 20
795.2343772793977
 30
0.0
  0
SPLINE
  5
D7
330
1F
100
AcDbEntity
  8
0
  6
Continuous
 62
     7
370
    25
100
AcDbSpline
210
0.0
220
0.0
230
1.0
 70
     8
 71
     3
 72
    10
 73
     6
 74
     0
 42
0.00000001
 43
0.00000001
 40
0.0
 40
0.0
 40
0.0
 40
0.0
 40
0.4381166290512222
 40
0.7023419029162599
 40
1.0
 40
1.0
 40
1.0
 40
1.0
 10
32.48232545181762
 20
794.8015184172489
 30
0.0
 10
32.49199046121143
 20
794.9296239081838
 30
0.0
 10
32.50748437456524
 20
795.1349889829404
 30
0.0
 10
32.62323544023532
 20
795.4378246069543
 30
0.0
 10
32.72707448323181
 20
795.587791224256
 30
0.0
 10
32.78208328672982
 20
795.6672361415465
 30
0.0
  0
SPLINE
  5
D8
330
1F
100
AcDbEntity
  8
0
  6
Continuous
 62
     7
370
    25
100
AcDbSpline
210
0.0
220
0.0
230
1.0
 70
     8
 71
     3
 72
    10
 73
     6
 74
     0
 42
0.00000001
 43
0.00000001
 40
0.0
 40
0.0
 40
0.0
 40
0.0
 40
0.2072247245297639
 40
0.4412860670314508
 40
1.0
 40
1.0
 40
1.0
 40
1.0
 10
32.7820832867361
 20
201.3358006929512
 30
0.0
 10
32.74266689241201
 20
201.3907417419336
 30
0.0
 10
32.65872948741693
 20
201.5077389751497
 30
0.0
 10
32.52163840051181
 20
201.7978641661179
 30
0.0
 10
32.49857766607822
 20
202.034645272572
 30
0.0
 10
32.48232545182383
 20
202.2015184172489
 30
0.0
  0
LINE
  5
D9
330
1F
100
AcDbEntity
  8
0
  6
Continuous
 62
     7
370
    25
100
AcDbLine
 10
33.3322043693
 20
201.7686595551
 30
0.0
 11
32.7820832867
 21
201.335800693
 31
0.0
  0
SPLINE
  5
DA
330
1F
100
AcDbEntity
  8
0
  6
Continuous
 62
     7
370
    25
100
AcDbSpline
210
0.0
220
0.0
230
1.0
 70
     8
 71
     3
 72
    10
 73
     6
 74
     0
 42
0.00000001
 43
0.00000001
 40
0.0
 40
0.0
 40
0.0
 40
0.0
 40
0.1856454574071984
 40
0.4088943775374694
 40
0.9999999999999999
 40
0.9999999999999999
 40
0.9999999999999999
 40
0.9999999999999999
 10
33.33220436927997
 20
201.7686595551
 30
0.0
 10
33.31230391475992
 20
201.7964730047914
 30
0.0
 10
33.26847206410577
 20
201.8577336645323
 30
0.0
 10
33.1987832475566
 20
202.009778293619
 30
0.0
 10
33.18924723860428
 20
202.1208767399197
 30
0.0
 10
33.18232545182381
 20
202.2015184172489
 30
0.0
  0
ARC
  5
DB
330
1F
100
AcDbEntity
  8
0
  6
Continuous
 62
     7
370
    25
100
AcDbCircle
 10
33.8823254518
 20
794.8015184172
 30
0.0
 40
0.7000000000000022
100
AcDbArc
 50
100.4464798457
 51
141.8028136579
  0
ARC
  5
DC
330
1F
100
AcDbEntity
  8
0
  6
Continuous
 62
     7
370
    25
100
AcDbCircle
 10
33.8823254518
 20
794.8015184172
 30
0.0
 40
1.400000000000026
100
AcDbArc
 50
120.2355536161
 51
141.8028136579
  0
ARC
  5
DD
330
1F
100
AcDbEntity
  8
0
  6
Continuous
 62
     7
370
    25
100
AcDbCircle
 10
33.8823254518
 20
202.2015184172
 30
0.0
 40
1.400000000000008
100
AcDbArc
 50
218.1971863421
 51
240.000000002
  0
ARC
  5
DE
330
1F
100
AcDbEntity
  8
0
  6
Continuous
 62
     7
370
    25
100
AcDbCircle
 10
33.8823254518
 20
202.2015184172
 30
0.0
 40
0.7000000000000054
100
AcDbArc
 50
218.1971863421
 51
259.553520157
  0
LINE
  5
DF
330
1F
100
AcDbEntity
  8
0
  6
Continuous
 62
     7
370
    25
100
AcDbLine
 10
138.4323254519
 20
118.3639443309
 30
0.0
 11
138.4323254519
 21
119.8639443309
 31
0.0
  0
LINE
  5
E0
330
1F
100
AcDbEntity
  8
0
  6
Continuous
 62
     7
370
    25
100
AcDbLine
 10
123.4323254519
 20
119.8639443309
 30
0.0
 11
123.4323254519
 21
118.3639443309
 31
0.0
  0
LINE
  5
E1
330
1F
100
AcDbEntity
  8
0
  6
Continuous
 62
     7
370
    25
100
AcDbLine
 10
603.6745819621
 20
77.6562008413
 30
0.0
 11
603.6745819621
 21
117.1639443309
 31
0.0
  0
LINE
  5
E2
330
1F
100
AcDbEntity
  8
0
  6
Continuous
 62
     7
370
    25
100
AcDbLine
 10
627.1823254518
 20
117.163944331
 30
0.0
 11
603.6745819621
 21
117.1639443309
 31
0.0
  0
LINE
  5
E3
330
1F
100
AcDbEntity
  8
0
  6
Continuous
 62
     7
370
    25
100
AcDbLine
 10
627.1823254518
 20
65.9023290965
 30
0.0
 11
627.1823254518
 21
117.163944331
 31
0.0
  0
LINE
  5
E4
330
1F
100
AcDbEntity
  8
0
  6
Continuous
 62
     7
370
    25
100
AcDbLine
 10
627.182325452
 20
65.9023290964
 30
0.0
 11
603.6745819621
 21
77.6562008413
 31
0.0
  0
SPLINE
  5
E5
330
1F
100
AcDbEntity
  8
0
  6
Continuous
 62
     7
370
    25
100
AcDbSpline
210
0.0
220
0.0
230
1.0
 70
     8
 71
     3
 72
    14
 73
    10
 74
     0
 42
0.00000001
 43
0.00000001
 40
0.0
 40
0.0
 40
0.0
 40
0.0
 40
0.25
 40
0.25
 40
0.5
 40
0.5
 40
0.75
 40
0.75
 40
1.0
 40
1.0
 40
1.0
 40
1.0
 10
627.1823254520106
 20
65.90232909647818
 30
0.0
 10
627.339405084673
 20
65.84015174188269
 30
0.0
 10
627.4964229132021
 20
65.77797438728714
 30
0.0
 10
627.7866682283689
 20
65.65361967809618
 30
0.0
 10
627.919781515869
 20
65.59144232350067
 30
0.0
 10
628.1419256627337
 20
65.46708761430965
 30
0.0
 10
628.2308691178622
 20
65.40491025971414
 30
0.0
 10
628.3510926638136
 20
65.28055555052315
 30
0.0
 10
628.3823254518046
 20
65.21837819592764
 30
0.0
 10
628.3823254518046
 20
65.15620084133215
 30
0.0
  0
LINE
  5
E6
330
1F
100
AcDbEntity
  8
0
  6
Continuous
 62
     7
370
    25
100
AcDbLine
 10
628.3823254518
 20
117.163944331
 30
0.0
 11
627.1823254518
 21
117.163944331
 31
0.0
  0
LINE
  5
E7
330
1F
100
AcDbEntity
  8
0
  6
Continuous
 62
     7
370
    25
100
AcDbLine
 10
628.3823254518
 20
65.1562008413
 30
0.0
 11
628.3823254518
 21
117.163944331
 31
0.0
  0
LINE
  5
E8
330
1F
100
AcDbEntity
  8
0
  6
Continuous
 62
     7
370
    25
100
AcDbLine
 10
628.3823254518
 20
65.1562008413
 30
0.0
 11
627.8823254518
 21
65.1562008413
 31
0.0
  0
SPLINE
  5
E9
330
1F
100
AcDbEntity
  8
0
  6
Continuous
 62
     7
370
    25
100
AcDbSpline
210
0.0
220
0.0
230
1.0
 70
     8
 71
     3
 72
    14
 73
    10
 74
     0
 42
0.00000001
 43
0.00000001
 40
0.0
 40
0.0
 40
0.0
 40
0.0
 40
0.25
 40
0.25
 40
0.5
 40
0.5
 40
0.75
 40
0.75
 40
1.0
 40
1.0
 40
1.0
 40
1.0
 10
627.1823254519248
 20
65.9023290964782
 30
0.0
 10
627.2739665495668
 20
65.84014406593545
 30
0.0
 10
627.3655489709531
 20
65.77797438728719
 30
0.0
 10
627.5348587381337
 20
65.65361967809619
 30
0.0
 10
627.6125081558422
 20
65.59144232350069
 30
0.0
 10
627.7420922415132
 20
65.46708761430968
 30
0.0
 10
627.7939759236716
 20
65.40491025971417
 30
0.0
 10
627.8641063254765
 20
65.28055555052318
 30
0.0
 10
627.8823254518047
 20
65.21838587187497
 30
0.0
 10
627.8823254518047
 20
65.15620084133216
 30
0.0
  0
SPLINE
  5
EA
330
1F
100
AcDbEntity
  8
0
  6
Continuous
 62
     7
370
    25
100
AcDbSpline
210
0.0
220
0.0
230
1.0
 70
     8
 71
     3
 72
    12
 73
     8
 74
     0
 42
0.00000001
 43
0.00000001
 40
0.0
 40
0.0
 40
0.0
 40
0.0
 40
0.2894438681052099
 40
0.4835518891537181
 40
0.6056036135621146
 40
0.7768935510209747
 40
1.0
 40
1.0
 40
1.0
 40
1.0
 10
627.1823254518043
 20
118.2015407732656
 30
0.0
 10
627.102059886234
 20
118.2144023585002
 30
0.0
 10
626.9679663014587
 20
118.2358892322019
 30
0.0
 10
626.8168923239713
 20
118.2805305697145
 30
0.0
 10
626.7586476723257
 20
118.3228786844742
 30
0.0
 10
626.7160245112374
 20
118.3557076571116
 30
0.0
 10
626.6945010679361
 20
118.3609683850048
 30
0.0
 10
626.682325451805
 20
118.3639443309303
 30
0.0
  0
LINE
  5
EB
330
1F
100
AcDbEntity
  8
0
  6
Continuous
 62
     7
370
    25
100
AcDbLine
 10
627.1823254518
 20
117.1639443309
 30
0.0
 11
627.1823254518
 21
118.2015407733
 31
0.0
  0
LINE
  5
EC
330
1F
100
AcDbEntity
  8
0
  6
Continuous
 62
     7
370
    25
100
AcDbLine
 10
33.1823254517
 20
117.1639443309
 30
0.0
 11
627.1823254518
 21
117.1639443309
 31
0.0
  0
SPLINE
  5
ED
330
1F
100
AcDbEntity
  8
0
  6
Continuous
 62
     7
370
    25
100
AcDbSpline
210
0.0
220
0.0
230
1.0
 70
     8
 71
     3
 72
    16
 73
    12
 74
     0
 42
0.00000001
 43
0.00000001
 40
0.0
 40
0.0
 40
0.0
 40
0.0
 40
0.1127592865461173
 40
0.2129750655000486
 40
0.3009530613540317
 40
0.3771479316971882
 40
0.4422631126411502
 40
0.4974289875385912
 40
0.6169133273316267
 40
0.7833786536151208
 40
1.0
 40
1.0
 40
1.0
 40
1.0
 10
33.68232545170075
 20
118.3639443309303
 30
0.0
 10
33.6780335925454
 20
118.3631833174711
 30
0.0
 10
33.66992730691059
 20
118.3617459468006
 30
0.0
 10
33.65346889671289
 20
118.3512636247673
 30
0.0
 10
33.63460006091962
 20
118.3376473181796
 30
0.0
 10
33.61299743519031
 20
118.3224703319445
 30
0.0
 10
33.58884833588432
 20
118.3076137246192
 30
0.0
 10
33.54959864957746
 20
118.2887806598324
 30
0.0
 10
33.47013460119192
 20
118.265665824567
 30
0.0
 10
33.34289116006167
 20
118.2352948962626
 30
0.0
 10
33.24032360884283
 20
118.2137331457873
 30
0.0
 10
33.1823254517008
 20
118.2015407732732
 30
0.0
  0
LINE
  5
EE
330
1F
100
AcDbEntity
  8
0
  6
Continuous
 62
     7
370
    25
100
AcDbLine
 10
33.6823254517
 20
118.3639443309
 30
0.0
 11
626.6823254518
 21
118.3639443309
 31
0.0
  0
LINE
  5
EF
330
1F
100
AcDbEntity
  8
0
  6
Continuous
 62
     7
370
    25
100
AcDbLine
 10
33.1823254517
 20
118.2015407733
 30
0.0
 11
33.1823254517
 21
117.1639443309
 31
0.0
  0
CIRCLE
  5
F0
330
1F
100
AcDbEntity
  8
0
  6
Continuous
 62
     7
370
    25
100
AcDbCircle
 10
39.1823254519
 20
81.6562008414
 30
0.0
 40
1.749999999999972
  0
LINE
  5
F1
330
1F
100
AcDbEntity
  8
0
  6
Continuous
 62
     7
370
    25
100
AcDbLine
 10
33.1823254517
 20
65.3562008414
 30
0.0
 11
33.1823254517
 21
117.1639443309
 31
0.0
  0
LINE
  5
F2
330
1F
100
AcDbEntity
  8
0
  6
Continuous
 62
     7
370
    25
100
AcDbLine
 10
627.1823254518
 20
117.1639443309
 30
0.0
 11
627.1823254518
 21
65.3562008414
 31
0.0
  0
LINE
  5
F3
330
1F
100
AcDbEntity
  8
0
  6
Continuous
 62
     7
370
    25
100
AcDbLine
 10
627.1823254518
 20
65.3562008414
 30
0.0
 11
33.1823254517
 21
65.3562008414
 31
0.0
  0
LINE
  5
F4
330
1F
100
AcDbEntity
  8
0
  6
Continuous
 62
     7
370
    25
100
AcDbLine
 10
627.1823254518
 20
64.5498577845
 30
0.0
 11
627.1823254518
 21
65.3562008414
 31
0.0
  0
LINE
  5
F5
330
1F
100
AcDbEntity
  8
0
  6
Continuous
 62
     7
370
    25
100
AcDbLine
 10
626.6823254518
 20
64.5498577845
 30
0.0
 11
627.1823254518
 21
64.5498577845
 31
0.0
  0
SPLINE
  5
F6
330
1F
100
AcDbEntity
  8
0
  6
Continuous
 62
     7
370
    25
100
AcDbSpline
210
0.0
220
0.0
230
1.0
 70
     8
 71
     3
 72
    10
 73
     6
 74
     0
 42
0.00000001
 43
0.00000001
 40
0.0
 40
0.0
 40
0.0
 40
0.0
 40
0.5
 40
0.5
 40
1.0
 40
1.0
 40
1.0
 40
1.0
 10
626.6463137922372
 20
64.15620084137967
 30
0.0
 10
626.6523157354982
 20
64.15620084137969
 30
0.0
 10
626.6583176787592
 20
64.19146995417347
 30
0.0
 10
626.6703215652811
 20
64.32657001350724
 30
0.0
 10
626.6763235085422
 20
64.42633345200068
 30
0.0
 10
626.6823254518032
 20
64.54985778446182
 30
0.0
  0
LINE
  5
F7
330
1F
100
AcDbEntity
  8
0
  6
Continuous
 62
     7
370
    25
100
AcDbLine
 10
626.6463137922
 20
64.1562008414
 30
0.0
 11
33.7543487709
 21
64.1562008414
 31
0.0
  0
SPLINE
  5
F8
330
1F
100
AcDbEntity
  8
0
  6
Continuous
 62
     7
370
    25
100
AcDbSpline
210
0.0
220
0.0
230
1.0
 70
     8
 71
     3
 72
    10
 73
     6
 74
     0
 42
0.00000001
 43
0.00000001
 40
0.0
 40
0.0
 40
0.0
 40
0.0
 40
0.5
 40
0.5
 40
1.0
 40
1.0
 40
1.0
 40
1.0
 10
33.68232545180344
 20
64.54985778447372
 30
0.0
 10
33.69432933832556
 20
64.42633345201256
 30
0.0
 10
33.70633322484756
 20
64.32657001351907
 30
0.0
 10
33.73034099789152
 20
64.19146995418538
 30
0.0
 10
33.74234488441363
 20
64.15620084139154
 30
0.0
 10
33.75434877093575
 20
64.15620084139154
 30
0.0
  0
LINE
  5
F9
330
1F
100
AcDbEntity
  8
0
  6
Continuous
 62
     7
370
    25
100
AcDbLine
 10
33.1823254517
 20
64.5498577845
 30
0.0
 11
33.6823254518
 21
64.5498577845
 31
0.0
  0
LINE
  5
FA
330
1F
100
AcDbEntity
  8
0
  6
Continuous
 62
     7
370
    25
100
AcDbLine
 10
33.1823254517
 20
65.3562008414
 30
0.0
 11
33.1823254517
 21
64.5498577845
 31
0.0
  0
LINE
  5
FB
330
1F
100
AcDbEntity
  8
0
  6
Continuous
 62
     7
370
    25
100
AcDbLine
 10
628.3823254518
 20
64.3562008413
 30
0.0
 11
627.8823254518
 21
64.3562008413
 31
0.0
  0
ARC
  5
FC
330
1F
100
AcDbEntity
  8
0
  6
Continuous
 62
     7
370
    25
100
AcDbCircle
 10
627.1823254518
 20
64.3562008413
 30
0.0
 40
1.200000000000024
100
AcDbArc
 50
317.7820572009
 51
0.0
  0
LINE
  5
FD
330
1F
100
AcDbEntity
  8
0
  6
Continuous
 62
     7
370
    25
100
AcDbLine
 10
627.7007413941
 20
63.8858340581
 30
0.0
 11
628.0710384958
 21
63.5498577844
 31
0.0
  0
ARC
  5
FE
330
1F
100
AcDbEntity
  8
0
  6
Continuous
 62
     7
370
    25
100
AcDbCircle
 10
627.1823254518
 20
64.3562008413
 30
0.0
 40
0.699999999999966
100
AcDbArc
 50
317.7820572009
 51
0.0
  0
LINE
  5
FF
330
1F
100
AcDbEntity
  8
0
  6
Continuous
 62
     7
370
    25
100
AcDbLine
 10
628.3823254518
 20
64.3562008413
 30
0.0
 11
628.3823254518
 21
65.1562008413
 31
0.0
  0
LINE
  5
100
330
1F
100
AcDbEntity
  8
0
  6
Continuous
 62
     7
370
    25
100
AcDbLine
 10
627.8823254518
 20
64.3562008413
 30
0.0
 11
627.8823254518
 21
65.1562008413
 31
0.0
  0
LINE
  5
101
330
1F
100
AcDbEntity
  8
0
  6
Continuous
 62
     7
370
    25
100
AcDbLine
 10
627.1823254518
 20
63.1562008413
 30
0.0
 11
627.1823254518
 21
63.6562008413
 31
0.0
  0
SPLINE
  5
102
330
1F
100
AcDbEntity
  8
0
  6
Continuous
 62
     7
370
    25
100
AcDbSpline
210
0.0
220
0.0
230
1.0
 70
     8
 71
     3
 72
    10
 73
     6
 74
     0
 42
0.00000001
 43
0.00000001
 40
0.0
 40
0.0
 40
0.0
 40
0.0
 40
0.5
 40
0.5
 40
1.0
 40
1.0
 40
1.0
 40
1.0
 10
628.0710384957961
 20
63.54985778441111
 30
0.0
 10
627.9589629630761
 20
63.42633345194997
 30
0.0
 10
627.8208233328029
 20
63.32657001345648
 30
0.0
 10
627.5158237968266
 20
63.19146995412275
 30
0.0
 10
627.3491162961111
 20
63.15620084132892
 30
0.0
 10
627.1823254518048
 20
63.15620084132893
 30
0.0
  0
SPLINE
  5
103
330
1F
100
AcDbEntity
  8
0
  6
Continuous
 62
     7
370
    25
100
AcDbSpline
210
0.0
220
0.0
230
1.0
 70
     8
 71
     3
 72
    10
 73
     6
 74
     0
 42
0.00000001
 43
0.00000001
 40
0.0
 40
0.0
 40
0.0
 40
0.0
 40
0.5
 40
0.5
 40
1.0
 40
1.0
 40
1.0
 40
1.0
 10
627.7007413941329
 20
63.88583405812688
 30
0.0
 10
627.6353587333836
 20
63.81377239285879
 30
0.0
 10
627.5547825490536
 20
63.75558285840334
 30
0.0
 10
627.3768661530675
 20
63.67677449045866
 30
0.0
 10
627.2796279488326
 20
63.65620084132893
 30
0.0
 10
627.1823254518048
 20
63.65620084132893
 30
0.0
  0
SPLINE
  5
104
330
1F
100
AcDbEntity
  8
0
  6
Continuous
 62
     7
370
    25
100
AcDbSpline
210
0.0
220
0.0
230
1.0
 70
     8
 71
     3
 72
    16
 73
    12
 74
     0
 42
0.00000001
 43
0.00000001
 40
0.0
 40
0.0
 40
0.0
 40
0.0
 40
0.1127592865878629
 40
0.2129750655668554
 40
0.3009530614290465
 40
0.3771479317640216
 40
0.4422631126840774
 40
0.4974289875441626
 40
0.6169133274096956
 40
0.7833786536925461
 40
0.9999999999999999
 40
0.9999999999999999
 40
0.9999999999999999
 40
0.9999999999999999
 10
627.182325451805
 20
118.3639443309303
 30
0.0
 10
627.2148795528283
 20
118.3631833174706
 30
0.0
 10
627.2763663891657
 20
118.361745946799
 30
0.0
 10
627.361940361068
 20
118.3512636247594
 30
0.0
 10
627.4353881831909
 20
118.3376473181661
 30
0.0
 10
627.4968228455999
 20
118.3224703319293
 30
0.0
 10
627.5466609525671
 20
118.3076137246068
 30
0.0
 10
627.6018292155524
 20
118.2887806598236
 30
0.0
 10
627.6595309376545
 20
118.2656658245615
 30
0.0
 10
627.7249011957352
 20
118.2352948962515
 30
0.0
 10
627.7633854274762
 20
118.2137331457797
 30
0.0
 10
627.785146837329
 20
118.2015407732694
 30
0.0
  0
LINE
  5
105
330
1F
100
AcDbEntity
  8
0
  6
Continuous
 62
     7
370
    25
100
AcDbLine
 10
627.53397126
 20
117.7692089223
 30
0.0
 11
627.7851468373
 21
118.2015407733
 31
0.0
  0
SPLINE
  5
106
330
1F
100
AcDbEntity
  8
0
  6
Continuous
 62
     7
370
    25
100
AcDbSpline
210
0.0
220
0.0
230
1.0
 70
     8
 71
     3
 72
    14
 73
    10
 74
     0
 42
0.00000001
 43
0.00000001
 40
0.0
 40
0.0
 40
0.0
 40
0.0
 40
0.25
 40
0.25
 40
0.375
 40
0.375
 40
0.5
 40
0.5
 40
1.0
 40
1.0
 40
1.0
 40
1.0
 10
627.182325451805
 20
117.8639443309303
 30
0.0
 10
627.2426537264281
 20
117.8639443309303
 30
0.0
 10
627.2924804507088
 20
117.8563804334922
 30
0.0
 10
627.3511350550448
 20
117.8435793711046
 30
0.0
 10
627.3680291799944
 20
117.8390278574907
 30
0.0
 10
627.3966913231543
 20
117.8304808383306
 30
0.0
 10
627.4087399672972
 20
117.8263857933412
 30
0.0
 10
627.4539587007532
 20
117.810234483426
 30
0.0
 10
627.4932385141152
 20
117.7928737782301
 30
0.0
 10
627.5339712600272
 20
117.7692089222948
 30
0.0
  0
LINE
  5
107
330
1F
100
AcDbEntity
  8
0
  6
Continuous
 62
     7
370
    25
100
AcDbLine
 10
33.6823254517
 20
118.3639443309
 30
0.0
 11
33.1823254519
 21
118.3639443309
 31
0.0
  0
ARC
  5
108
330
1F
100
AcDbEntity
  8
0
  6
Continuous
 62
     7
370
    25
100
AcDbCircle
 10
627.1823254518
 20
117.1639443309
 30
0.0
 40
1.200000000000045
100
AcDbArc
 50
0.0000000021
 51
59.8443265721
  0
ARC
  5
109
330
1F
100
AcDbEntity
  8
0
  6
Continuous
 62
     7
370
    25
100
AcDbCircle
 10
627.1823254518
 20
117.1639443309
 30
0.0
 40
0.7000000000000455
100
AcDbArc
 50
0.0
 51
59.8443265721
  0
LINE
  5
10A
330
1F
100
AcDbEntity
  8
0
  6
Continuous
 62
     7
370
    25
100
AcDbLine
 10
627.1823254518
 20
118.3639443309
 30
0.0
 11
626.6823254518
 21
118.3639443309
 31
0.0
  0
ARC
  5
10B
330
1F
100
AcDbEntity
  8
0
  6
Continuous
 62
     7
370
    25
100
AcDbCircle
 10
33.1823254519
 20
117.1639443309
 30
0.0
 40
1.199999999999983
100
AcDbArc
 50
120.1556734379
 51
180.0
  0
LINE
  5
10C
330
1F
100
AcDbEntity
  8
0
  6
Continuous
 62
     7
370
    25
100
AcDbLine
 10
32.8306796435
 20
117.7692089222
 30
0.0
 11
32.5795040662
 21
118.2015407732
 31
0.0
  0
ARC
  5
10D
330
1F
100
AcDbEntity
  8
0
  6
Continuous
 62
     7
370
    25
100
AcDbCircle
 10
33.1823254519
 20
117.1639443309
 30
0.0
 40
0.6999999999999892
100
AcDbArc
 50
120.1556734379
 51
180.0
  0
LINE
  5
10E
330
1F
100
AcDbEntity
  8
0
  6
Continuous
 62
     7
370
    25
100
AcDbLine
 10
31.9823254519
 20
117.1639443309
 30
0.0
 11
32.4823254519
 21
117.1639443309
 31
0.0
  0
SPLINE
  5
10F
330
1F
100
AcDbEntity
  8
0
  6
Continuous
 62
     7
370
    25
100
AcDbSpline
210
0.0
220
0.0
230
1.0
 70
     8
 71
     3
 72
    12
 73
     8
 74
     0
 42
0.00000001
 43
0.00000001
 40
0.0
 40
0.0
 40
0.0
 40
0.0
 40
0.2894438682552393
 40
0.4835518891708993
 40
0.6056036137324552
 40
0.776893551187158
 40
0.9999999999999999
 40
0.9999999999999999
 40
0.9999999999999999
 40
0.9999999999999999
 10
32.57950406616133
 20
118.2015407731641
 30
0.0
 10
32.60220930415553
 20
118.214402358412
 30
0.0
 10
32.64014122094605
 20
118.2358892321254
 30
0.0
 10
32.73740346530091
 20
118.2805305696938
 30
0.0
 10
32.86337684231672
 20
118.3228786844838
 30
0.0
 10
33.00462769521423
 20
118.3557076571164
 30
0.0
 10
33.11812248275226
 20
118.3609683850071
 30
0.0
 10
33.18232545186667
 20
118.3639443309303
 30
0.0
  0
SPLINE
  5
110
330
1F
100
AcDbEntity
  8
0
  6
Continuous
 62
     7
370
    25
100
AcDbSpline
210
0.0
220
0.0
230
1.0
 70
     8
 71
     3
 72
    18
 73
    14
 74
     0
 42
0.00000001
 43
0.00000001
 40
0.0
 40
0.0
 40
0.0
 40
0.0
 40
0.25
 40
0.25
 40
0.375
 40
0.375
 40
0.4375
 40
0.4375
 40
0.5
 40
0.5
 40
0.75
 40
0.75
 40
1.0
 40
1.0
 40
1.0
 40
1.0
 10
32.83067964353859
 20
117.7692089222334
 30
0.0
 10
32.84515830479035
 20
117.7776207153773
 30
0.0
 10
32.86113668032398
 20
117.7862131361943
 30
0.0
 10
32.88750758872433
 20
117.7989070076402
 30
0.0
 10
32.89669813196511
 20
117.8031048585346
 30
0.0
 10
32.91109928018482
 20
117.8092842803176
 30
0.0
 10
32.91600218159685
 20
117.8113244653685
 30
0.0
 10
32.92601501332692
 20
117.8153536353219
 30
0.0
 10
32.93144842362538
 20
117.8174640370157
 30
0.0
 10
32.95590225947586
 20
117.8266427318676
 30
0.0
 10
32.98563105486102
 20
117.8370463044416
 30
0.0
 10
33.06731227944132
 20
117.8557007351123
 30
0.0
 10
33.11935392644178
 20
117.8639443309303
 30
0.0
 10
33.18232545186672
 20
117.8639443309303
 30
0.0
  0
LINE
  5
111
330
1F
100
AcDbEntity
  8
0
  6
Continuous
 62
     7
370
    25
100
AcDbLine
 10
31.9823254519
 20
92.6562008414
 30
0.0
 11
32.4823254519
 21
92.6562008414
 31
0.0
  0
LINE
  5
112
330
1F
100
AcDbEntity
  8
0
  6
Continuous
 62
     7
370
    25
100
AcDbLine
 10
31.9823254519
 20
117.1639443309
 30
0.0
 11
31.9823254519
 21
92.6562008414
 31
0.0
  0
LINE
  5
113
330
1F
100
AcDbEntity
  8
0
  6
Continuous
 62
     7
370
    25
100
AcDbLine
 10
32.4823254519
 20
117.1639443309
 30
0.0
 11
32.4823254519
 21
92.6562008414
 31
0.0
  0
LINE
  5
114
330
1F
100
AcDbEntity
  8
0
  6
Continuous
 62
     7
370
    25
100
AcDbLine
 10
617.9745819623
 20
63.1562008413
 30
0.0
 11
617.9745819623
 21
63.6562008413
 31
0.0
  0
LINE
  5
115
330
1F
100
AcDbEntity
  8
0
  6
Continuous
 62
     7
370
    25
100
AcDbLine
 10
617.9745819623
 20
63.6562008413
 30
0.0
 11
627.1823254518
 21
63.6562008413
 31
0.0
  0
LINE
  5
116
330
1F
100
AcDbEntity
  8
0
  6
Continuous
 62
     7
370
    25
100
AcDbLine
 10
617.9745819623
 20
63.1562008413
 30
0.0
 11
627.1823254518
 21
63.1562008413
 31
0.0
  0
LINE
  5
117
330
1F
100
AcDbEntity
  8
0
  6
Continuous
 62
     7
370
    25
100
AcDbLine
 10
32.4823254518
 20
92.6562008414
 30
0.0
 11
32.4823254518
 21
64.8703436839
 31
0.0
  0
SPLINE
  5
118
330
1F
100
AcDbEntity
  8
0
  6
Continuous
 62
     7
370
    25
100
AcDbSpline
210
0.0
220
0.0
230
1.0
 70
     8
 71
     3
 72
    10
 73
     6
 74
     0
 42
0.00000001
 43
0.00000001
 40
0.0
 40
0.0
 40
0.0
 40
0.0
 40
0.207224724529764
 40
0.4412860670314519
 40
1.0
 40
1.0
 40
1.0
 40
1.0
 10
32.78208328672988
 20
98.15620084103696
 30
0.0
 10
32.74266689240585
 20
98.16144424715648
 30
0.0
 10
32.65872948741072
 20
98.17261010619951
 30
0.0
 10
32.52163840050565
 20
98.25523782249306
 30
0.0
 10
32.498577666072
 20
98.36482539102185
 30
0.0
 10
32.48232545181762
 20
98.44205799818266
 30
0.0
  0
LINE
  5
119
330
1F
100
AcDbEntity
  8
0
  6
Continuous
 62
     7
370
    25
100
AcDbLine
 10
33.1823254518
 20
98.156200841
 30
0.0
 11
32.7820832867
 21
98.156200841
 31
0.0
  0
LINE
  5
11A
330
1F
100
AcDbEntity
  8
0
  6
Continuous
 62
     7
370
    25
100
AcDbLine
 10
32.7820832867
 20
65.156200841
 30
0.0
 11
33.1823254517
 21
65.156200841
 31
0.0
  0
SPLINE
  5
11B
330
1F
100
AcDbEntity
  8
0
  6
Continuous
 62
     7
370
    25
100
AcDbSpline
210
0.0
220
0.0
230
1.0
 70
     8
 71
     3
 72
    10
 73
     6
 74
     0
 42
0.00000001
 43
0.00000001
 40
0.0
 40
0.0
 40
0.0
 40
0.0
 40
0.4381166290512222
 40
0.7023419029162599
 40
1.0
 40
1.0
 40
1.0
 40
1.0
 10
32.48232545181762
 20
64.8703436838913
 30
0.0
 10
32.49199046121143
 20
64.9370586030731
 30
0.0
 10
32.50748437456524
 20
65.04400885372331
 30
0.0
 10
32.62323544023532
 20
65.11748771401476
 30
0.0
 10
32.72707448323181
 20
65.14279453529123
 30
0.0
 10
32.78208328672982
 20
65.15620084103699
 30
0.0
  0
LWPOLYLINE
  5
11C
330
1F
100
AcDbEntity
  8
0
  6
Continuous
 62
     7
370
    25
100
AcDbPolyline
 90
        3
 70
   128
 43
0.0
 10
39.6829893087
 20
80.656200841
 10
39.5497784906
 20
79.9865048344
 10
39.5302293757
 20
79.941131496
  0
LINE
  5
11D
330
1F
100
AcDbEntity
  8
0
  6
Continuous
 62
     7
370
    25
100
AcDbLine
 10
39.6829893087
 20
82.656200841
 30
0.0
 11
39.6829893087
 21
80.656200841
 31
0.0
  0
LWPOLYLINE
  5
11E
330
1F
100
AcDbEntity
  8
0
  6
Continuous
 62
     7
370
    25
100
AcDbPolyline
 90
        3
 70
   128
 43
0.0
 10
39.5302293753
 20
83.371270187
 10
39.5497784906
 20
83.3258968477
 10
39.6829893087
 20
82.656200841
  0
LINE
  5
11F
330
1F
100
AcDbEntity
  8
0
  6
Continuous
 62
     7
370
    25
100
AcDbLine
 10
32.4823254518
 20
98.4420579982
 30
0.0
 11
33.1823254518
 21
98.4420579982
 31
0.0
  0
LINE
  5
120
330
1F
100
AcDbEntity
  8
0
  6
Continuous
 62
     7
370
    25
100
AcDbLine
 10
33.1823254518
 20
64.8703436839
 30
0.0
 11
32.4823254518
 21
64.8703436839
 31
0.0
  0
LINE
  5
121
330
1F
100
AcDbEntity
  8
0
  6
Continuous
 62
     7
370
    25
100
AcDbLine
 10
32.4823254518
 20
99.156200841
 30
0.0
 11
33.1823254518
 21
99.156200841
 31
0.0
  0
LINE
  5
122
330
1F
100
AcDbEntity
  8
0
  6
Continuous
 62
     7
370
    25
100
AcDbLine
 10
32.4823254518
 20
64.156200841
 30
0.0
 11
33.1823254518
 21
64.156200841
 31
0.0
  0
LINE
  5
123
330
1F
100
AcDbEntity
  8
0
  6
Continuous
 62
     7
370
    25
100
AcDbLine
 10
32.4823254518
 20
64.8703436839
 30
0.0
 11
32.4823254518
 21
64.156200841
 31
0.0
  0
LINE
  5
124
330
1F
100
AcDbEntity
  8
0
  6
Continuous
 62
     7
370
    25
100
AcDbLine
 10
33.1823254518
 20
64.5498577843
 30
0.0
 11
33.1823254518
 21
64.156200841
 31
0.0
  0
ARC
  5
125
330
1F
100
AcDbEntity
  8
0
  6
Continuous
 62
     7
370
    25
100
AcDbCircle
 10
33.8823254518
 20
64.156200841
 30
0.0
 40
1.400000000000013
100
AcDbArc
 50
180.0
 51
268.1953385517
  0
ARC
  5
126
330
1F
100
AcDbEntity
  8
0
  6
Continuous
 62
     7
370
    25
100
AcDbCircle
 10
33.8823254518
 20
64.156200841
 30
0.0
 40
0.7000000000000313
100
AcDbArc
 50
180.0
 51
268.1953385517
  0
LINE
  5
127
330
1F
100
AcDbEntity
  8
0
  6
Continuous
 62
     7
370
    25
100
AcDbLine
 10
33.8602809983
 20
63.4565480399
 30
0.0
 11
33.8382365448
 21
62.7568952389
 31
0.0
  0
LINE
  5
128
330
1F
100
AcDbEntity
  8
0
  6
Continuous
 62
     7
370
    25
100
AcDbLine
 10
33.8823254518
 20
62.756200841
 30
0.0
 11
33.8382365448
 21
62.7568952389
 31
0.0
  0
LINE
  5
129
330
1F
100
AcDbEntity
  8
0
  6
Continuous
 62
     7
370
    25
100
AcDbLine
 10
33.8823254518
 20
62.756200841
 30
0.0
 11
33.8823254518
 21
63.456200841
 31
0.0
  0
LINE
  5
12A
330
1F
100
AcDbEntity
  8
0
  6
Continuous
 62
     7
370
    25
100
AcDbLine
 10
33.8823254518
 20
63.456200841
 30
0.0
 11
33.8602809983
 21
63.4565480399
 31
0.0
  0
LINE
  5
12B
330
1F
100
AcDbEntity
  8
0
  6
Continuous
 62
     7
370
    25
100
AcDbLine
 10
34.5182180351
 20
62.756200841
 30
0.0
 11
34.5182180351
 21
63.456200841
 31
0.0
  0
LINE
  5
12C
330
1F
100
AcDbEntity
  8
0
  6
Continuous
 62
     7
370
    25
100
AcDbLine
 10
33.8823254518
 20
63.456200841
 30
0.0
 11
34.5182180351
 21
63.456200841
 31
0.0
  0
LINE
  5
12D
330
1F
100
AcDbEntity
  8
0
  6
Continuous
 62
     7
370
    25
100
AcDbLine
 10
33.8823254518
 20
62.756200841
 30
0.0
 11
34.5182180351
 21
62.756200841
 31
0.0
  0
ARC
  5
12E
330
1F
100
AcDbEntity
  8
0
  6
Continuous
 62
     7
370
    25
100
AcDbCircle
 10
33.8823254518
 20
99.156200841
 30
0.0
 40
1.400000000000013
100
AcDbArc
 50
120.0000000055
 51
180.0
  0
LINE
  5
12F
330
1F
100
AcDbEntity
  8
0
  6
Continuous
 62
     7
370
    25
100
AcDbLine
 10
44.2329893087
 20
62.756200841
 30
0.0
 11
44.2329893087
 21
63.456200841
 31
0.0
  0
LINE
  5
130
330
1F
100
AcDbEntity
  8
0
  6
Continuous
 62
     7
370
    25
100
AcDbLine
 10
34.5182180351
 20
63.456200841
 30
0.0
 11
44.2329893087
 21
63.456200841
 31
0.0
  0
LINE
  5
131
330
1F
100
AcDbEntity
  8
0
  6
Continuous
 62
     7
370
    25
100
AcDbLine
 10
34.5182180351
 20
62.756200841
 30
0.0
 11
44.2329893087
 21
62.756200841
 31
0.0
  0
LINE
  5
132
330
1F
100
AcDbEntity
  8
0
  6
Continuous
 62
     7
370
    25
100
AcDbLine
 10
130.9323254519
 20
119.8639443309
 30
0.0
 11
138.4323254519
 21
119.8639443309
 31
0.0
  0
LINE
  5
133
330
1F
100
AcDbEntity
  8
0
  6
Continuous
 62
     7
370
    25
100
AcDbLine
 10
130.9323254519
 20
118.3639443309
 30
0.0
 11
130.9323254519
 21
119.8639443309
 31
0.0
  0
LINE
  5
134
330
1F
100
AcDbEntity
  8
0
  6
Continuous
 62
     7
370
    25
100
AcDbLine
 10
123.4323254519
 20
119.8639443309
 30
0.0
 11
130.9323254519
 21
119.8639443309
 31
0.0
  0
SPLINE
  5
135
330
1F
100
AcDbEntity
  8
0
  6
Continuous
 62
     7
370
    25
100
AcDbSpline
210
0.0
220
0.0
230
1.0
 70
     8
 71
     3
 72
     9
 73
     5
 74
     0
 42
0.00000001
 43
0.00000001
 40
0.0
 40
0.0
 40
0.0
 40
0.0
 40
0.5931105904960019
 40
1.0
 40
1.0
 40
1.0
 40
1.0
 10
167.2359266041957
 20
120.2865893417876
 30
0.0
 10
167.2248627538994
 20
119.9469164195641
 30
0.0
 10
167.2062088123349
 20
119.3742189704436
 30
0.0
 10
167.0364720704067
 20
118.8234608633102
 30
0.0
 10
166.9674079877123
 20
118.5993632223192
 30
0.0
  0
SPLINE
  5
136
330
1F
100
AcDbEntity
  8
0
  6
Continuous
 62
     7
370
    25
100
AcDbSpline
210
0.0
220
0.0
230
1.0
 70
     8
 71
     3
 72
     9
 73
     5
 74
     0
 42
0.00000001
 43
0.00000001
 40
0.0
 40
0.0
 40
0.0
 40
0.0
 40
0.5599999999999963
 40
1.0
 40
1.0
 40
1.0
 40
1.0
 10
166.9674079877124
 20
118.5993632223192
 30
0.0
 10
166.8479404952763
 20
118.6043510985631
 30
0.0
 10
166.6346056873548
 20
118.6132580204271
 30
0.0
 10
166.359988999079
 20
118.6140776922303
 30
0.0
 10
166.2391576562376
 20
118.6144383478237
 30
0.0
  0
LINE
  5
137
330
1F
100
AcDbEntity
  8
0
  6
Continuous
 62
     7
370
    25
100
AcDbLine
 10
166.2391576562
 20
118.6144383478
 30
0.0
 11
166.2352802002
 21
120.6199596278
 31
0.0
  0
SPLINE
  5
138
330
1F
100
AcDbEntity
  8
0
  6
Continuous
 62
     7
370
    25
100
AcDbSpline
210
0.0
220
0.0
230
1.0
 70
     8
 71
     3
 72
    11
 73
     7
 74
     0
 42
0.00000001
 43
0.00000001
 40
0.0
 40
0.0
 40
0.0
 40
0.0
 40
0.2796579740372014
 40
0.5592666022935258
 40
0.7796650582496105
 40
1.0
 40
1.0
 40
1.0
 40
1.0
 10
166.2352802002153
 20
120.6199596278007
 30
0.0
 10
166.3824726057493
 20
120.6177299702929
 30
0.0
 10
166.6768314446481
 20
120.6132710487015
 30
0.0
 10
167.0056535357071
 20
120.5763854820881
 30
0.0
 10
167.2009666068235
 20
120.5278041418347
 30
0.0
 10
167.2240424252836
 20
120.4869654528821
 30
0.0
 10
167.2355786717826
 20
120.4665490510429
 30
0.0
  0
LINE
  5
139
330
1F
100
AcDbEntity
  8
0
  6
Continuous
 62
     7
370
    25
100
AcDbLine
 10
167.2355786718
 20
120.466549051
 30
0.0
 11
167.2359266042
 21
120.2865893418
 31
0.0
  0
LINE
  5
13A
330
1F
100
AcDbEntity
  8
0
  6
Continuous
 62
     7
370
    25
100
AcDbLine
 10
165.1109718087
 20
118.595774006
 30
0.0
 11
166.9674079877
 21
118.5993632223
 31
0.0
  0
SPLINE
  5
13B
330
1F
100
AcDbEntity
  8
0
  6
Continuous
 62
     7
370
    25
100
AcDbSpline
210
0.0
220
0.0
230
1.0
 70
     8
 71
     3
 72
     9
 73
     5
 74
     0
 42
0.00000001
 43
0.00000001
 40
0.0
 40
0.0
 40
0.0
 40
0.0
 40
0.5600000000000275
 40
1.0
 40
1.0
 40
1.0
 40
1.0
 10
165.8391584038353
 20
118.6136649930228
 30
0.0
 10
165.6847415061821
 20
118.6123861509958
 30
0.0
 10
165.4089970460872
 20
118.6101025045191
 30
0.0
 10
165.2020350757024
 20
118.6001521583476
 30
0.0
 10
165.1109718087332
 20
118.5957740060321
 30
0.0
  0
LINE
  5
13C
330
1F
100
AcDbEntity
  8
0
  6
Continuous
 62
     7
370
    25
100
AcDbLine
 10
165.8391584038
 20
118.613664993
 30
0.0
 11
166.2391576562
 21
118.6144383478
 31
0.0
  0
LINE
  5
13D
330
1F
100
AcDbEntity
  8
0
  6
Continuous
 62
     7
370
    25
100
AcDbLine
 10
165.8352809478
 20
120.619186273
 30
0.0
 11
165.8391584038
 21
118.613664993
 31
0.0
  0
LINE
  5
13E
330
1F
100
AcDbEntity
  8
0
  6
Continuous
 62
     7
370
    25
100
AcDbLine
 10
165.8352809478
 20
120.619186273
 30
0.0
 11
166.2352802002
 21
120.6199596278
 31
0.0
  0
SPLINE
  5
13F
330
1F
100
AcDbEntity
  8
0
  6
Continuous
 62
     7
370
    25
100
AcDbSpline
210
0.0
220
0.0
230
1.0
 70
     8
 71
     3
 72
     9
 73
     5
 74
     0
 42
0.00000001
 43
0.00000001
 40
0.0
 40
0.0
 40
0.0
 40
0.0
 40
0.5304166037466872
 40
1.0
 40
1.0
 40
1.0
 40
1.0
 10
165.1109718087332
 20
118.5957740060321
 30
0.0
 10
165.0242164572453
 20
118.8889211400878
 30
0.0
 10
164.8606556809138
 20
119.4415945141581
 30
0.0
 10
164.8438314631154
 20
120.0134264367062
 30
0.0
 10
164.8359310897823
 20
120.2819492129824
 30
0.0
  0
LINE
  5
140
330
1F
100
AcDbEntity
  8
0
  6
Continuous
 62
     7
370
    25
100
AcDbLine
 10
164.8359310898
 20
120.281949213
 30
0.0
 11
164.8355831574
 21
120.4619089222
 31
0.0
  0
SPLINE
  5
141
330
1F
100
AcDbEntity
  8
0
  6
Continuous
 62
     7
370
    25
100
AcDbSpline
210
0.0
220
0.0
230
1.0
 70
     8
 71
     3
 72
    11
 73
     7
 74
     0
 42
0.00000001
 43
0.00000001
 40
0.0
 40
0.0
 40
0.0
 40
0.0
 40
0.2796579740370975
 40
0.5592666022933287
 40
0.7796650582493756
 40
1.0
 40
1.0
 40
1.0
 40
1.0
 10
165.8352809478131
 20
120.6191862729998
 30
0.0
 10
165.6880982642508
 20
120.6163874734574
 30
0.0
 10
165.39375886758
 20
120.610790368222
 30
0.0
 10
165.0650818626689
 20
120.5726335990265
 30
0.0
 10
164.8699581044197
 20
120.5232973918711
 30
0.0
 10
164.8470403721592
 20
120.4823697794192
 30
0.0
 10
164.8355831573692
 20
120.4619089222377
 30
0.0
  0
SPLINE
  5
142
330
1F
100
AcDbEntity
  8
0
  6
Continuous
 62
     7
370
    25
100
AcDbSpline
210
0.0
220
0.0
230
1.0
 70
     8
 71
     3
 72
    11
 73
     7
 74
     0
 42
0.00000001
 43
0.00000001
 40
0.0
 40
0.0
 40
0.0
 40
0.0
 40
0.2702613318128849
 40
0.5624293896420925
 40
0.7897364218595436
 40
1.0
 40
1.0
 40
1.0
 40
1.0
 10
164.8349050404395
 20
120.8126486662889
 30
0.0
 10
164.8522778615967
 20
120.9453244547874
 30
0.0
 10
164.8884317025264
 20
121.2214304084026
 30
0.0
 10
165.1583227598022
 20
121.535921064921
 30
0.0
 10
165.4943727665791
 20
121.7193114213223
 30
0.0
 10
165.7231569479894
 20
121.7404577732558
 30
0.0
 10
165.8330934461603
 20
121.7506191221146
 30
0.0
  0
SPLINE
  5
143
330
1F
100
AcDbEntity
  8
0
  6
Continuous
 62
     7
370
    25
100
AcDbSpline
210
0.0
220
0.0
230
1.0
 70
    24
 71
     3
 72
    10
 73
     6
 74
     0
 42
0.00000001
 43
0.00000001
 40
0.0
 40
0.0
 40
0.0
 40
0.0
 40
0.2768779234291051
 40
0.5624038656203848
 40
1.0
 40
1.0
 40
1.0
 40
1.0
 10
165.8330934461603
 20
121.7506191221146
 30
0.0
 10
165.8332123783094
 20
121.6891043158876
 30
0.0
 10
165.8334539573402
 20
121.5641533469317
 30
0.0
 10
165.8341724806289
 20
121.1925143812261
 30
0.0
 10
165.8348630505575
 20
120.8353336217052
 30
0.0
 10
165.8352809478131
 20
120.6191862729998
 30
0.0
  0
SPLINE
  5
144
330
1F
100
AcDbEntity
  8
0
  6
Continuous
 62
     7
370
    25
100
AcDbSpline
210
0.0
220
0.0
230
1.0
 70
    24
 71
     3
 72
     9
 73
     5
 74
     0
 42
0.00000001
 43
0.00000001
 40
0.0
 40
0.0
 40
0.0
 40
0.0
 40
0.5600000000000294
 40
1.0
 40
1.0
 40
1.0
 40
1.0
 10
164.8355831573692
 20
120.4619089222377
 30
0.0
 10
164.8354158432275
 20
120.5484481556488
 30
0.0
 10
164.8351170679744
 20
120.7029825010256
 30
0.0
 10
164.8349698266307
 20
120.7791395602362
 30
0.0
 10
164.8349050404395
 20
120.8126486662889
 30
0.0
  0
LINE
  5
145
330
1F
100
AcDbEntity
  8
0
  6
Continuous
 62
     7
370
    25
100
AcDbLine
 10
166.2330926986
 20
121.7513924769
 30
0.0
 11
165.8330934462
 21
121.7506191221
 31
0.0
  0
SPLINE
  5
146
330
1F
100
AcDbEntity
  8
0
  6
Continuous
 62
     7
370
    25
100
AcDbSpline
210
0.0
220
0.0
230
1.0
 70
    24
 71
     3
 72
    10
 73
     6
 74
     0
 42
0.00000001
 43
0.00000001
 40
0.0
 40
0.0
 40
0.0
 40
0.0
 40
0.2768779234291734
 40
0.5624038656204424
 40
1.0
 40
1.0
 40
1.0
 40
1.0
 10
166.2352802002153
 20
120.6199596278007
 30
0.0
 10
166.2350146153144
 20
120.7573270582351
 30
0.0
 10
166.2344751502207
 20
121.0363524602241
 30
0.0
 10
166.2336430941247
 20
121.4667135518913
 30
0.0
 10
166.2333002002353
 20
121.6440672054115
 30
0.0
 10
166.2330926985625
 20
121.7513924769155
 30
0.0
  0
SPLINE
  5
147
330
1F
100
AcDbEntity
  8
0
  6
Continuous
 62
     7
370
    25
100
AcDbSpline
210
0.0
220
0.0
230
1.0
 70
     8
 71
     3
 72
    11
 73
     7
 74
     0
 42
0.00000001
 43
0.00000001
 40
0.0
 40
0.0
 40
0.0
 40
0.0
 40
0.2702613318129026
 40
0.5624293896420969
 40
0.7897364218595427
 40
1.0
 40
1.0
 40
1.0
 40
1.0
 10
166.2330926985625
 20
121.7513924769155
 30
0.0
 10
166.3748299483523
 20
121.7351647682201
 30
0.0
 10
166.6697933245559
 20
121.7013939722444
 30
0.0
 10
167.005704495399
 20
121.4488457706776
 30
0.0
 10
167.2015401947817
 20
121.1343366595711
 30
0.0
 10
167.2240729869332
 20
120.9201910802934
 30
0.0
 10
167.2349005548529
 20
120.8172887950942
 30
0.0
  0
SPLINE
  5
148
330
1F
100
AcDbEntity
  8
0
  6
Continuous
 62
     7
370
    25
100
AcDbSpline
210
0.0
220
0.0
230
1.0
 70
    24
 71
     3
 72
     9
 73
     5
 74
     0
 42
0.00000001
 43
0.00000001
 40
0.0
 40
0.0
 40
0.0
 40
0.0
 40
0.5599999999999886
 40
1.0
 40
1.0
 40
1.0
 40
1.0
 10
167.2349005548529
 20
120.8172887950942
 30
0.0
 10
167.234988617265
 20
120.7717406211712
 30
0.0
 10
167.2351458715722
 20
120.6904045963087
 30
0.0
 10
167.2354464272739
 20
120.5349493565408
 30
0.0
 10
167.2355786717826
 20
120.4665490510429
 30
0.0
  0
SPLINE
  5
149
330
1F
100
AcDbEntity
  8
0
  6
Continuous
 62
     7
370
    25
100
AcDbSpline
210
0.0
220
0.0
230
1.0
 70
     8
 71
     3
 72
    11
 73
     7
 74
     0
 42
0.00000001
 43
0.00000001
 40
0.0
 40
0.0
 40
0.0
 40
0.0
 40
0.2702613318128801
 40
0.5624293896420843
 40
0.7897364218595203
 40
1.0
 40
1.0
 40
1.0
 40
1.0
 10
165.8329697844429
 20
121.8145801842967
 30
0.0
 10
165.6912985231113
 20
121.7966769431279
 30
0.0
 10
165.3964724726879
 20
121.7594192676193
 30
0.0
 10
165.061573808422
 20
121.4882726871247
 30
0.0
 10
164.8669973067728
 20
121.1514919227714
 30
0.0
 10
164.8453210309347
 20
120.9226249484946
 30
0.0
 10
164.8349050404395
 20
120.8126486662889
 30
0.0
  0
SPLINE
  5
14A
330
1F
100
AcDbEntity
  8
0
  6
Continuous
 62
     7
370
    25
100
AcDbSpline
210
0.0
220
0.0
230
1.0
 70
    24
 71
     3
 72
     9
 73
     5
 74
     0
 42
0.00000001
 43
0.00000001
 40
0.0
 40
0.0
 40
0.0
 40
0.0
 40
0.5599999999999908
 40
1.0
 40
1.0
 40
1.0
 40
1.0
 10
165.8329697844429
 20
121.8145801842967
 30
0.0
 10
165.8329764172139
 20
121.8111495423217
 30
0.0
 10
165.8329882614478
 20
121.8050233959378
 30
0.0
 10
165.833061306387
 20
121.7672426502272
 30
0.0
 10
165.8330934461603
 20
121.7506191221146
 30
0.0
  0
SPLINE
  5
14B
330
1F
100
AcDbEntity
  8
0
  6
Continuous
 62
     7
370
    25
100
AcDbSpline
210
0.0
220
0.0
230
1.0
 70
    24
 71
     3
 72
     9
 73
     5
 74
     0
 42
0.00000001
 43
0.00000001
 40
0.0
 40
0.0
 40
0.0
 40
0.0
 40
0.5600000000001183
 40
1.0
 40
1.0
 40
1.0
 40
1.0
 10
166.2330926985625
 20
121.7513924769155
 30
0.0
 10
166.2330530994766
 20
121.7718741558985
 30
0.0
 10
166.2329823868231
 20
121.808448582654
 30
0.0
 10
166.2329731160051
 20
121.8132436912954
 30
0.0
 10
166.2329690368451
 20
121.8153535390976
 30
0.0
  0
SPLINE
  5
14C
330
1F
100
AcDbEntity
  8
0
  6
Continuous
 62
     7
370
    25
100
AcDbSpline
210
0.0
220
0.0
230
1.0
 70
     8
 71
     3
 72
    11
 73
     7
 74
     0
 42
0.00000001
 43
0.00000001
 40
0.0
 40
0.0
 40
0.0
 40
0.0
 40
0.066166282771805
 40
0.4400485989930271
 40
0.7309294034528836
 40
1.0
 40
1.0
 40
1.0
 40
1.0
 10
167.1623654886189
 20
121.1504741961488
 30
0.0
 10
167.1574040140575
 20
121.1770229394112
 30
0.0
 10
167.1244069974771
 20
121.3535892627443
 30
0.0
 10
166.9024077365551
 20
121.5864494981579
 30
0.0
 10
166.5730730452305
 20
121.7837168876915
 30
0.0
 10
166.3433545135807
 20
121.8050854247512
 30
0.0
 10
166.2329690368451
 20
121.8153535390976
 30
0.0
  0
LINE
  5
14D
330
1F
100
AcDbEntity
  8
0
  6
Continuous
 62
     7
370
    25
100
AcDbLine
 10
166.2329690368
 20
121.8153535391
 30
0.0
 11
165.8329697844
 21
121.8145801843
 31
0.0
  0
LINE
  5
14E
330
1F
100
AcDbEntity
  8
0
  6
Continuous
 62
     7
370
    25
100
AcDbLine
 10
164.8359311671
 20
120.2819092131
 30
0.0
 11
164.8396393424
 21
118.3639443309
 31
0.0
  0
LINE
  5
14F
330
1F
100
AcDbEntity
  8
0
  6
Continuous
 62
     7
370
    25
100
AcDbLine
 10
167.239643828
 20
118.3639443309
 30
0.0
 11
167.2359212744
 21
120.2893460712
 31
0.0
  0
LINE
  5
150
330
1F
100
AcDbEntity
  8
0
  6
Continuous
 62
     7
370
    25
100
AcDbLine
 10
1349.0991191617
 20
118.3639443309
 30
0.0
 11
1348.602028227
 21
120.6199604321
 31
0.0
  0
LINE
  5
151
330
1F
100
AcDbEntity
  8
0
  6
Continuous
 62
     7
370
    25
100
AcDbLine
 10
1345.5364400632
 20
120.6199598236
 30
0.0
 11
1345.4312373777
 21
118.6144384457
 31
0.0
  0
LINE
  5
152
330
1F
100
AcDbEntity
  8
0
  6
Continuous
 62
     7
370
    25
100
AcDbLine
 10
1366.4165964419
 20
120.6199604321
 30
0.0
 11
1365.9195055072
 21
118.3639443309
 31
0.0
  0
LINE
  5
153
330
1F
100
AcDbEntity
  8
0
  6
Continuous
 62
     7
370
    25
100
AcDbLine
 10
1369.5873872912
 20
118.6144384457
 30
0.0
 11
1369.4821846057
 21
120.6199598236
 31
0.0
  0
LINE
  5
154
330
1F
100
AcDbEntity
  8
0
  6
Continuous
 62
     7
370
    25
100
AcDbLine
 10
1383.3093123346
 20
64.6562008414
 30
0.0
 11
1383.3093123346
 21
64.870343684
 31
0.0
  0
LINE
  5
155
330
1F
100
AcDbEntity
  8
0
  6
Continuous
 62
     7
370
    25
100
AcDbLine
 10
1383.3093123346
 20
64.6562008414
 30
0.0
 11
1383.1432869308
 21
64.6562008414
 31
0.0
  0
LINE
  5
156
330
1F
100
AcDbEntity
  8
0
  6
Continuous
 62
     7
370
    25
100
AcDbLine
 10
790.875337738
 20
64.6562008414
 30
0.0
 11
790.3093123346
 21
64.6562008414
 31
0.0
  0
LINE
  5
157
330
1F
100
AcDbEntity
  8
0
  6
Continuous
 62
     7
370
    25
100
AcDbLine
 10
790.3093123346
 20
64.6562008414
 30
0.0
 11
790.3093123346
 21
65.0391130774
 31
0.0
  0
LINE
  5
158
330
1F
100
AcDbEntity
  8
0
  6
Continuous
 62
     7
370
    25
100
AcDbLine
 10
1383.5093123345
 20
118.3639443309
 30
0.0
 11
790.5093123345
 21
118.3639443309
 31
0.0
  0
SPLINE
  5
159
330
1F
100
AcDbEntity
  8
0
  6
Continuous
 62
     7
370
    25
100
AcDbSpline
210
0.0
220
0.0
230
1.0
 70
     8
 71
     3
 72
    12
 73
     8
 74
     0
 42
0.00000001
 43
0.00000001
 40
0.0
 40
0.0
 40
0.0
 40
0.0
 40
0.2894438682552393
 40
0.4835518891708993
 40
0.6056036137324552
 40
0.776893551187158
 40
0.9999999999999999
 40
0.9999999999999999
 40
0.9999999999999999
 40
0.9999999999999999
 10
1384.009312334454
 20
118.2015407731641
 30
0.0
 10
1383.929046768823
 20
118.214402358412
 30
0.0
 10
1383.79495318401
 20
118.2358892321254
 30
0.0
 10
1383.643879206483
 20
118.2805305696938
 30
0.0
 10
1383.585634554922
 20
118.3228786844838
 30
0.0
 10
1383.543011393829
 20
118.3557076571164
 30
0.0
 10
1383.521487950563
 20
118.3609683850071
 30
0.0
 10
1383.509312334455
 20
118.3639443309303
 30
0.0
  0
LINE
  5
15A
330
1F
100
AcDbEntity
  8
0
  6
Continuous
 62
     7
370
    25
100
AcDbLine
 10
1384.0093123345
 20
117.1639443309
 30
0.0
 11
1384.0093123345
 21
118.2015407732
 31
0.0
  0
LINE
  5
15B
330
1F
100
AcDbEntity
  8
0
  6
Continuous
 62
     7
370
    25
100
AcDbLine
 10
1384.0093123345
 20
117.1639443309
 30
0.0
 11
790.0093123345
 21
117.1639443309
 31
0.0
  0
LINE
  5
15C
330
1F
100
AcDbEntity
  8
0
  6
Continuous
 62
     7
370
    25
100
AcDbLine
 10
790.0093123345
 20
118.2015407733
 30
0.0
 11
790.0093123345
 21
117.1639443309
 31
0.0
  0
SPLINE
  5
15D
330
1F
100
AcDbEntity
  8
0
  6
Continuous
 62
     7
370
    25
100
AcDbSpline
210
0.0
220
0.0
230
1.0
 70
     8
 71
     3
 72
    16
 73
    12
 74
     0
 42
0.00000001
 43
0.00000001
 40
0.0
 40
0.0
 40
0.0
 40
0.0
 40
0.1127592865114077
 40
0.2129750654446607
 40
0.3009530612919621
 40
0.3771479316422485
 40
0.4422631126062937
 40
0.4974289875348956
 40
0.6169133272662618
 40
0.7833786535497709
 40
1.0
 40
1.0
 40
1.0
 40
1.0
 10
790.5093123344542
 20
118.3639443309303
 30
0.0
 10
790.5050204753004
 20
118.3631833174716
 30
0.0
 10
790.4969141896677
 20
118.3617459468018
 30
0.0
 10
790.4804557794724
 20
118.3512636247735
 30
0.0
 10
790.4615869436798
 20
118.3376473181899
 30
0.0
 10
790.4399843179498
 20
118.3224703319555
 30
0.0
 10
790.4158352186395
 20
118.3076137246272
 30
0.0
 10
790.3765855323572
 20
118.2887806598364
 30
0.0
 10
790.2971214839878
 20
118.2656658245672
 30
0.0
 10
790.1698780428513
 20
118.2352948962662
 30
0.0
 10
790.0673104916141
 20
118.2137331457872
 30
0.0
 10
790.0093123344543
 20
118.2015407732694
 30
0.0
  0
LINE
  5
15E
330
1F
100
AcDbEntity
  8
0
  6
Continuous
 62
     7
370
    25
100
AcDbLine
 10
1384.0093123345
 20
92.6562008414
 30
0.0
 11
790.0093123345
 21
92.6562008414
 31
0.0
  0
LINE
  5
15F
330
1F
100
AcDbEntity
  8
0
  6
Continuous
 62
     7
370
    25
100
AcDbLine
 10
1384.0093123345
 20
117.1639443309
 30
0.0
 11
1384.0093123345
 21
92.6562008414
 31
0.0
  0
LINE
  5
160
330
1F
100
AcDbEntity
  8
0
  6
Continuous
 62
     7
370
    25
100
AcDbLine
 10
790.0093123345
 20
92.6562008414
 30
0.0
 11
790.0093123345
 21
117.1639443309
 31
0.0
  0
SPLINE
  5
161
330
1F
100
AcDbEntity
  8
0
  6
Continuous
 62
     7
370
    25
100
AcDbSpline
210
0.0
220
0.0
230
1.0
 70
     8
 71
     3
 72
    16
 73
    12
 74
     0
 42
0.00000001
 43
0.00000001
 40
0.0
 40
0.0
 40
0.0
 40
0.0
 40
0.1127592865461173
 40
0.2129750655000486
 40
0.3009530613540317
 40
0.3771479316971882
 40
0.4422631126411502
 40
0.4974289875385912
 40
0.6169133273316267
 40
0.7833786536151208
 40
1.0
 40
1.0
 40
1.0
 40
1.0
 10
1384.009312334461
 20
118.3639443309303
 30
0.0
 10
1384.041866435472
 20
118.3631833174711
 30
0.0
 10
1384.103353271789
 20
118.3617459468006
 30
0.0
 10
1384.188927243669
 20
118.3512636247673
 30
0.0
 10
1384.262375065784
 20
118.3376473181796
 30
0.0
 10
1384.3238097282
 20
118.3224703319445
 30
0.0
 10
1384.373647835185
 20
118.3076137246192
 30
0.0
 10
1384.428816098185
 20
118.2887806598324
 30
0.0
 10
1384.486517820297
 20
118.265665824567
 30
0.0
 10
1384.551888078369
 20
118.2352948962626
 30
0.0
 10
1384.590372310118
 20
118.2137331457873
 30
0.0
 10
1384.612133719978
 20
118.2015407732732
 30
0.0
  0
LINE
  5
162
330
1F
100
AcDbEntity
  8
0
  6
Continuous
 62
     7
370
    25
100
AcDbLine
 10
1384.3609581427
 20
117.7692089223
 30
0.0
 11
1384.61213372
 21
118.2015407733
 31
0.0
  0
SPLINE
  5
163
330
1F
100
AcDbEntity
  8
0
  6
Continuous
 62
     7
370
    25
100
AcDbSpline
210
0.0
220
0.0
230
1.0
 70
     8
 71
     3
 72
    14
 73
    10
 74
     0
 42
0.00000001
 43
0.00000001
 40
0.0
 40
0.0
 40
0.0
 40
0.0
 40
0.25
 40
0.25
 40
0.375
 40
0.375
 40
0.5
 40
0.5
 40
1.0
 40
1.0
 40
1.0
 40
1.0
 10
1384.009312334461
 20
117.8639443309303
 30
0.0
 10
1384.069640609058
 20
117.8639443309303
 30
0.0
 10
1384.119467333326
 20
117.8563804334984
 30
0.0
 10
1384.178121937662
 20
117.8435793711143
 30
0.0
 10
1384.195016062615
 20
117.8390278575007
 30
0.0
 10
1384.223678205786
 20
117.8304808383383
 30
0.0
 10
1384.235726849956
 20
117.8263857933402
 30
0.0
 10
1384.280945583385
 20
117.8102344834348
 30
0.0
 10
1384.320225396748
 20
117.7928737782431
 30
0.0
 10
1384.360958142679
 20
117.769208922297
 30
0.0
  0
LINE
  5
164
330
1F
100
AcDbEntity
  8
0
  6
Continuous
 62
     7
370
    25
100
AcDbLine
 10
1385.2093123345
 20
117.1639443309
 30
0.0
 11
1384.7093123345
 21
117.1639443309
 31
0.0
  0
ARC
  5
165
330
1F
100
AcDbEntity
  8
0
  6
Continuous
 62
     7
370
    25
100
AcDbCircle
 10
1384.0093123345
 20
117.1639443309
 30
0.0
 40
1.200000000000045
100
AcDbArc
 50
0.0
 51
59.8443265724
  0
ARC
  5
166
330
1F
100
AcDbEntity
  8
0
  6
Continuous
 62
     7
370
    25
100
AcDbCircle
 10
1384.0093123345
 20
117.1639443309
 30
0.0
 40
0.6999999999999569
100
AcDbArc
 50
0.0
 51
59.8443265724
  0
LINE
  5
167
330
1F
100
AcDbEntity
  8
0
  6
Continuous
 62
     7
370
    25
100
AcDbLine
 10
790.5093123345
 20
118.3639443309
 30
0.0
 11
790.0093123346
 21
118.3639443309
 31
0.0
  0
ARC
  5
168
330
1F
100
AcDbEntity
  8
0
  6
Continuous
 62
     7
370
    25
100
AcDbCircle
 10
790.0093123346
 20
117.1639443309
 30
0.0
 40
1.200000000000045
100
AcDbArc
 50
120.1556734378
 51
180.0
  0
LINE
  5
169
330
1F
100
AcDbEntity
  8
0
  6
Continuous
 62
     7
370
    25
100
AcDbLine
 10
789.6576665263
 20
117.7692089222
 30
0.0
 11
789.4064909489
 21
118.2015407732
 31
0.0
  0
ARC
  5
16A
330
1F
100
AcDbEntity
  8
0
  6
Continuous
 62
     7
370
    25
100
AcDbCircle
 10
790.0093123346
 20
117.1639443309
 30
0.0
 40
0.7000000000000455
100
AcDbArc
 50
120.1556734378
 51
180.0
  0
LINE
  5
16B
330
1F
100
AcDbEntity
  8
0
  6
Continuous
 62
     7
370
    25
100
AcDbLine
 10
789.3093123346
 20
117.1639443309
 30
0.0
 11
788.8093123346
 21
117.1639443309
 31
0.0
  0
SPLINE
  5
16C
330
1F
100
AcDbEntity
  8
0
  6
Continuous
 62
     7
370
    25
100
AcDbSpline
210
0.0
220
0.0
230
1.0
 70
     8
 71
     3
 72
    12
 73
     8
 74
     0
 42
0.00000001
 43
0.00000001
 40
0.0
 40
0.0
 40
0.0
 40
0.0
 40
0.2894438682020543
 40
0.483551889167647
 40
0.6056036136661916
 40
0.7768935511209888
 40
1.0
 40
1.0
 40
1.0
 40
1.0
 10
789.4064909489151
 20
118.2015407731655
 30
0.0
 10
789.4291961869095
 20
118.214402358413
 30
0.0
 10
789.467128103707
 20
118.2358892321297
 30
0.0
 10
789.5643903480316
 20
118.2805305696851
 30
0.0
 10
789.6903637250276
 20
118.3228786844716
 30
0.0
 10
789.8316145779289
 20
118.3557076571128
 30
0.0
 10
789.9451093654851
 20
118.3609683850055
 30
0.0
 10
790.0093123346181
 20
118.3639443309303
 30
0.0
  0
SPLINE
  5
16D
330
1F
100
AcDbEntity
  8
0
  6
Continuous
 62
     7
370
    25
100
AcDbSpline
210
0.0
220
0.0
230
1.0
 70
     8
 71
     3
 72
    18
 73
    14
 74
     0
 42
0.00000001
 43
0.00000001
 40
0.0
 40
0.0
 40
0.0
 40
0.0
 40
0.25
 40
0.25
 40
0.375
 40
0.375
 40
0.4375
 40
0.4375
 40
0.5
 40
0.5
 40
0.75
 40
0.75
 40
1.0
 40
1.0
 40
1.0
 40
1.0
 10
789.6576665262913
 20
117.7692089222342
 30
0.0
 10
789.6721451875384
 20
117.7776207153753
 30
0.0
 10
789.6881235630696
 20
117.7862131361913
 30
0.0
 10
789.7144944714696
 20
117.7989070076374
 30
0.0
 10
789.7236850147107
 20
117.8031048585321
 30
0.0
 10
789.7380861629322
 20
117.8092842803159
 30
0.0
 10
789.742989064345
 20
117.8113244653672
 30
0.0
 10
789.7530018960769
 20
117.8153536353214
 30
0.0
 10
789.7584353063834
 20
117.8174640370182
 30
0.0
 10
789.7828891422047
 20
117.8266427318591
 30
0.0
 10
789.8126179375771
 20
117.8370463044312
 30
0.0
 10
789.894299162156
 20
117.8557007351062
 30
0.0
 10
789.9463408091685
 20
117.8639443309303
 30
0.0
 10
790.0093123346181
 20
117.8639443309303
 30
0.0
  0
LINE
  5
16E
330
1F
100
AcDbEntity
  8
0
  6
Continuous
 62
     7
370
    25
100
AcDbLine
 10
1384.0093123345
 20
118.3639443309
 30
0.0
 11
1383.5093123345
 21
118.3639443309
 31
0.0
  0
LINE
  5
16F
330
1F
100
AcDbEntity
  8
0
  6
Continuous
 62
     7
370
    25
100
AcDbLine
 10
1385.2093123345
 20
65.3562008414
 30
0.0
 11
1385.2093123345
 21
117.1639443309
 31
0.0
  0
LINE
  5
170
330
1F
100
AcDbEntity
  8
0
  6
Continuous
 62
     7
370
    25
100
AcDbLine
 10
1384.7093123345
 20
65.3562008414
 30
0.0
 11
1385.2093123345
 21
65.3562008414
 31
0.0
  0
LINE
  5
171
330
1F
100
AcDbEntity
  8
0
  6
Continuous
 62
     7
370
    25
100
AcDbLine
 10
1384.7093123345
 20
65.3562008414
 30
0.0
 11
1384.7093123345
 21
117.1639443309
 31
0.0
  0
ARC
  5
172
330
1F
100
AcDbEntity
  8
0
  6
Continuous
 62
     7
370
    25
100
AcDbCircle
 10
1384.0093123345
 20
65.3562008414
 30
0.0
 40
1.200000000000045
100
AcDbArc
 50
317.7820572009
 51
360.0
  0
LINE
  5
173
330
1F
100
AcDbEntity
  8
0
  6
Continuous
 62
     7
370
    25
100
AcDbLine
 10
1384.5277282768
 20
64.8858340582
 30
0.0
 11
1384.8980253785
 21
64.5498577845
 31
0.0
  0
ARC
  5
174
330
1F
100
AcDbEntity
  8
0
  6
Continuous
 62
     7
370
    25
100
AcDbCircle
 10
1384.0093123345
 20
65.3562008414
 30
0.0
 40
0.7000000000000645
100
AcDbArc
 50
317.7820572009
 51
360.0
  0
LINE
  5
175
330
1F
100
AcDbEntity
  8
0
  6
Continuous
 62
     7
370
    25
100
AcDbLine
 10
789.3093123346
 20
65.3562008412
 30
0.0
 11
788.8093123346
 21
65.3562008412
 31
0.0
  0
ARC
  5
176
330
1F
100
AcDbEntity
  8
0
  6
Continuous
 62
     7
370
    25
100
AcDbCircle
 10
790.0093123346
 20
65.3562008412
 30
0.0
 40
1.199999999999962
100
AcDbArc
 50
180.0
 51
222.2179427991
  0
LINE
  5
177
330
1F
100
AcDbEntity
  8
0
  6
Continuous
 62
     7
370
    25
100
AcDbLine
 10
789.4908963923
 20
64.885834058
 30
0.0
 11
789.1205992906
 21
64.5498577843
 31
0.0
  0
ARC
  5
178
330
1F
100
AcDbEntity
  8
0
  6
Continuous
 62
     7
370
    25
100
AcDbCircle
 10
790.0093123346
 20
65.3562008412
 30
0.0
 40
0.6999999999999421
100
AcDbArc
 50
180.0
 51
222.2179427991
  0
LINE
  5
179
330
1F
100
AcDbEntity
  8
0
  6
Continuous
 62
     7
370
    25
100
AcDbLine
 10
788.8093123346
 20
117.1639443309
 30
0.0
 11
788.8093123346
 21
65.3562008412
 31
0.0
  0
LINE
  5
17A
330
1F
100
AcDbEntity
  8
0
  6
Continuous
 62
     7
370
    25
100
AcDbLine
 10
789.3093123346
 20
117.1639443309
 30
0.0
 11
789.3093123346
 21
65.3562008412
 31
0.0
  0
LINE
  5
17B
330
1F
100
AcDbEntity
  8
0
  6
Continuous
 62
     7
370
    25
100
AcDbLine
 10
1384.0093123345
 20
64.6562008414
 30
0.0
 11
1384.0093123345
 21
64.1562008414
 31
0.0
  0
SPLINE
  5
17C
330
1F
100
AcDbEntity
  8
0
  6
Continuous
 62
     7
370
    25
100
AcDbSpline
210
0.0
220
0.0
230
1.0
 70
     8
 71
     3
 72
    10
 73
     6
 74
     0
 42
0.00000001
 43
0.00000001
 40
0.0
 40
0.0
 40
0.0
 40
0.0
 40
0.5
 40
0.5
 40
1.0
 40
1.0
 40
1.0
 40
1.0
 10
1384.898025378452
 20
64.54985778447372
 30
0.0
 10
1384.785949845732
 20
64.42633345201256
 30
0.0
 10
1384.647810215459
 20
64.32657001351907
 30
0.0
 10
1384.342810679482
 20
64.19146995418538
 30
0.0
 10
1384.176103178767
 20
64.15620084139154
 30
0.0
 10
1384.00931233446
 20
64.15620084139154
 30
0.0
  0
SPLINE
  5
17D
330
1F
100
AcDbEntity
  8
0
  6
Continuous
 62
     7
370
    25
100
AcDbSpline
210
0.0
220
0.0
230
1.0
 70
     8
 71
     3
 72
    10
 73
     6
 74
     0
 42
0.00000001
 43
0.00000001
 40
0.0
 40
0.0
 40
0.0
 40
0.0
 40
0.5
 40
0.5
 40
1.0
 40
1.0
 40
1.0
 40
1.0
 10
1384.527728276789
 20
64.88583405818949
 30
0.0
 10
1384.462336140115
 20
64.81376194900723
 30
0.0
 10
1384.381769431709
 20
64.75558285846594
 30
0.0
 10
1384.203853035723
 20
64.67677449052127
 30
0.0
 10
1384.106628933562
 20
64.65620084139154
 30
0.0
 10
1384.00931233446
 20
64.65620084139154
 30
0.0
  0
LINE
  5
17E
330
1F
100
AcDbEntity
  8
0
  6
Continuous
 62
     7
370
    25
100
AcDbLine
 10
790.0093123346
 20
64.6562008412
 30
0.0
 11
790.0093123346
 21
64.1562008412
 31
0.0
  0
SPLINE
  5
17F
330
1F
100
AcDbEntity
  8
0
  6
Continuous
 62
     7
370
    25
100
AcDbSpline
210
0.0
220
0.0
230
1.0
 70
     8
 71
     3
 72
    10
 73
     6
 74
     0
 42
0.00000001
 43
0.00000001
 40
0.0
 40
0.0
 40
0.0
 40
0.0
 40
0.5
 40
0.5
 40
1.0
 40
1.0
 40
1.0
 40
1.0
 10
790.0093123346181
 20
64.15620084122178
 30
0.0
 10
789.8425214903118
 20
64.15620084122178
 30
0.0
 10
789.6758139895963
 20
64.19146995401559
 30
0.0
 10
789.3708144536201
 20
64.32657001334931
 30
0.0
 10
789.2326748233467
 20
64.42633345184277
 30
0.0
 10
789.1205992906268
 20
64.54985778430391
 30
0.0
  0
SPLINE
  5
180
330
1F
100
AcDbEntity
  8
0
  6
Continuous
 62
     7
370
    25
100
AcDbSpline
210
0.0
220
0.0
230
1.0
 70
     8
 71
     3
 72
    10
 73
     6
 74
     0
 42
0.00000001
 43
0.00000001
 40
0.0
 40
0.0
 40
0.0
 40
0.0
 40
0.5
 40
0.5
 40
1.0
 40
1.0
 40
1.0
 40
1.0
 10
790.0093123346181
 20
64.65620084122178
 30
0.0
 10
789.9119957355165
 20
64.65620084122178
 30
0.0
 10
789.8147716333555
 20
64.67677449035149
 30
0.0
 10
789.6368552373692
 20
64.75558285829615
 30
0.0
 10
789.5562885289637
 20
64.81376194883744
 30
0.0
 10
789.49089639229
 20
64.88583405801968
 30
0.0
  0
LINE
  5
181
330
1F
100
AcDbEntity
  8
0
  6
Continuous
 62
     7
370
    25
100
AcDbLine
 10
1383.0093123344
 20
64.1562008414
 30
0.0
 11
1384.0093123345
 21
64.1562008414
 31
0.0
  0
LINE
  5
182
330
1F
100
AcDbEntity
  8
0
  6
Continuous
 62
     7
370
    25
100
AcDbLine
 10
1383.3098173346
 20
64.6562008414
 30
0.0
 11
1384.0093123345
 21
64.6562008414
 31
0.0
  0
LINE
  5
183
330
1F
100
AcDbEntity
  8
0
  6
Continuous
 62
     7
370
    25
100
AcDbLine
 10
790.0093123346
 20
64.1562008412
 30
0.0
 11
791.0093123344
 21
64.1562008412
 31
0.0
  0
LINE
  5
184
330
1F
100
AcDbEntity
  8
0
  6
Continuous
 62
     7
370
    25
100
AcDbLine
 10
790.0093123346
 20
64.6562008412
 30
0.0
 11
790.3088073346
 21
64.6562008412
 31
0.0
  0
LINE
  5
185
330
1F
100
AcDbEntity
  8
0
  6
Continuous
 62
     7
370
    25
100
AcDbLine
 10
1383.2170558242
 20
63.1562008413
 30
0.0
 11
1383.2170558242
 21
63.6562008413
 31
0.0
  0
LINE
  5
186
330
1F
100
AcDbEntity
  8
0
  6
Continuous
 62
     7
370
    25
100
AcDbLine
 10
1383.0093123344
 20
63.1562008413
 30
0.0
 11
1383.2170558242
 21
63.1562008413
 31
0.0
  0
LINE
  5
187
330
1F
100
AcDbEntity
  8
0
  6
Continuous
 62
     7
370
    25
100
AcDbLine
 10
1383.0093123344
 20
63.6562008413
 30
0.0
 11
1383.2170558242
 21
63.6562008413
 31
0.0
  0
LINE
  5
188
330
1F
100
AcDbEntity
  8
0
  6
Continuous
 62
     7
370
    25
100
AcDbLine
 10
790.8015688451
 20
63.6562008413
 30
0.0
 11
790.8015688451
 21
63.1562008413
 31
0.0
  0
LINE
  5
189
330
1F
100
AcDbEntity
  8
0
  6
Continuous
 62
     7
370
    25
100
AcDbLine
 10
790.8015688451
 20
63.1562008413
 30
0.0
 11
791.0093123344
 21
63.1562008413
 31
0.0
  0
LINE
  5
18A
330
1F
100
AcDbEntity
  8
0
  6
Continuous
 62
     7
370
    25
100
AcDbLine
 10
790.8015688451
 20
63.6562008413
 30
0.0
 11
791.0093123344
 21
63.6562008413
 31
0.0
  0
SPLINE
  5
18B
330
1F
100
AcDbEntity
  8
0
  6
Continuous
 62
     7
370
    25
100
AcDbSpline
210
0.0
220
0.0
230
1.0
 70
     8
 71
     3
 72
    10
 73
     6
 74
     0
 42
0.00000001
 43
0.00000001
 40
0.0
 40
0.0
 40
0.0
 40
0.0
 40
0.5
 40
0.5
 40
1.0
 40
1.0
 40
1.0
 40
1.0
 10
790.8015688450736
 20
63.15620084132523
 30
0.0
 10
790.669526093331
 20
63.15620084132524
 30
0.0
 10
790.5374833415884
 20
63.19146995411902
 30
0.0
 10
790.2733978381034
 20
63.32657001345275
 30
0.0
 10
790.1413550863609
 20
63.42633345194622
 30
0.0
 10
790.0093123346184
 20
63.54985778440739
 30
0.0
  0
SPLINE
  5
18C
330
1F
100
AcDbEntity
  8
0
  6
Continuous
 62
     7
370
    25
100
AcDbSpline
210
0.0
220
0.0
230
1.0
 70
     8
 71
     3
 72
    10
 73
     6
 74
     0
 42
0.00000001
 43
0.00000001
 40
0.0
 40
0.0
 40
0.0
 40
0.0
 40
0.5
 40
0.5
 40
1.0
 40
1.0
 40
1.0
 40
1.0
 10
1384.009312334618
 20
63.54985778441111
 30
0.0
 10
1383.877269582875
 20
63.42633345194997
 30
0.0
 10
1383.745226831133
 20
63.32657001345648
 30
0.0
 10
1383.481141327647
 20
63.19146995412275
 30
0.0
 10
1383.349098575905
 20
63.15620084132892
 30
0.0
 10
1383.217055824163
 20
63.15620084132893
 30
0.0
  0
LINE
  5
18D
330
1F
100
AcDbEntity
  8
0
  6
Continuous
 62
     7
370
    25
100
AcDbLine
 10
790.0093123346
 20
63.8858340581
 30
0.0
 11
790.0093123346
 21
63.5498577844
 31
0.0
  0
SPLINE
  5
18E
330
1F
100
AcDbEntity
  8
0
  6
Continuous
 62
     7
370
    25
100
AcDbSpline
210
0.0
220
0.0
230
1.0
 70
     8
 71
     3
 72
    10
 73
     6
 74
     0
 42
0.00000001
 43
0.00000001
 40
0.0
 40
0.0
 40
0.0
 40
0.0
 40
0.5
 40
0.5
 40
1.0
 40
1.0
 40
1.0
 40
1.0
 10
790.8015688450736
 20
63.65620084132523
 30
0.0
 10
790.6695154562498
 20
63.65620084132523
 30
0.0
 10
790.5374833415884
 20
63.67677449045495
 30
0.0
 10
790.2733978381034
 20
63.75558285839961
 30
0.0
 10
790.1413657234422
 20
63.81377239285506
 30
0.0
 10
790.0093123346184
 20
63.88583405812314
 30
0.0
  0
LINE
  5
18F
330
1F
100
AcDbEntity
  8
0
  6
Continuous
 62
     7
370
    25
100
AcDbLine
 10
1384.0093123346
 20
64.1562008414
 30
0.0
 11
1384.0093123346
 21
63.8858340581
 31
0.0
  0
SPLINE
  5
190
330
1F
100
AcDbEntity
  8
0
  6
Continuous
 62
     7
370
    25
100
AcDbSpline
210
0.0
220
0.0
230
1.0
 70
     8
 71
     3
 72
    10
 73
     6
 74
     0
 42
0.00000001
 43
0.00000001
 40
0.0
 40
0.0
 40
0.0
 40
0.0
 40
0.5
 40
0.5
 40
1.0
 40
1.0
 40
1.0
 40
1.0
 10
1384.009312334618
 20
63.88583405812688
 30
0.0
 10
1383.877258945794
 20
63.81377239285879
 30
0.0
 10
1383.745226831133
 20
63.75558285840334
 30
0.0
 10
1383.481141327647
 20
63.67677449045866
 30
0.0
 10
1383.349109212986
 20
63.65620084132893
 30
0.0
 10
1383.217055824163
 20
63.65620084132893
 30
0.0
  0
LINE
  5
191
330
1F
100
AcDbEntity
  8
0
  6
Continuous
 62
     7
370
    25
100
AcDbLine
 10
790.0093123346
 20
63.8858340581
 30
0.0
 11
790.0093123346
 21
64.1562008412
 31
0.0
  0
LINE
  5
192
330
1F
100
AcDbEntity
  8
0
  6
Continuous
 62
     7
370
    25
100
AcDbLine
 10
789.3093123346
 20
117.1639443309
 30
0.0
 11
790.0093123346
 21
117.1639443309
 31
0.0
  0
LINE
  5
193
330
1F
100
AcDbEntity
  8
0
  6
Continuous
 62
     7
370
    25
100
AcDbLine
 10
1384.0093123345
 20
117.163944331
 30
0.0
 11
1384.7093123345
 21
117.1639443309
 31
0.0
  0
LINE
  5
194
330
1F
100
AcDbEntity
  8
0
  6
Continuous
 62
     7
370
    25
100
AcDbLine
 10
1384.0093123346
 20
63.8858340581
 30
0.0
 11
1384.0093123346
 21
63.5498577844
 31
0.0
  0
LINE
  5
195
330
1F
100
AcDbEntity
  8
0
  6
Continuous
 62
     7
370
    25
100
AcDbLine
 10
790.0093123346
 20
65.1562008413
 30
0.0
 11
790.0093123346
 21
64.6562008412
 31
0.0
  0
LINE
  5
196
330
1F
100
AcDbEntity
  8
0
  6
Continuous
 62
     7
370
    25
100
AcDbLine
 10
1384.0093123346
 20
64.6562008414
 30
0.0
 11
1384.0093123346
 21
65.1562008413
 31
0.0
  0
LINE
  5
197
330
1F
100
AcDbEntity
  8
0
  6
Continuous
 62
     7
370
    25
100
AcDbLine
 10
789.8093123344
 20
101.6562008413
 30
0.0
 11
789.3093123344
 21
101.6562008413
 31
0.0
  0
LINE
  5
198
330
1F
100
AcDbEntity
  8
0
  6
Continuous
 62
     7
370
    25
100
AcDbLine
 10
789.8093123344
 20
98.156200841
 30
0.0
 11
789.8093123344
 21
101.6562008413
 31
0.0
  0
LINE
  5
199
330
1F
100
AcDbEntity
  8
0
  6
Continuous
 62
     7
370
    25
100
AcDbLine
 10
1384.2093123344
 20
101.6562008413
 30
0.0
 11
1384.7093123344
 21
101.6562008413
 31
0.0
  0
LINE
  5
19A
330
1F
100
AcDbEntity
  8
0
  6
Continuous
 62
     7
370
    25
100
AcDbLine
 10
1384.2093123344
 20
101.6562008413
 30
0.0
 11
1384.2093123344
 21
98.156200841
 31
0.0
  0
ARC
  5
19B
330
1F
100
AcDbEntity
  8
0
  6
Continuous
 62
     7
370
    25
100
AcDbCircle
 10
1384.0093123344
 20
64.156200841
 30
0.0
 40
1.0
100
AcDbArc
 50
134.4270040008
 51
180.0
  0
LINE
  5
19C
330
1F
100
AcDbEntity
  8
0
  6
Continuous
 62
     7
370
    25
100
AcDbLine
 10
1383.0093123344
 20
64.156200841
 30
0.0
 11
791.0093123344
 21
64.156200841
 31
0.0
  0
ARC
  5
19D
330
1F
100
AcDbEntity
  8
0
  6
Continuous
 62
     7
370
    25
100
AcDbCircle
 10
790.0093123344
 20
64.156200841
 30
0.0
 40
1.000000000000114
100
AcDbArc
 50
360.0
 51
45.5729959992
  0
LINE
  5
19E
330
1F
100
AcDbEntity
  8
0
  6
Continuous
 62
     7
370
    25
100
AcDbLine
 10
1384.7093123344
 20
98.156200841
 30
0.0
 11
1384.1750300587
 21
98.156200841
 31
0.0
  0
LINE
  5
19F
330
1F
100
AcDbEntity
  8
0
  6
Continuous
 62
     7
370
    25
100
AcDbLine
 10
1384.1750300587
 20
65.156200841
 30
0.0
 11
1384.6801327276
 21
65.156200841
 31
0.0
  0
SPLINE
  5
1A0
330
1F
100
AcDbEntity
  8
0
  6
Continuous
 62
     7
370
    25
100
AcDbSpline
210
0.0
220
0.0
230
1.0
 70
     8
 71
     3
 72
    10
 73
     6
 74
     0
 42
0.00000001
 43
0.00000001
 40
0.0
 40
0.0
 40
0.0
 40
0.0
 40
0.4381166290512222
 40
0.7023419029162599
 40
1.0
 40
1.0
 40
1.0
 40
1.0
 10
1383.309312334409
 20
64.8703436838913
 30
0.0
 10
1383.437417825344
 20
64.9370586030731
 30
0.0
 10
1383.6427829001
 20
65.04400885372331
 30
0.0
 10
1383.945618524114
 20
65.11748771401476
 30
0.0
 10
1384.095585141416
 20
65.14279453529123
 30
0.0
 10
1384.175030058706
 20
65.15620084103699
 30
0.0
  0
SPLINE
  5
1A1
330
1F
100
AcDbEntity
  8
0
  6
Continuous
 62
     7
370
    25
100
AcDbSpline
210
0.0
220
0.0
230
1.0
 70
     8
 71
     3
 72
    10
 73
     6
 74
     0
 42
0.00000001
 43
0.00000001
 40
0.0
 40
0.0
 40
0.0
 40
0.0
 40
0.2072247245297639
 40
0.4412860670314508
 40
1.0
 40
1.0
 40
1.0
 40
1.0
 10
789.8435946101109
 20
65.15620084104114
 30
0.0
 10
789.8985356590933
 20
65.15095743492162
 30
0.0
 10
790.0155328923094
 20
65.13979157587859
 30
0.0
 10
790.3056580832775
 20
65.057163859585
 30
0.0
 10
790.5424391897318
 20
64.94757629105621
 30
0.0
 10
790.7093123344085
 20
64.87034368389544
 30
0.0
  0
LINE
  5
1A2
330
1F
100
AcDbEntity
  8
0
  6
Continuous
 62
     7
370
    25
100
AcDbLine
 10
789.3384919414
 20
65.156200841
 30
0.0
 11
789.8435946101
 21
65.156200841
 31
0.0
  0
LINE
  5
1A3
330
1F
100
AcDbEntity
  8
0
  6
Continuous
 62
     7
370
    25
100
AcDbLine
 10
789.8435946101
 20
98.156200841
 30
0.0
 11
789.3093123344
 21
98.156200841
 31
0.0
  0
LINE
  5
1A4
330
1F
100
AcDbEntity
  8
0
  6
Continuous
 62
     7
370
    25
100
AcDbLine
 10
1383.0087653013
 20
62.756200841
 30
0.0
 11
1383.0093123344
 21
62.7568952389
 31
0.0
  0
LINE
  5
1A5
330
1F
100
AcDbEntity
  8
0
  6
Continuous
 62
     7
370
    25
100
AcDbLine
 10
1383.0087653013
 20
62.756200841
 30
0.0
 11
791.0098593675
 21
62.756200841
 31
0.0
  0
LINE
  5
1A6
330
1F
100
AcDbEntity
  8
0
  6
Continuous
 62
     7
370
    25
100
AcDbLine
 10
791.0093123344
 20
62.7568952389
 30
0.0
 11
791.0098593675
 21
62.756200841
 31
0.0
  0
LINE
  5
1A7
330
1F
100
AcDbEntity
  8
0
  6
Continuous
 62
     7
370
    25
100
AcDbLine
 10
791.0093123344
 20
64.156200841
 30
0.0
 11
791.0093123344
 21
62.7568952389
 31
0.0
  0
LINE
  5
1A8
330
1F
100
AcDbEntity
  8
0
  6
Continuous
 62
     7
370
    25
100
AcDbLine
 10
1383.0093123344
 20
62.7568952389
 30
0.0
 11
1383.0093123344
 21
64.156200841
 31
0.0
  0
LINE
  5
1A9
330
1F
100
AcDbEntity
  8
0
  6
Continuous
 62
     7
370
    25
100
AcDbLine
 10
1350.0093123345
 20
118.3639443309
 30
0.0
 11
1350.0093123345
 21
119.8639443309
 31
0.0
  0
LINE
  5
1AA
330
1F
100
AcDbEntity
  8
0
  6
Continuous
 62
     7
370
    25
100
AcDbLine
 10
1350.0093123345
 20
119.8639443309
 30
0.0
 11
1365.0093123345
 21
119.8639443309
 31
0.0
  0
LINE
  5
1AB
330
1F
100
AcDbEntity
  8
0
  6
Continuous
 62
     7
370
    25
100
AcDbLine
 10
1365.0093123345
 20
118.3639443309
 30
0.0
 11
1365.0093123345
 21
119.8639443309
 31
0.0
  0
SPLINE
  5
1AC
330
1F
100
AcDbEntity
  8
0
  6
Continuous
 62
     7
370
    25
100
AcDbSpline
210
0.0
220
0.0
230
1.0
 70
     8
 71
     3
 72
     9
 73
     5
 74
     0
 42
0.00000001
 43
0.00000001
 40
0.0
 40
0.0
 40
0.0
 40
0.0
 40
0.5599999999999908
 40
1.0
 40
1.0
 40
1.0
 40
1.0
 10
1346.868807364062
 20
121.8145801842967
 30
0.0
 10
1346.801478135935
 20
121.8111495423217
 30
0.0
 10
1346.681247371424
 20
121.8050233959378
 30
0.0
 10
1346.567124615341
 20
121.7672426502272
 30
0.0
 10
1346.516910602664
 20
121.7506191221146
 30
0.0
  0
SPLINE
  5
1AD
330
1F
100
AcDbEntity
  8
0
  6
Continuous
 62
     7
370
    25
100
AcDbSpline
210
0.0
220
0.0
230
1.0
 70
    24
 71
     3
 72
    11
 73
     7
 74
     0
 42
0.00000001
 43
0.00000001
 40
0.0
 40
0.0
 40
0.0
 40
0.0
 40
0.2702613318128801
 40
0.5624293896420843
 40
0.7897364218595203
 40
1.0
 40
1.0
 40
1.0
 40
1.0
 10
1346.868807364062
 20
121.8145801842967
 30
0.0
 10
1346.868807364062
 20
121.7966769431279
 30
0.0
 10
1346.868807364062
 20
121.7594192676193
 30
0.0
 10
1346.868807364062
 20
121.4882726871247
 30
0.0
 10
1346.868807364062
 20
121.1514919227714
 30
0.0
 10
1346.868807364062
 20
120.9226249484946
 30
0.0
 10
1346.868807364062
 20
120.8126486662889
 30
0.0
  0
SPLINE
  5
1AE
330
1F
100
AcDbEntity
  8
0
  6
Continuous
 62
     7
370
    25
100
AcDbSpline
210
0.0
220
0.0
230
1.0
 70
     8
 71
     3
 72
    11
 73
     7
 74
     0
 42
0.00000001
 43
0.00000001
 40
0.0
 40
0.0
 40
0.0
 40
0.0
 40
0.2702613318128849
 40
0.5624293896420925
 40
0.7897364218595436
 40
1.0
 40
1.0
 40
1.0
 40
1.0
 10
1346.868807364062
 20
120.8126486662889
 30
0.0
 10
1346.818941618675
 20
120.9453244547874
 30
0.0
 10
1346.715168131903
 20
121.2214304084026
 30
0.0
 10
1346.597134121524
 20
121.535921064921
 30
0.0
 10
1346.528434279044
 20
121.7193114213223
 30
0.0
 10
1346.520650771788
 20
121.7404577732558
 30
0.0
 10
1346.516910602664
 20
121.7506191221146
 30
0.0
  0
SPLINE
  5
1AF
330
1F
100
AcDbEntity
  8
0
  6
Continuous
 62
     7
370
    25
100
AcDbSpline
210
0.0
220
0.0
230
1.0
 70
    24
 71
     3
 72
    11
 73
     7
 74
     0
 42
0.00000001
 43
0.00000001
 40
0.0
 40
0.0
 40
0.0
 40
0.0
 40
0.2702613318128801
 40
0.5624293896420843
 40
0.7897364218595203
 40
1.0
 40
1.0
 40
1.0
 40
1.0
 10
1368.149817304844
 20
121.8145801842967
 30
0.0
 10
1368.149817304844
 20
121.7966769431279
 30
0.0
 10
1368.149817304844
 20
121.7594192676193
 30
0.0
 10
1368.149817304844
 20
121.4882726871247
 30
0.0
 10
1368.149817304844
 20
121.1514919227714
 30
0.0
 10
1368.149817304844
 20
120.9226249484946
 30
0.0
 10
1368.149817304844
 20
120.8126486662889
 30
0.0
  0
SPLINE
  5
1B0
330
1F
100
AcDbEntity
  8
0
  6
Continuous
 62
     7
370
    25
100
AcDbSpline
210
0.0
220
0.0
230
1.0
 70
     8
 71
     3
 72
     9
 73
     5
 74
     0
 42
0.00000001
 43
0.00000001
 40
0.0
 40
0.0
 40
0.0
 40
0.0
 40
0.5599999999999908
 40
1.0
 40
1.0
 40
1.0
 40
1.0
 10
1368.149817304844
 20
121.8145801842967
 30
0.0
 10
1368.217146532971
 20
121.8111495423217
 30
0.0
 10
1368.337377297483
 20
121.8050233959378
 30
0.0
 10
1368.451500053565
 20
121.7672426502272
 30
0.0
 10
1368.501714066242
 20
121.7506191221146
 30
0.0
  0
SPLINE
  5
1B1
330
1F
100
AcDbEntity
  8
0
  6
Continuous
 62
     7
370
    25
100
AcDbSpline
210
0.0
220
0.0
230
1.0
 70
     8
 71
     3
 72
    11
 73
     7
 74
     0
 42
0.00000001
 43
0.00000001
 40
0.0
 40
0.0
 40
0.0
 40
0.0
 40
0.2702613318128849
 40
0.5624293896420925
 40
0.7897364218595436
 40
1.0
 40
1.0
 40
1.0
 40
1.0
 10
1368.149817304844
 20
120.8126486662889
 30
0.0
 10
1368.199683050231
 20
120.9453244547874
 30
0.0
 10
1368.303456537003
 20
121.2214304084026
 30
0.0
 10
1368.421490547382
 20
121.535921064921
 30
0.0
 10
1368.490190389862
 20
121.7193114213223
 30
0.0
 10
1368.497973897119
 20
121.7404577732558
 30
0.0
 10
1368.501714066242
 20
121.7506191221146
 30
0.0
  0
SPLINE
  5
1B2
330
1F
100
AcDbEntity
  8
0
  6
Continuous
 62
     7
370
    25
100
AcDbSpline
210
0.0
220
0.0
230
1.0
 70
     8
 71
     3
 72
     9
 73
     5
 74
     0
 42
0.00000001
 43
0.00000001
 40
0.0
 40
0.0
 40
0.0
 40
0.0
 40
0.5600000000000099
 40
1.0
 40
1.0
 40
1.0
 40
1.0
 10
1347.621557771063
 20
121.7506191221146
 30
0.0
 10
1347.557327765875
 20
121.7711008010976
 30
0.0
 10
1347.44263132804
 20
121.8076752278531
 30
0.0
 10
1347.322513051391
 20
121.8124703364945
 30
0.0
 10
1347.269661009665
 20
121.8145801842967
 30
0.0
  0
SPLINE
  5
1B3
330
1F
100
AcDbEntity
  8
0
  6
Continuous
 62
     7
370
    25
100
AcDbSpline
210
0.0
220
0.0
230
1.0
 70
     8
 71
     3
 72
    11
 73
     7
 74
     0
 42
0.00000001
 43
0.00000001
 40
0.0
 40
0.0
 40
0.0
 40
0.0
 40
0.2702613318128772
 40
0.56242938964209
 40
0.7897364218595245
 40
1.0
 40
1.0
 40
1.0
 40
1.0
 10
1347.621557771063
 20
121.7506191221146
 30
0.0
 10
1347.615354076667
 20
121.7338434698485
 30
0.0
 10
1347.602443831499
 20
121.6989323717584
 30
0.0
 10
1347.507256255476
 20
121.4450871680792
 30
0.0
 10
1347.38887679733
 20
121.1298231572572
 30
0.0
 10
1347.308354148327
 20
120.9155920498736
 30
0.0
 10
1347.269661009665
 20
120.8126486662889
 30
0.0
  0
SPLINE
  5
1B4
330
1F
100
AcDbEntity
  8
0
  6
Continuous
 62
     7
370
    25
100
AcDbSpline
210
0.0
220
0.0
230
1.0
 70
    24
 71
     3
 72
    11
 73
     7
 74
     0
 42
0.00000001
 43
0.00000001
 40
0.0
 40
0.0
 40
0.0
 40
0.0
 40
0.2702613318128869
 40
0.562429389642073
 40
0.7897364218595277
 40
1.0
 40
1.0
 40
1.0
 40
1.0
 10
1347.269661009665
 20
120.8126486662889
 30
0.0
 10
1347.269661009665
 20
120.9543880961484
 30
0.0
 10
1347.269661009665
 20
121.2493560092028
 30
0.0
 10
1347.269661009665
 20
121.5853006303655
 30
0.0
 10
1347.269661009665
 20
121.7811779300375
 30
0.0
 10
1347.269661009665
 20
121.8037390190368
 30
0.0
 10
1347.269661009665
 20
121.8145801842967
 30
0.0
  0
SPLINE
  5
1B5
330
1F
100
AcDbEntity
  8
0
  6
Continuous
 62
     7
370
    25
100
AcDbSpline
210
0.0
220
0.0
230
1.0
 70
     8
 71
     3
 72
    11
 73
     7
 74
     0
 42
0.00000001
 43
0.00000001
 40
0.0
 40
0.0
 40
0.0
 40
0.0
 40
0.2702613318128772
 40
0.56242938964209
 40
0.7897364218595245
 40
1.0
 40
1.0
 40
1.0
 40
1.0
 10
1367.397066897843
 20
121.7506191221146
 30
0.0
 10
1367.40327059224
 20
121.7338434698485
 30
0.0
 10
1367.416180837407
 20
121.6989323717584
 30
0.0
 10
1367.511368413431
 20
121.4450871680792
 30
0.0
 10
1367.629747871576
 20
121.1298231572572
 30
0.0
 10
1367.71027052058
 20
120.9155920498736
 30
0.0
 10
1367.748963659241
 20
120.8126486662889
 30
0.0
  0
SPLINE
  5
1B6
330
1F
100
AcDbEntity
  8
0
  6
Continuous
 62
     7
370
    25
100
AcDbSpline
210
0.0
220
0.0
230
1.0
 70
     8
 71
     3
 72
     9
 73
     5
 74
     0
 42
0.00000001
 43
0.00000001
 40
0.0
 40
0.0
 40
0.0
 40
0.0
 40
0.5600000000000099
 40
1.0
 40
1.0
 40
1.0
 40
1.0
 10
1367.397066897843
 20
121.7506191221146
 30
0.0
 10
1367.461296903031
 20
121.7711008010976
 30
0.0
 10
1367.575993340866
 20
121.8076752278531
 30
0.0
 10
1367.696111617516
 20
121.8124703364945
 30
0.0
 10
1367.748963659241
 20
121.8145801842967
 30
0.0
  0
SPLINE
  5
1B7
330
1F
100
AcDbEntity
  8
0
  6
Continuous
 62
     7
370
    25
100
AcDbSpline
210
0.0
220
0.0
230
1.0
 70
    24
 71
     3
 72
    11
 73
     7
 74
     0
 42
0.00000001
 43
0.00000001
 40
0.0
 40
0.0
 40
0.0
 40
0.0
 40
0.2702613318128869
 40
0.562429389642073
 40
0.7897364218595277
 40
1.0
 40
1.0
 40
1.0
 40
1.0
 10
1367.748963659241
 20
120.8126486662889
 30
0.0
 10
1367.748963659241
 20
120.9543880961484
 30
0.0
 10
1367.748963659241
 20
121.2493560092028
 30
0.0
 10
1367.748963659241
 20
121.5853006303655
 30
0.0
 10
1367.748963659242
 20
121.7811779300375
 30
0.0
 10
1367.748963659241
 20
121.8037390190368
 30
0.0
 10
1367.748963659241
 20
121.8145801842967
 30
0.0
  0
LINE
  5
1B8
330
1F
100
AcDbEntity
  8
0
  6
Continuous
 62
     7
370
    25
100
AcDbLine
 10
1346.8688073641
 20
120.8126486663
 30
0.0
 11
1347.2696610097
 21
120.8126486663
 31
0.0
  0
LINE
  5
1B9
330
1F
100
AcDbEntity
  8
0
  6
Continuous
 62
     7
370
    25
100
AcDbLine
 10
1347.2696610097
 20
121.8145801843
 30
0.0
 11
1346.8688073641
 21
121.8145801843
 31
0.0
  0
LINE
  5
1BA
330
1F
100
AcDbEntity
  8
0
  6
Continuous
 62
     7
370
    25
100
AcDbLine
 10
1367.7489636592
 20
121.8145801843
 30
0.0
 11
1368.1498173048
 21
121.8145801843
 31
0.0
  0
LINE
  5
1BB
330
1F
100
AcDbEntity
  8
0
  6
Continuous
 62
     7
370
    25
100
AcDbLine
 10
1368.1498173048
 20
120.8126486663
 30
0.0
 11
1367.7489636592
 21
120.8126486663
 31
0.0
  0
SPLINE
  5
1BC
330
1F
100
AcDbEntity
  8
0
  6
Continuous
 62
     7
370
    25
100
AcDbSpline
210
0.0
220
0.0
230
1.0
 70
     8
 71
     3
 72
    10
 73
     6
 74
     0
 42
0.00000001
 43
0.00000001
 40
0.0
 40
0.0
 40
0.0
 40
0.0
 40
0.2768779234291534
 40
0.562403865620433
 40
1.0
 40
1.0
 40
1.0
 40
1.0
 10
1348.60202831563
 20
120.6191862729998
 30
0.0
 10
1348.55962116671
 20
120.7565537034342
 30
0.0
 10
1348.473482321883
 20
121.0355791054232
 30
0.0
 10
1348.159867922909
 20
121.4659401970903
 30
0.0
 10
1347.824503188239
 20
121.6432938506105
 30
0.0
 10
1347.621557771063
 20
121.7506191221146
 30
0.0
  0
SPLINE
  5
1BD
330
1F
100
AcDbEntity
  8
0
  6
Continuous
 62
     7
370
    25
100
AcDbSpline
210
0.0
220
0.0
230
1.0
 70
     8
 71
     3
 72
    11
 73
     7
 74
     0
 42
0.00000001
 43
0.00000001
 40
0.0
 40
0.0
 40
0.0
 40
0.0
 40
0.2702613318129095
 40
0.5624293896420925
 40
0.7897364218595448
 40
1.0
 40
1.0
 40
1.0
 40
1.0
 10
1348.60202831563
 20
120.6191862729998
 30
0.0
 10
1348.584811983357
 20
120.6151188660937
 30
0.0
 10
1348.548983804804
 20
120.6066543581736
 30
0.0
 10
1348.284821705205
 20
120.5478005570377
 30
0.0
 10
1347.956298094042
 20
120.4750364347549
 30
0.0
 10
1347.732833720699
 20
120.425755680365
 30
0.0
 10
1347.625453522821
 20
120.4020750502993
 30
0.0
  0
SPLINE
  5
1BE
330
1F
100
AcDbEntity
  8
0
  6
Continuous
 62
     7
370
    25
100
AcDbSpline
210
0.0
220
0.0
230
1.0
 70
     8
 71
     3
 72
    10
 73
     6
 74
     0
 42
0.00000001
 43
0.00000001
 40
0.0
 40
0.0
 40
0.0
 40
0.0
 40
0.2768779234291353
 40
0.5624038656203836
 40
1.0
 40
1.0
 40
1.0
 40
1.0
 10
1347.269661009665
 20
120.8126486662889
 30
0.0
 10
1347.316813215269
 20
120.7903262134369
 30
0.0
 10
1347.412590380799
 20
120.7449840871359
 30
0.0
 10
1347.55098464633
 20
120.6101239811104
 30
0.0
 10
1347.597378411931
 20
120.4805104595363
 30
0.0
 10
1347.625453522821
 20
120.4020750502993
 30
0.0
  0
SPLINE
  5
1BF
330
1F
100
AcDbEntity
  8
0
  6
Continuous
 62
     7
370
    25
100
AcDbSpline
210
0.0
220
0.0
230
1.0
 70
     8
 71
     3
 72
    11
 73
     7
 74
     0
 42
0.00000001
 43
0.00000001
 40
0.0
 40
0.0
 40
0.0
 40
0.0
 40
0.279657974037111
 40
0.5592666022933362
 40
0.7796650582494087
 40
1.0
 40
1.0
 40
1.0
 40
1.0
 10
1345.536440058097
 20
120.6191862729998
 30
0.0
 10
1345.555323774692
 20
120.6163874734573
 30
0.0
 10
1345.59308787584
 20
120.6107903682219
 30
0.0
 10
1345.860454867474
 20
120.5726335990265
 30
0.0
 10
1346.188178736797
 20
120.5232973918711
 30
0.0
 10
1346.415847946497
 20
120.4823697794192
 30
0.0
 10
1346.529666146612
 20
120.4619089222377
 30
0.0
  0
SPLINE
  5
1C0
330
1F
100
AcDbEntity
  8
0
  6
Continuous
 62
     7
370
    25
100
AcDbSpline
210
0.0
220
0.0
230
1.0
 70
     8
 71
     3
 72
    10
 73
     6
 74
     0
 42
0.00000001
 43
0.00000001
 40
0.0
 40
0.0
 40
0.0
 40
0.0
 40
0.2768779234291051
 40
0.5624038656203848
 40
1.0
 40
1.0
 40
1.0
 40
1.0
 10
1346.516910602664
 20
121.7506191221146
 30
0.0
 10
1346.386971531446
 20
121.6891043158876
 30
0.0
 10
1346.12303486563
 20
121.5641533469317
 30
0.0
 10
1345.741656686291
 20
121.1925143812261
 30
0.0
 10
1345.613807676147
 20
120.8353336217052
 30
0.0
 10
1345.536440058097
 20
120.6191862729998
 30
0.0
  0
SPLINE
  5
1C1
330
1F
100
AcDbEntity
  8
0
  6
Continuous
 62
     7
370
    25
100
AcDbSpline
210
0.0
220
0.0
230
1.0
 70
     8
 71
     3
 72
     9
 73
     5
 74
     0
 42
0.00000001
 43
0.00000001
 40
0.0
 40
0.0
 40
0.0
 40
0.0
 40
0.5600000000000166
 40
1.0
 40
1.0
 40
1.0
 40
1.0
 10
1346.529666146612
 20
120.4619089222377
 30
0.0
 10
1346.572329317368
 20
120.5484481556488
 30
0.0
 10
1346.648513550862
 20
120.7029825010257
 30
0.0
 10
1346.801495365584
 20
120.7791395602362
 30
0.0
 10
1346.868807364062
 20
120.8126486662889
 30
0.0
  0
SPLINE
  5
1C2
330
1F
100
AcDbEntity
  8
0
  6
Continuous
 62
     7
370
    25
100
AcDbSpline
210
0.0
220
0.0
230
1.0
 70
     8
 71
     3
 72
    10
 73
     6
 74
     0
 42
0.00000001
 43
0.00000001
 40
0.0
 40
0.0
 40
0.0
 40
0.0
 40
0.2768779234291353
 40
0.5624038656203836
 40
1.0
 40
1.0
 40
1.0
 40
1.0
 10
1367.748963659241
 20
120.8126486662889
 30
0.0
 10
1367.701811453637
 20
120.7903262134369
 30
0.0
 10
1367.606034288107
 20
120.7449840871359
 30
0.0
 10
1367.467640022576
 20
120.6101239811104
 30
0.0
 10
1367.421246256975
 20
120.4805104595363
 30
0.0
 10
1367.393171146085
 20
120.4020750502993
 30
0.0
  0
SPLINE
  5
1C3
330
1F
100
AcDbEntity
  8
0
  6
Continuous
 62
     7
370
    25
100
AcDbSpline
210
0.0
220
0.0
230
1.0
 70
     8
 71
     3
 72
    11
 73
     7
 74
     0
 42
0.00000001
 43
0.00000001
 40
0.0
 40
0.0
 40
0.0
 40
0.0
 40
0.2702613318129095
 40
0.5624293896420925
 40
0.7897364218595448
 40
1.0
 40
1.0
 40
1.0
 40
1.0
 10
1366.416596353277
 20
120.6191862729998
 30
0.0
 10
1366.433812685549
 20
120.6151188660937
 30
0.0
 10
1366.469640864102
 20
120.6066543581736
 30
0.0
 10
1366.733802963702
 20
120.5478005570377
 30
0.0
 10
1367.062326574864
 20
120.4750364347549
 30
0.0
 10
1367.285790948207
 20
120.425755680365
 30
0.0
 10
1367.393171146085
 20
120.4020750502993
 30
0.0
  0
SPLINE
  5
1C4
330
1F
100
AcDbEntity
  8
0
  6
Continuous
 62
     7
370
    25
100
AcDbSpline
210
0.0
220
0.0
230
1.0
 70
     8
 71
     3
 72
    10
 73
     6
 74
     0
 42
0.00000001
 43
0.00000001
 40
0.0
 40
0.0
 40
0.0
 40
0.0
 40
0.2768779234291534
 40
0.562403865620433
 40
1.0
 40
1.0
 40
1.0
 40
1.0
 10
1366.416596353277
 20
120.6191862729998
 30
0.0
 10
1366.459003502196
 20
120.7565537034342
 30
0.0
 10
1366.545142347022
 20
121.0355791054232
 30
0.0
 10
1366.858756745997
 20
121.4659401970903
 30
0.0
 10
1367.194121480667
 20
121.6432938506105
 30
0.0
 10
1367.397066897843
 20
121.7506191221146
 30
0.0
  0
SPLINE
  5
1C5
330
1F
100
AcDbEntity
  8
0
  6
Continuous
 62
     7
370
    25
100
AcDbSpline
210
0.0
220
0.0
230
1.0
 70
     8
 71
     3
 72
    10
 73
     6
 74
     0
 42
0.00000001
 43
0.00000001
 40
0.0
 40
0.0
 40
0.0
 40
0.0
 40
0.2768779234291051
 40
0.5624038656203848
 40
1.0
 40
1.0
 40
1.0
 40
1.0
 10
1368.501714066242
 20
121.7506191221146
 30
0.0
 10
1368.63165313746
 20
121.6891043158876
 30
0.0
 10
1368.895589803277
 20
121.5641533469317
 30
0.0
 10
1369.276967982616
 20
121.1925143812261
 30
0.0
 10
1369.40481699276
 20
120.8353336217052
 30
0.0
 10
1369.482184610809
 20
120.6191862729998
 30
0.0
  0
SPLINE
  5
1C6
330
1F
100
AcDbEntity
  8
0
  6
Continuous
 62
     7
370
    25
100
AcDbSpline
210
0.0
220
0.0
230
1.0
 70
     8
 71
     3
 72
    11
 73
     7
 74
     0
 42
0.00000001
 43
0.00000001
 40
0.0
 40
0.0
 40
0.0
 40
0.0
 40
0.2796579740370975
 40
0.5592666022933287
 40
0.7796650582493756
 40
1.0
 40
1.0
 40
1.0
 40
1.0
 10
1369.482184610809
 20
120.6191862729998
 30
0.0
 10
1369.463300894214
 20
120.6163874734574
 30
0.0
 10
1369.425536793066
 20
120.610790368222
 30
0.0
 10
1369.158169801432
 20
120.5726335990265
 30
0.0
 10
1368.830445932109
 20
120.5232973918711
 30
0.0
 10
1368.602776722409
 20
120.4823697794192
 30
0.0
 10
1368.488958522294
 20
120.4619089222377
 30
0.0
  0
SPLINE
  5
1C7
330
1F
100
AcDbEntity
  8
0
  6
Continuous
 62
     7
370
    25
100
AcDbSpline
210
0.0
220
0.0
230
1.0
 70
     8
 71
     3
 72
     9
 73
     5
 74
     0
 42
0.00000001
 43
0.00000001
 40
0.0
 40
0.0
 40
0.0
 40
0.0
 40
0.5600000000000294
 40
1.0
 40
1.0
 40
1.0
 40
1.0
 10
1368.488958522294
 20
120.4619089222377
 30
0.0
 10
1368.446295351538
 20
120.5484481556488
 30
0.0
 10
1368.370111118044
 20
120.7029825010256
 30
0.0
 10
1368.217129303322
 20
120.7791395602362
 30
0.0
 10
1368.149817304844
 20
120.8126486662889
 30
0.0
  0
LINE
  5
1C8
330
1F
100
AcDbEntity
  8
0
  6
Continuous
 62
     7
370
    25
100
AcDbLine
 10
1347.5271585816
 20
120.2847059424
 30
0.0
 11
1347.5271585816
 21
118.3639443309
 31
0.0
  0
SPLINE
  5
1C9
330
1F
100
AcDbEntity
  8
0
  6
Continuous
 62
     7
370
    25
100
AcDbSpline
210
0.0
220
0.0
230
1.0
 70
     8
 71
     3
 72
    15
 73
    11
 74
     0
 42
0.00000001
 43
0.00000001
 40
0.0
 40
0.0
 40
0.0
 40
0.0
 40
0.12005423376294
 40
0.2500000000000052
 40
0.3799457662370683
 40
0.4999999999999947
 40
0.620054233762921
 40
0.750000000000013
 40
0.87994576623708
 40
1.0
 40
1.0
 40
1.0
 40
1.0
 10
1346.521492353726
 20
120.284705942443
 30
0.0
 10
1346.528477253185
 20
120.3478690463438
 30
0.0
 10
1346.543022553339
 20
120.4793994012531
 30
0.0
 10
1346.65969983357
 20
120.6503032227254
 30
0.0
 10
1346.829410028053
 20
120.76248829113
 30
0.0
 10
1347.024325467668
 20
120.7995674669996
 30
0.0
 10
1347.219240907282
 20
120.76248829113
 30
0.0
 10
1347.388951101766
 20
120.6503032227255
 30
0.0
 10
1347.505628381997
 20
120.4793994012531
 30
0.0
 10
1347.52017368215
 20
120.3478690463438
 30
0.0
 10
1347.527158581609
 20
120.284705942443
 30
0.0
  0
LINE
  5
1CA
330
1F
100
AcDbEntity
  8
0
  6
Continuous
 62
     7
370
    25
100
AcDbLine
 10
1346.5202260853
 20
120.281949213
 30
0.0
 11
1346.5214923537
 21
120.2847059424
 31
0.0
  0
LINE
  5
1CB
330
1F
100
AcDbEntity
  8
0
  6
Continuous
 62
     7
370
    25
100
AcDbLine
 10
1346.5202260853
 20
120.281949213
 30
0.0
 11
1346.5296661466
 21
120.4619089222
 31
0.0
  0
LINE
  5
1CC
330
1F
100
AcDbEntity
  8
0
  6
Continuous
 62
     7
370
    25
100
AcDbLine
 10
1368.4983985836
 20
120.281949213
 30
0.0
 11
1368.4889585223
 21
120.4619089222
 31
0.0
  0
LINE
  5
1CD
330
1F
100
AcDbEntity
  8
0
  6
Continuous
 62
     7
370
    25
100
AcDbLine
 10
1368.4983985836
 20
120.281949213
 30
0.0
 11
1368.4971323152
 21
120.2847059424
 31
0.0
  0
SPLINE
  5
1CE
330
1F
100
AcDbEntity
  8
0
  6
Continuous
 62
     7
370
    25
100
AcDbSpline
210
0.0
220
0.0
230
1.0
 70
     8
 71
     3
 72
    15
 73
    11
 74
     0
 42
0.00000001
 43
0.00000001
 40
0.0
 40
0.0
 40
0.0
 40
0.0
 40
0.12005423376294
 40
0.2500000000000052
 40
0.3799457662370683
 40
0.4999999999999947
 40
0.620054233762921
 40
0.750000000000013
 40
0.87994576623708
 40
1.0
 40
1.0
 40
1.0
 40
1.0
 10
1368.49713231518
 20
120.284705942443
 30
0.0
 10
1368.490147415721
 20
120.3478690463438
 30
0.0
 10
1368.475602115567
 20
120.4793994012531
 30
0.0
 10
1368.358924835336
 20
120.6503032227254
 30
0.0
 10
1368.189214640853
 20
120.76248829113
 30
0.0
 10
1367.994299201239
 20
120.7995674669996
 30
0.0
 10
1367.799383761625
 20
120.76248829113
 30
0.0
 10
1367.629673567141
 20
120.6503032227255
 30
0.0
 10
1367.51299628691
 20
120.4793994012531
 30
0.0
 10
1367.498450986756
 20
120.3478690463438
 30
0.0
 10
1367.491466087297
 20
120.284705942443
 30
0.0
  0
LINE
  5
1CF
330
1F
100
AcDbEntity
  8
0
  6
Continuous
 62
     7
370
    25
100
AcDbLine
 10
1367.4914660873
 20
120.2847059424
 30
0.0
 11
1367.4914660873
 21
118.3639443309
 31
0.0
  0
SPLINE
  5
1D0
330
1F
100
AcDbEntity
  8
0
  6
Continuous
 62
     7
370
    25
100
AcDbSpline
210
0.0
220
0.0
230
1.0
 70
     8
 71
     3
 72
     9
 73
     5
 74
     0
 42
0.00000001
 43
0.00000001
 40
0.0
 40
0.0
 40
0.0
 40
0.0
 40
0.5304166037466872
 40
1.0
 40
1.0
 40
1.0
 40
1.0
 10
1345.745461725475
 20
118.5957740060321
 30
0.0
 10
1345.880191651136
 20
118.8889211400878
 30
0.0
 10
1346.134199396575
 20
119.4415945141581
 30
0.0
 10
1346.396877030075
 20
120.0134264367062
 30
0.0
 10
1346.520226085334
 20
120.2819492129824
 30
0.0
  0
SPLINE
  5
1D1
330
1F
100
AcDbEntity
  8
0
  6
Continuous
 62
     7
370
    25
100
AcDbSpline
210
0.0
220
0.0
230
1.0
 70
     8
 71
     3
 72
     9
 73
     5
 74
     0
 42
0.00000001
 43
0.00000001
 40
0.0
 40
0.0
 40
0.0
 40
0.0
 40
0.5600000000000275
 40
1.0
 40
1.0
 40
1.0
 40
1.0
 10
1345.431237377703
 20
118.6136649930228
 30
0.0
 10
1345.449925116091
 20
118.6123861509958
 30
0.0
 10
1345.4832960775
 20
118.6101025045191
 30
0.0
 10
1345.66535555526
 20
118.6001521583476
 30
0.0
 10
1345.745461725475
 20
118.5957740060321
 30
0.0
  0
LINE
  5
1D2
330
1F
100
AcDbEntity
  8
0
  6
Continuous
 62
     7
370
    25
100
AcDbLine
 10
1345.5364400581
 20
120.619186273
 30
0.0
 11
1345.4312373777
 21
118.613664993
 31
0.0
  0
SPLINE
  5
1D3
330
1F
100
AcDbEntity
  8
0
  6
Continuous
 62
     7
370
    25
100
AcDbSpline
210
0.0
220
0.0
230
1.0
 70
     8
 71
     3
 72
     9
 73
     5
 74
     0
 42
0.00000001
 43
0.00000001
 40
0.0
 40
0.0
 40
0.0
 40
0.0
 40
0.5600000000000275
 40
1.0
 40
1.0
 40
1.0
 40
1.0
 10
1369.587387291203
 20
118.6136649930228
 30
0.0
 10
1369.568699552815
 20
118.6123861509958
 30
0.0
 10
1369.535328591406
 20
118.6101025045191
 30
0.0
 10
1369.353269113646
 20
118.6001521583476
 30
0.0
 10
1369.273162943431
 20
118.5957740060321
 30
0.0
  0
SPLINE
  5
1D4
330
1F
100
AcDbEntity
  8
0
  6
Continuous
 62
     7
370
    25
100
AcDbSpline
210
0.0
220
0.0
230
1.0
 70
     8
 71
     3
 72
     9
 73
     5
 74
     0
 42
0.00000001
 43
0.00000001
 40
0.0
 40
0.0
 40
0.0
 40
0.0
 40
0.5304166037466872
 40
1.0
 40
1.0
 40
1.0
 40
1.0
 10
1369.273162943431
 20
118.5957740060321
 30
0.0
 10
1369.13843301777
 20
118.8889211400878
 30
0.0
 10
1368.884425272332
 20
119.4415945141581
 30
0.0
 10
1368.621747638831
 20
120.0134264367062
 30
0.0
 10
1368.498398583572
 20
120.2819492129824
 30
0.0
  0
LINE
  5
1D5
330
1F
100
AcDbEntity
  8
0
  6
Continuous
 62
     7
370
    25
100
AcDbLine
 10
1369.4821846108
 20
120.619186273
 30
0.0
 11
1369.5873872912
 21
118.613664993
 31
0.0
  0
LINE
  5
1D6
330
1F
100
AcDbEntity
  8
0
  6
Continuous
 62
     7
370
    25
100
AcDbLine
 10
1346.8688073641
 20
121.8153535391
 30
0.0
 11
1346.8688073641
 21
121.8145801843
 31
0.0
  0
LINE
  5
1D7
330
1F
100
AcDbEntity
  8
0
  6
Continuous
 62
     7
370
    25
100
AcDbLine
 10
1346.5169106027
 20
121.7513924769
 30
0.0
 11
1346.5169106027
 21
121.7506191221
 31
0.0
  0
SPLINE
  5
1D8
330
1F
100
AcDbEntity
  8
0
  6
Continuous
 62
     7
370
    25
100
AcDbSpline
210
0.0
220
0.0
230
1.0
 70
     8
 71
     3
 72
     9
 73
     5
 74
     0
 42
0.00000001
 43
0.00000001
 40
0.0
 40
0.0
 40
0.0
 40
0.0
 40
0.5600000000001183
 40
1.0
 40
1.0
 40
1.0
 40
1.0
 10
1346.516910602664
 20
121.7513924769155
 30
0.0
 10
1346.581140607852
 20
121.7718741558985
 30
0.0
 10
1346.695837045687
 20
121.808448582654
 30
0.0
 10
1346.815955322337
 20
121.8132436912954
 30
0.0
 10
1346.868807364062
 20
121.8153535390976
 30
0.0
  0
LINE
  5
1D9
330
1F
100
AcDbEntity
  8
0
  6
Continuous
 62
     7
370
    25
100
AcDbLine
 10
1347.6215577711
 20
121.7506191221
 30
0.0
 11
1347.6215577711
 21
121.7513924769
 31
0.0
  0
LINE
  5
1DA
330
1F
100
AcDbEntity
  8
0
  6
Continuous
 62
     7
370
    25
100
AcDbLine
 10
1347.2696610097
 20
121.8153535391
 30
0.0
 11
1347.2696610097
 21
121.8145801843
 31
0.0
  0
LINE
  5
1DB
330
1F
100
AcDbEntity
  8
0
  6
Continuous
 62
     7
370
    25
100
AcDbLine
 10
1347.5180550283
 20
121.7812127089
 30
0.0
 11
1347.6215577711
 21
121.7513924769
 31
0.0
  0
LINE
  5
1DC
330
1F
100
AcDbEntity
  8
0
  6
Continuous
 62
     7
370
    25
100
AcDbLine
 10
1346.8688073641
 20
121.8153535391
 30
0.0
 11
1347.2696610097
 21
121.8153535391
 31
0.0
  0
LINE
  5
1DD
330
1F
100
AcDbEntity
  8
0
  6
Continuous
 62
     7
370
    25
100
AcDbLine
 10
1368.5017140662
 20
121.7513924769
 30
0.0
 11
1368.5017140662
 21
121.7506191221
 31
0.0
  0
LINE
  5
1DE
330
1F
100
AcDbEntity
  8
0
  6
Continuous
 62
     7
370
    25
100
AcDbLine
 10
1368.1498173048
 20
121.8153535391
 30
0.0
 11
1368.1498173048
 21
121.8145801843
 31
0.0
  0
SPLINE
  5
1DF
330
1F
100
AcDbEntity
  8
0
  6
Continuous
 62
     7
370
    25
100
AcDbSpline
210
0.0
220
0.0
230
1.0
 70
     8
 71
     3
 72
     9
 73
     5
 74
     0
 42
0.00000001
 43
0.00000001
 40
0.0
 40
0.0
 40
0.0
 40
0.0
 40
0.3202950743131627
 40
0.9999999999999999
 40
0.9999999999999999
 40
0.9999999999999999
 40
0.9999999999999999
 10
1368.379296676869
 20
121.7838114293476
 30
0.0
 10
1368.3554257265
 20
121.7908682798359
 30
0.0
 10
1368.280897729401
 20
121.8129006214306
 30
0.0
 10
1368.202859960652
 20
121.8143609479614
 30
0.0
 10
1368.149817304844
 20
121.8153535390976
 30
0.0
  0
LINE
  5
1E0
330
1F
100
AcDbEntity
  8
0
  6
Continuous
 62
     7
370
    25
100
AcDbLine
 10
1367.7489636592
 20
121.8153535391
 30
0.0
 11
1367.7489636592
 21
121.8145801843
 31
0.0
  0
LINE
  5
1E1
330
1F
100
AcDbEntity
  8
0
  6
Continuous
 62
     7
370
    25
100
AcDbLine
 10
1368.1498173048
 20
121.8153535391
 30
0.0
 11
1367.7489636592
 21
121.8153535391
 31
0.0
  0
LINE
  5
1E2
330
1F
100
AcDbEntity
  8
0
  6
Continuous
 62
     7
370
    25
100
AcDbLine
 10
1367.3970668978
 20
121.7506191221
 30
0.0
 11
1367.3970668978
 21
121.7513924769
 31
0.0
  0
SPLINE
  5
1E3
330
1F
100
AcDbEntity
  8
0
  6
Continuous
 62
     7
370
    25
100
AcDbSpline
210
0.0
220
0.0
230
1.0
 70
     8
 71
     3
 72
     9
 73
     5
 74
     0
 42
0.00000001
 43
0.00000001
 40
0.0
 40
0.0
 40
0.0
 40
0.0
 40
0.5600000000000372
 40
0.9999999999999999
 40
0.9999999999999999
 40
0.9999999999999999
 40
0.9999999999999999
 10
1367.748963659241
 20
121.8153535390976
 30
0.0
 10
1367.681634431115
 20
121.8119228971226
 30
0.0
 10
1367.561403666603
 20
121.8057967507387
 30
0.0
 10
1367.44728091052
 20
121.7680160050281
 30
0.0
 10
1367.397066897843
 20
121.7513924769155
 30
0.0
  0
LINE
  5
1E4
330
1F
100
AcDbEntity
  8
0
  6
Continuous
 62
     7
370
    25
100
AcDbLine
 10
1348.6020283156
 20
120.619186273
 30
0.0
 11
1348.6020283156
 21
120.6199596278
 31
0.0
  0
SPLINE
  5
1E5
330
1F
100
AcDbEntity
  8
0
  6
Continuous
 62
     7
370
    25
100
AcDbSpline
210
0.0
220
0.0
230
1.0
 70
     8
 71
     3
 72
    10
 73
     6
 74
     0
 42
0.00000001
 43
0.00000001
 40
0.0
 40
0.0
 40
0.0
 40
0.0
 40
0.2768779234291396
 40
0.5624038656204163
 40
1.0
 40
1.0
 40
1.0
 40
1.0
 10
1347.621557771063
 20
121.7513924769155
 30
0.0
 10
1347.751496842281
 20
121.6898776706884
 30
0.0
 10
1348.015433508098
 20
121.5649267017325
 30
0.0
 10
1348.396811687437
 20
121.1932877360269
 30
0.0
 10
1348.52466069758
 20
120.836106976506
 30
0.0
 10
1348.60202831563
 20
120.6199596278007
 30
0.0
  0
LINE
  5
1E6
330
1F
100
AcDbEntity
  8
0
  6
Continuous
 62
     7
370
    25
100
AcDbLine
 10
1345.5364400581
 20
120.619186273
 30
0.0
 11
1345.5364400581
 21
120.6199596278
 31
0.0
  0
SPLINE
  5
1E7
330
1F
100
AcDbEntity
  8
0
  6
Continuous
 62
     7
370
    25
100
AcDbSpline
210
0.0
220
0.0
230
1.0
 70
     8
 71
     3
 72
    10
 73
     6
 74
     0
 42
0.00000001
 43
0.00000001
 40
0.0
 40
0.0
 40
0.0
 40
0.0
 40
0.2768779234291734
 40
0.5624038656204424
 40
1.0
 40
1.0
 40
1.0
 40
1.0
 10
1345.536440058097
 20
120.6199596278007
 30
0.0
 10
1345.578847207017
 20
120.7573270582351
 30
0.0
 10
1345.664986051843
 20
121.0363524602241
 30
0.0
 10
1345.978600450818
 20
121.4667135518913
 30
0.0
 10
1346.313965185488
 20
121.6440672054115
 30
0.0
 10
1346.516910602664
 20
121.7513924769155
 30
0.0
  0
LINE
  5
1E8
330
1F
100
AcDbEntity
  8
0
  6
Continuous
 62
     7
370
    25
100
AcDbLine
 10
1366.4165963533
 20
120.619186273
 30
0.0
 11
1366.4165963533
 21
120.6199596278
 31
0.0
  0
SPLINE
  5
1E9
330
1F
100
AcDbEntity
  8
0
  6
Continuous
 62
     7
370
    25
100
AcDbSpline
210
0.0
220
0.0
230
1.0
 70
     8
 71
     3
 72
    10
 73
     6
 74
     0
 42
0.00000001
 43
0.00000001
 40
0.0
 40
0.0
 40
0.0
 40
0.0
 40
0.2768779234291396
 40
0.5624038656204163
 40
1.0
 40
1.0
 40
1.0
 40
1.0
 10
1367.397066897843
 20
121.7513924769155
 30
0.0
 10
1367.267127826625
 20
121.6898776706884
 30
0.0
 10
1367.003191160809
 20
121.5649267017325
 30
0.0
 10
1366.621812981469
 20
121.1932877360269
 30
0.0
 10
1366.493963971326
 20
120.836106976506
 30
0.0
 10
1366.416596353277
 20
120.6199596278007
 30
0.0
  0
LINE
  5
1EA
330
1F
100
AcDbEntity
  8
0
  6
Continuous
 62
     7
370
    25
100
AcDbLine
 10
1369.4821846108
 20
120.619186273
 30
0.0
 11
1369.4821846108
 21
120.6199596278
 31
0.0
  0
SPLINE
  5
1EB
330
1F
100
AcDbEntity
  8
0
  6
Continuous
 62
     7
370
    25
100
AcDbSpline
210
0.0
220
0.0
230
1.0
 70
     8
 71
     3
 72
    10
 73
     6
 74
     0
 42
0.00000001
 43
0.00000001
 40
0.0
 40
0.0
 40
0.0
 40
0.0
 40
0.2768779234291734
 40
0.5624038656204424
 40
1.0
 40
1.0
 40
1.0
 40
1.0
 10
1369.482184610809
 20
120.6199596278007
 30
0.0
 10
1369.439777461889
 20
120.7573270582351
 30
0.0
 10
1369.353638617063
 20
121.0363524602241
 30
0.0
 10
1369.040024218089
 20
121.4667135518913
 30
0.0
 10
1368.704659483418
 20
121.6440672054115
 30
0.0
 10
1368.501714066242
 20
121.7513924769155
 30
0.0
  0
LINE
  5
1EC
330
1F
100
AcDbEntity
  8
0
  6
Continuous
 62
     7
370
    25
100
AcDbLine
 10
1348.6020283156
 20
120.6199596278
 30
0.0
 11
1349.0991190731
 21
118.3639443309
 31
0.0
  0
LINE
  5
1ED
330
1F
100
AcDbEntity
  8
0
  6
Continuous
 62
     7
370
    25
100
AcDbLine
 10
1345.4312373777
 20
118.6144383478
 30
0.0
 11
1345.5364400581
 21
120.6199596278
 31
0.0
  0
LINE
  5
1EE
330
1F
100
AcDbEntity
  8
0
  6
Continuous
 62
     7
370
    25
100
AcDbLine
 10
1345.4312373777
 20
118.613664993
 30
0.0
 11
1345.4312373777
 21
118.6144383478
 31
0.0
  0
LINE
  5
1EF
330
1F
100
AcDbEntity
  8
0
  6
Continuous
 62
     7
370
    25
100
AcDbLine
 10
1366.4165963533
 20
120.6199596278
 30
0.0
 11
1365.9195055958
 21
118.3639443309
 31
0.0
  0
LINE
  5
1F0
330
1F
100
AcDbEntity
  8
0
  6
Continuous
 62
     7
370
    25
100
AcDbLine
 10
1369.5873872912
 20
118.6144383478
 30
0.0
 11
1369.4821846108
 21
120.6199596278
 31
0.0
  0
LINE
  5
1F1
330
1F
100
AcDbEntity
  8
0
  6
Continuous
 62
     7
370
    25
100
AcDbLine
 10
1369.5873872912
 20
118.613664993
 30
0.0
 11
1369.5873872912
 21
118.6144383478
 31
0.0
  0
LINE
  5
1F2
330
1F
100
AcDbEntity
  8
0
  6
Continuous
 62
     8
370
    25
100
AcDbLine
 10
790.7093123344
 20
92.6562008414
 30
0.0
 11
790.7093123344
 21
64.8703436839
 31
0.0
  0
LINE
  5
1F3
330
1F
100
AcDbEntity
  8
0
  6
Continuous
 62
     8
370
    25
100
AcDbLine
 10
1383.3093123344
 20
92.6562008414
 30
0.0
 11
1383.3093123344
 21
64.8703436839
 31
0.0
  0
LINE
  5
1F4
330
1F
100
AcDbEntity
  8
0
  6
Continuous
 62
     8
370
    25
100
AcDbLine
 10
1347.6254535228
 20
120.4020750503
 30
0.0
 11
1348.074535559
 21
118.3639443309
 31
0.0
  0
LINE
  5
1F5
330
1F
100
AcDbEntity
  8
0
  6
Continuous
 62
     8
370
    25
100
AcDbLine
 10
1367.3931711461
 20
120.4020750503
 30
0.0
 11
1366.9440891099
 21
118.3639443309
 31
0.0
  0
LINE
  5
1F6
330
1F
100
AcDbEntity
  8
0
  6
Continuous
 62
     8
370
    25
100
AcDbLine
 10
1349.098948672
 20
118.3639443309
 30
0.0
 11
1348.6020283156
 21
120.619186273
 31
0.0
  0
LINE
  5
1F7
330
1F
100
AcDbEntity
  8
0
  6
Continuous
 62
     8
370
    25
100
AcDbLine
 10
1365.9196759969
 20
118.3639443309
 30
0.0
 11
1366.4165963533
 21
120.619186273
 31
0.0
  0
ENDSEC
  0
SECTION
  2
OBJECTS
  0
DICTIONARY
  5
C
330
0
100
AcDbDictionary
281
     1
  3
ACAD_GROUP
350
D
  3
ACAD_LAYOUT
350
1A
  3
ACAD_MLINESTYLE
350
17
  3
ACAD_PLOTSETTINGS
350
19
  3
ACAD_PLOTSTYLENAME
350
E
  3
ACAD_SCALELIST
350
47
  3
DWGPROPS
350
1F8
  0
DICTIONARY
  5
D
102
{ACAD_REACTORS
330
C
102
}
330
C
100
AcDbDictionary
281
     1
  0
DICTIONARY
  5
1A
102
{ACAD_REACTORS
330
C
102
}
330
C
100
AcDbDictionary
281
     1
  3
Layout1
350
1E
  3
Layout2
350
26
  3
Model
350
22
  0
DICTIONARY
  5
17
102
{ACAD_REACTORS
330
C
102
}
330
C
100
AcDbDictionary
281
     1
  3
Standard
350
18
  0
DICTIONARY
  5
19
102
{ACAD_REACTORS
330
C
102
}
330
C
100
AcDbDictionary
281
     1
  0
ACDBDICTIONARYWDFLT
  5
E
102
{ACAD_REACTORS
330
C
102
}
330
C
100
AcDbDictionary
281
     1
  3
Normal
350
F
100
AcDbDictionaryWithDefault
340
F
  0
DICTIONARY
  5
47
102
{ACAD_REACTORS
330
C
102
}
330
C
100
AcDbDictionary
281
     1
  3
A0
350
48
  3
A1
350
49
  3
A2
350
4A
  3
A3
350
4B
  3
A4
350
4C
  3
A5
350
4D
  3
A6
350
4E
  3
A7
350
4F
  3
A8
350
50
  3
A9
350
51
  3
B0
350
52
  3
B1
350
53
  3
B2
350
54
  3
B3
350
55
  3
B4
350
56
  3
B5
350
57
  3
B6
350
58
  3
B7
350
59
  3
B8
350
5A
  3
B9
350
5B
  3
C0
350
5C
  3
C1
350
5D
  3
C2
350
5E
  3
C3
350
5F
  3
C4
350
60
  3
C5
350
61
  3
C6
350
62
  3
C7
350
63
  3
C8
350
64
  3
C9
350
65
  3
D0
350
66
  3
D1
350
67
  3
D2
350
68
  0
XRECORD
  5
1F8
102
{ACAD_REACTORS
330
C
102
}
330
C
100
AcDbXrecord
280
     1
  1
DWGPROPS COOKIE
  2

  3

  4

  6

  7

  8
Vostorgin
  9

300
=
301
=
302
=
303
=
304
=
305
=
306
=
307
=
308
=
309
=
 40
0.0
 41
2459275.409760648
 42
2459275.4097611
  1

 90
        0
  0
LAYOUT
  5
1E
102
{ACAD_REACTORS
330
1A
102
}
330
1A
100
AcDbPlotSettings
  1

  2
none_device
  4

  6

 40
0.0
 41
0.0
 42
0.0
 43
0.0
 44
0.0
 45
0.0
 46
0.0
 47
0.0
 48
0.0
 49
0.0
140
0.0
141
0.0
142
1.0
143
1.0
 70
   688
 72
     1
 73
     0
 74
     5
  7

 75
    16
147
1.0
148
0.0
149
0.0
100
AcDbLayout
  1
Layout1
 70
     1
 71
     1
 10
0.0
 20
0.0
 11
420.0
 21
297.0
 12
0.0
 22
0.0
 32
0.0
 14
1.0000000000E+20
 24
1.0000000000E+20
 34
1.0000000000E+20
 15
-1.0000000000E+20
 25
-1.0000000000E+20
 35
-1.0000000000E+20
146
0.0
 13
0.0
 23
0.0
 33
0.0
 16
1.0
 26
0.0
 36
0.0
 17
0.0
 27
1.0
 37
0.0
 76
     0
330
1B
  0
LAYOUT
  5
26
102
{ACAD_REACTORS
330
1A
102
}
330
1A
100
AcDbPlotSettings
  1

  2
none_device
  4

  6

 40
0.0
 41
0.0
 42
0.0
 43
0.0
 44
0.0
 45
0.0
 46
0.0
 47
0.0
 48
0.0
 49
0.0
140
0.0
141
0.0
142
1.0
143
1.0
 70
   688
 72
     1
 73
     0
 74
     5
  7

 75
    16
147
1.0
148
0.0
149
0.0
100
AcDbLayout
  1
Layout2
 70
     1
 71
     2
 10
0.0
 20
0.0
 11
0.0
 21
0.0
 12
0.0
 22
0.0
 32
0.0
 14
0.0
 24
0.0
 34
0.0
 15
0.0
 25
0.0
 35
0.0
146
0.0
 13
0.0
 23
0.0
 33
0.0
 16
1.0
 26
0.0
 36
0.0
 17
0.0
 27
1.0
 37
0.0
 76
     0
330
23
  0
LAYOUT
  5
22
102
{ACAD_REACTORS
330
1A
102
}
330
1A
100
AcDbPlotSettings
  1

  2
none_device
  4
Letter_(8.50_x_11.00_Inches)
  6

 40
6.35
 41
6.35
 42
6.35000508
 43
6.35000508
 44
215.9
 45
279.4
 46
0.0
 47
0.0
 48
0.0
 49
0.0
140
0.0
141
0.0
142
1.0
143
1.0
 70
  1712
 72
     1
 73
     0
 74
     0
  7

 75
     0
147
1.0
148
0.0
149
0.0
100
AcDbLayout
  1
Model
 70
     1
 71
     0
 10
0.0
 20
0.0
 11
1189.0
 21
841.0
 12
0.0
 22
0.0
 32
0.0
 14
0.0
 24
0.0
 34
0.0
 15
1189.0
 25
841.0
 35
0.0
146
0.0
 13
0.0
 23
0.0
 33
0.0
 16
1.0
 26
0.0
 36
0.0
 17
0.0
 27
1.0
 37
0.0
 76
     0
330
1F
331
29
  0
MLINESTYLE
  5
18
102
{ACAD_REACTORS
330
17
102
}
330
17
100
AcDbMlineStyle
  2
Standard
 70
     0
  3

 62
   256
 51
90.0
 52
90.0
 71
     2
 49
0.5
 62
   256
  6
BYLAYER
 49
-0.5
 62
   256
  6
BYLAYER
  0
ACDBPLACEHOLDER
  5
F
102
{ACAD_REACTORS
330
E
102
}
330
E
  0
SCALE
  5
48
102
{ACAD_REACTORS
330
47
102
}
330
47
100
AcDbScale
 70
     0
300
1:1
140
1.0
141
1.0
290
     1
  0
SCALE
  5
49
102
{ACAD_REACTORS
330
47
102
}
330
47
100
AcDbScale
 70
     0
300
1:2
140
1.0
141
2.0
290
     0
  0
SCALE
  5
4A
102
{ACAD_REACTORS
330
47
102
}
330
47
100
AcDbScale
 70
     0
300
1:4
140
1.0
141
4.0
290
     0
  0
SCALE
  5
4B
102
{ACAD_REACTORS
330
47
102
}
330
47
100
AcDbScale
 70
     0
300
1:5
140
1.0
141
5.0
290
     0
  0
SCALE
  5
4C
102
{ACAD_REACTORS
330
47
102
}
330
47
100
AcDbScale
 70
     0
300
1:8
140
1.0
141
8.0
290
     0
  0
SCALE
  5
4D
102
{ACAD_REACTORS
330
47
102
}
330
47
100
AcDbScale
 70
     0
300
1:10
140
1.0
141
10.0
290
     0
  0
SCALE
  5
4E
102
{ACAD_REACTORS
330
47
102
}
330
47
100
AcDbScale
 70
     0
300
1:16
140
1.0
141
16.0
290
     0
  0
SCALE
  5
4F
102
{ACAD_REACTORS
330
47
102
}
330
47
100
AcDbScale
 70
     0
300
1:20
140
1.0
141
20.0
290
     0
  0
SCALE
  5
50
102
{ACAD_REACTORS
330
47
102
}
330
47
100
AcDbScale
 70
     0
300
1:30
140
1.0
141
30.0
290
     0
  0
SCALE
  5
51
102
{ACAD_REACTORS
330
47
102
}
330
47
100
AcDbScale
 70
     0
300
1:40
140
1.0
141
40.0
290
     0
  0
SCALE
  5
52
102
{ACAD_REACTORS
330
47
102
}
330
47
100
AcDbScale
 70
     0
300
1:50
140
1.0
141
50.0
290
     0
  0
SCALE
  5
53
102
{ACAD_REACTORS
330
47
102
}
330
47
100
AcDbScale
 70
     0
300
1:100
140
1.0
141
100.0
290
     0
  0
SCALE
  5
54
102
{ACAD_REACTORS
330
47
102
}
330
47
100
AcDbScale
 70
     0
300
2:1
140
2.0
141
1.0
290
     0
  0
SCALE
  5
55
102
{ACAD_REACTORS
330
47
102
}
330
47
100
AcDbScale
 70
     0
300
4:1
140
4.0
141
1.0
290
     0
  0
SCALE
  5
56
102
{ACAD_REACTORS
330
47
102
}
330
47
100
AcDbScale
 70
     0
300
8:1
140
8.0
141
1.0
290
     0
  0
SCALE
  5
57
102
{ACAD_REACTORS
330
47
102
}
330
47
100
AcDbScale
 70
     0
300
10:1
140
10.0
141
1.0
290
     0
  0
SCALE
  5
58
102
{ACAD_REACTORS
330
47
102
}
330
47
100
AcDbScale
 70
     0
300
100:1
140
100.0
141
1.0
290
     0
  0
SCALE
  5
59
102
{ACAD_REACTORS
330
47
102
}
330
47
100
AcDbScale
 70
     0
300
1/128" = 1'-0"
140
0.0078125
141
12.0
290
     0
  0
SCALE
  5
5A
102
{ACAD_REACTORS
330
47
102
}
330
47
100
AcDbScale
 70
     0
300
1/64" = 1'-0"
140
0.015625
141
12.0
290
     0
  0
SCALE
  5
5B
102
{ACAD_REACTORS
330
47
102
}
330
47
100
AcDbScale
 70
     0
300
1/32" = 1'-0"
140
0.03125
141
12.0
290
     0
  0
SCALE
  5
5C
102
{ACAD_REACTORS
330
47
102
}
330
47
100
AcDbScale
 70
     0
300
1/16" = 1'-0"
140
0.0625
141
12.0
290
     0
  0
SCALE
  5
5D
102
{ACAD_REACTORS
330
47
102
}
330
47
100
AcDbScale
 70
     0
300
3/32" = 1'-0"
140
0.09375
141
12.0
290
     0
  0
SCALE
  5
5E
102
{ACAD_REACTORS
330
47
102
}
330
47
100
AcDbScale
 70
     0
300
1/8" = 1'-0"
140
0.125
141
12.0
290
     0
  0
SCALE
  5
5F
102
{ACAD_REACTORS
330
47
102
}
330
47
100
AcDbScale
 70
     0
300
3/16" = 1'-0"
140
0.1875
141
12.0
290
     0
  0
SCALE
  5
60
102
{ACAD_REACTORS
330
47
102
}
330
47
100
AcDbScale
 70
     0
300
1/4" = 1'-0"
140
0.25
141
12.0
290
     0
  0
SCALE
  5
61
102
{ACAD_REACTORS
330
47
102
}
330
47
100
AcDbScale
 70
     0
300
3/8" = 1'-0"
140
0.375
141
12.0
290
     0
  0
SCALE
  5
62
102
{ACAD_REACTORS
330
47
102
}
330
47
100
AcDbScale
 70
     0
300
1/2" = 1'-0"
140
0.5
141
12.0
290
     0
  0
SCALE
  5
63
102
{ACAD_REACTORS
330
47
102
}
330
47
100
AcDbScale
 70
     0
300
3/4" = 1'-0"
140
0.75
141
12.0
290
     0
  0
SCALE
  5
64
102
{ACAD_REACTORS
330
47
102
}
330
47
100
AcDbScale
 70
     0
300
1" = 1'-0"
140
1.0
141
12.0
290
     0
  0
SCALE
  5
65
102
{ACAD_REACTORS
330
47
102
}
330
47
100
AcDbScale
 70
     0
300
1-1/2" = 1'-0"
140
1.5
141
12.0
290
     0
  0
SCALE
  5
66
102
{ACAD_REACTORS
330
47
102
}
330
47
100
AcDbScale
 70
     0
300
3" = 1'-0"
140
3.0
141
12.0
290
     0
  0
SCALE
  5
67
102
{ACAD_REACTORS
330
47
102
}
330
47
100
AcDbScale
 70
     0
300
6" = 1'-0"
140
6.0
141
12.0
290
     0
  0
SCALE
  5
68
102
{ACAD_REACTORS
330
47
102
}
330
47
100
AcDbScale
 70
     0
300
1'-0" = 1'-0"
140
12.0
141
12.0
290
     0
  0
ENDSEC
  0
EOF
