  0
SECTION
  2
HEADER
  9
$ACADVER
  1
AC1015
  9
$ACADMAINTVER
 70
     6
  9
$DWGCODEPAGE
  3
ANSI_1251
  9
$INSBASE
 10
0.0
 20
0.0
 30
0.0
  9
$EXTMIN
 10
0.0
 20
0.0
 30
0.0
  9
$EXTMAX
 10
1189.0
 20
841.0
 30
0.0
  9
$LIMMIN
 10
0.0
 20
0.0
  9
$LIMMAX
 10
1189.0
 20
841.0
  9
$ORTHOMODE
 70
     0
  9
$REGENMODE
 70
     1
  9
$FILLMODE
 70
     1
  9
$QTEXTMODE
 70
     0
  9
$MIRRTEXT
 70
     1
  9
$LTSCALE
 40
1.0
  9
$ATTMODE
 70
     1
  9
$TEXTSIZE
 40
3.5
  9
$TRACEWID
 40
1.0
  9
$TEXTSTYLE
  7
Standard
  9
$CLAYER
  8
0
  9
$CELTYPE
  6
ByLayer
  9
$CECOLOR
 62
   256
  9
$CELTSCALE
 40
1.0
  9
$DISPSILH
 70
     0
  9
$DIMSCALE
 40
1.0
  9
$DIMASZ
 40
3.5
  9
$DIMEXO
 40
0.01
  9
$DIMDLI
 40
3.75
  9
$DIMRND
 40
0.0
  9
$DIMDLE
 40
0.0
  9
$DIMEXE
 40
1.0
  9
$DIMTP
 40
0.0
  9
$DIMTM
 40
0.0
  9
$DIMTXT
 40
3.5
  9
$DIMCEN
 40
2.5
  9
$DIMTSZ
 40
0.0
  9
$DIMTOL
 70
     0
  9
$DIMLIM
 70
     0
  9
$DIMTIH
 70
     1
  9
$DIMTOH
 70
     1
  9
$DIMSE1
 70
     0
  9
$DIMSE2
 70
     0
  9
$DIMTAD
 70
     1
  9
$DIMZIN
 70
     0
  9
$DIMBLK
  1

  9
$DIMASO
 70
     1
  9
$DIMSHO
 70
     1
  9
$DIMPOST
  1

  9
$DIMAPOST
  1

  9
$DIMALT
 70
     0
  9
$DIMALTD
 70
     3
  9
$DIMALTF
 40
0.0393700787
  9
$DIMLFAC
 40
1.0
  9
$DIMTOFL
 70
     1
  9
$DIMTVP
 40
0.0
  9
$DIMTIX
 70
     0
  9
$DIMSOXD
 70
     0
  9
$DIMSAH
 70
     0
  9
$DIMBLK1
  1

  9
$DIMBLK2
  1

  9
$DIMSTYLE
  2
ISO-25
  9
$DIMCLRD
 70
     0
  9
$DIMCLRE
 70
     0
  9
$DIMCLRT
 70
     0
  9
$DIMTFAC
 40
1.0
  9
$DIMGAP
 40
3.0
  9
$DIMJUST
 70
     0
  9
$DIMSD1
 70
     0
  9
$DIMSD2
 70
     0
  9
$DIMTOLJ
 70
     0
  9
$DIMTZIN
 70
     0
  9
$DIMALTZ
 70
     0
  9
$DIMALTTZ
 70
     0
  9
$DIMUPT
 70
     0
  9
$DIMDEC
 70
     2
  9
$DIMTDEC
 70
     3
  9
$DIMALTU
 70
     2
  9
$DIMALTTD
 70
     3
  9
$DIMTXSTY
  7
Standard
  9
$DIMAUNIT
 70
     0
  9
$DIMADEC
 70
     2
  9
$DIMALTRND
 40
0.0
  9
$DIMAZIN
 70
     0
  9
$DIMDSEP
 70
    44
  9
$DIMATFIT
 70
     3
  9
$DIMFRAC
 70
     0
  9
$DIMLDRBLK
  1

  9
$DIMLUNIT
 70
     2
  9
$DIMLWD
 70
    -2
  9
$DIMLWE
 70
    -2
  9
$DIMTMOVE
 70
     0
  9
$LUNITS
 70
     2
  9
$LUPREC
 70
     4
  9
$SKETCHINC
 40
1.0
  9
$FILLETRAD
 40
10.0
  9
$AUNITS
 70
     0
  9
$AUPREC
 70
     2
  9
$MENU
  1
.
  9
$ELEVATION
 40
0.0
  9
$PELEVATION
 40
0.0
  9
$THICKNESS
 40
0.0
  9
$LIMCHECK
 70
     0
  9
$CHAMFERA
 40
0.0
  9
$CHAMFERB
 40
0.0
  9
$CHAMFERC
 40
0.0
  9
$CHAMFERD
 40
0.0
  9
$SKPOLY
 70
     0
  9
$TDCREATE
 40
2459275.529083866
  9
$TDUCREATE
 40
2459275.404083866
  9
$TDUPDATE
 40
2459275.529084456
  9
$TDUUPDATE
 40
2459275.404084456
  9
$TDINDWG
 40
0.0000000116
  9
$TDUSRTIMER
 40
0.0000000116
  9
$USRTIMER
 70
     1
  9
$ANGBASE
 50
0.0
  9
$ANGDIR
 70
     0
  9
$PDMODE
 70
     0
  9
$PDSIZE
 40
-1.0
  9
$PLINEWID
 40
0.0
  9
$SPLFRAME
 70
     0
  9
$SPLINETYPE
 70
     6
  9
$SPLINESEGS
 70
     8
  9
$HANDSEED
  5
21D
  9
$SURFTAB1
 70
     6
  9
$SURFTAB2
 70
     6
  9
$SURFTYPE
 70
     6
  9
$SURFU
 70
     6
  9
$SURFV
 70
     6
  9
$UCSBASE
  2

  9
$UCSNAME
  2

  9
$UCSORG
 10
0.0
 20
0.0
 30
0.0
  9
$UCSXDIR
 10
1.0
 20
0.0
 30
0.0
  9
$UCSYDIR
 10
0.0
 20
1.0
 30
0.0
  9
$UCSORTHOREF
  2

  9
$UCSORTHOVIEW
 70
     0
  9
$UCSORGTOP
 10
0.0
 20
0.0
 30
0.0
  9
$UCSORGBOTTOM
 10
0.0
 20
0.0
 30
0.0
  9
$UCSORGLEFT
 10
0.0
 20
0.0
 30
0.0
  9
$UCSORGRIGHT
 10
0.0
 20
0.0
 30
0.0
  9
$UCSORGFRONT
 10
0.0
 20
0.0
 30
0.0
  9
$UCSORGBACK
 10
0.0
 20
0.0
 30
0.0
  9
$PUCSBASE
  2

  9
$PUCSNAME
  2

  9
$PUCSORG
 10
0.0
 20
0.0
 30
0.0
  9
$PUCSXDIR
 10
1.0
 20
0.0
 30
0.0
  9
$PUCSYDIR
 10
0.0
 20
1.0
 30
0.0
  9
$PUCSORTHOREF
  2

  9
$PUCSORTHOVIEW
 70
     0
  9
$PUCSORGTOP
 10
0.0
 20
0.0
 30
0.0
  9
$PUCSORGBOTTOM
 10
0.0
 20
0.0
 30
0.0
  9
$PUCSORGLEFT
 10
0.0
 20
0.0
 30
0.0
  9
$PUCSORGRIGHT
 10
0.0
 20
0.0
 30
0.0
  9
$PUCSORGFRONT
 10
0.0
 20
0.0
 30
0.0
  9
$PUCSORGBACK
 10
0.0
 20
0.0
 30
0.0
  9
$USERI1
 70
     0
  9
$USERI2
 70
     0
  9
$USERI3
 70
     0
  9
$USERI4
 70
     0
  9
$USERI5
 70
     0
  9
$USERR1
 40
0.0
  9
$USERR2
 40
0.0
  9
$USERR3
 40
0.0
  9
$USERR4
 40
0.0
  9
$USERR5
 40
0.0
  9
$WORLDVIEW
 70
     1
  9
$SHADEDGE
 70
     3
  9
$SHADEDIF
 70
    70
  9
$TILEMODE
 70
     1
  9
$MAXACTVP
 70
    64
  9
$PINSBASE
 10
0.0
 20
0.0
 30
0.0
  9
$PLIMCHECK
 70
     0
  9
$PEXTMIN
 10
1.0000000000E+20
 20
1.0000000000E+20
 30
1.0000000000E+20
  9
$PEXTMAX
 10
-1.0000000000E+20
 20
-1.0000000000E+20
 30
-1.0000000000E+20
  9
$PLIMMIN
 10
0.0
 20
0.0
  9
$PLIMMAX
 10
420.0
 20
297.0
  9
$UNITMODE
 70
     0
  9
$VISRETAIN
 70
     1
  9
$PLINEGEN
 70
     0
  9
$PSLTSCALE
 70
     1
  9
$TREEDEPTH
 70
  3020
  9
$CMLSTYLE
  2
Standard
  9
$CMLJUST
 70
     0
  9
$CMLSCALE
 40
20.0
  9
$PROXYGRAPHICS
 70
     1
  9
$MEASUREMENT
 70
     1
  9
$CELWEIGHT
370
    -1
  9
$ENDCAPS
280
     0
  9
$JOINSTYLE
280
     0
  9
$LWDISPLAY
290
     1
  9
$INSUNITS
 70
     4
  9
$HYPERLINKBASE
  1

  9
$STYLESHEET
  1

  9
$XEDIT
290
     1
  9
$CEPSNTYPE
380
     0
  9
$PSTYLEMODE
290
     1
  9
$FINGERPRINTGUID
  2
{2f40efa2-efe7-447a-8cd6-4f2c059af006}
  9
$VERSIONGUID
  2
{FAEB1C32-E019-11D5-929B-00C0DF256EC4}
  9
$EXTNAMES
290
     1
  9
$PSVPSCALE
 40
0.0
  9
$OLESTARTUP
290
     0
  0
ENDSEC
  0
SECTION
  2
CLASSES
  0
CLASS
  1
ACDBDICTIONARYWDFLT
  2
AcDbDictionaryWithDefault
  3
ObjectDBX Classes
 90
        0
280
     0
281
     0
  0
CLASS
  1
VISUALSTYLE
  2
AcDbVisualStyle
  3
ObjectDBX Classes
 90
     4095
280
     0
281
     0
  0
CLASS
  1
MATERIAL
  2
AcDbMaterial
  3
ObjectDBX Classes
 90
     1153
280
     0
281
     0
  0
CLASS
  1
SCALE
  2
AcDbScale
  3
ObjectDBX Classes
 90
     1153
280
     0
281
     0
  0
CLASS
  1
TABLESTYLE
  2
AcDbTableStyle
  3
ObjectDBX Classes
 90
     4095
280
     0
281
     0
  0
CLASS
  1
MLEADERSTYLE
  2
AcDbMLeaderStyle
  3
ACDB_MLEADERSTYLE_CLASS
 90
     4095
280
     0
281
     0
  0
CLASS
  1
SUN
  2
AcDbSun
  3
SCENEOE
 90
     1153
280
     0
281
     0
  0
CLASS
  1
ACDBPLACEHOLDER
  2
AcDbPlaceHolder
  3
ObjectDBX Classes
 90
        0
280
     0
281
     0
  0
CLASS
  1
LAYOUT
  2
AcDbLayout
  3
ObjectDBX Classes
 90
        0
280
     0
281
     0
  0
ENDSEC
  0
SECTION
  2
TABLES
  0
TABLE
  2
VPORT
  5
8
330
0
100
AcDbSymbolTable
 70
     1
  0
VPORT
  5
29
330
8
100
AcDbSymbolTableRecord
100
AcDbViewportTableRecord
  2
*Active
 70
     0
 10
0.0
 20
0.0
 11
1.0
 21
1.0
 12
594.5
 22
420.5
 13
0.0
 23
0.0
 14
10.0
 24
10.0
 15
10.0
 25
10.0
 16
0.0
 26
0.0
 36
1.0
 17
0.0
 27
0.0
 37
0.0
 40
841.0
 41
1.4137931034
 42
50.0
 43
0.0
 44
0.0
 50
0.0
 51
0.0
 71
     0
 72
  2000
 73
     1
 74
     3
 75
     0
 76
     0
 77
     0
 78
     0
281
     0
 65
     1
110
0.0
120
0.0
130
0.0
111
1.0
121
0.0
131
0.0
112
0.0
122
1.0
132
0.0
 79
     0
146
0.0
  0
ENDTAB
  0
TABLE
  2
LTYPE
  5
5
330
0
100
AcDbSymbolTable
 70
     6
  0
LTYPE
  5
14
330
5
100
AcDbSymbolTableRecord
100
AcDbLinetypeTableRecord
  2
ByBlock
 70
     0
  3

 72
    65
 73
     0
 40
0.0
  0
LTYPE
  5
15
330
5
100
AcDbSymbolTableRecord
100
AcDbLinetypeTableRecord
  2
ByLayer
 70
     0
  3

 72
    65
 73
     0
 40
0.0
  0
LTYPE
  5
16
330
5
100
AcDbSymbolTableRecord
100
AcDbLinetypeTableRecord
  2
Continuous
 70
     0
  3
Solid line
 72
    65
 73
     0
 40
0.0
  0
LTYPE
  5
6E
330
5
100
AcDbSymbolTableRecord
100
AcDbLinetypeTableRecord
  2
HIDDEN
 70
     0
  3
Hidden __ __ __ __ __ __ __ __ __ __ __ __ __ __
 72
    65
 73
     2
 40
1.905
 49
1.27
 74
     0
 49
-0.635
 74
     0
  0
LTYPE
  5
6F
330
5
100
AcDbSymbolTableRecord
100
AcDbLinetypeTableRecord
  2
PHANTOM
 70
     0
  3
Phantom ______  __  __  ______  __  __  ______
 72
    65
 73
     6
 40
12.7
 49
6.35
 74
     0
 49
-1.27
 74
     0
 49
1.27
 74
     0
 49
-1.27
 74
     0
 49
1.27
 74
     0
 49
-1.27
 74
     0
  0
LTYPE
  5
70
330
5
100
AcDbSymbolTableRecord
100
AcDbLinetypeTableRecord
  2
CENTER
 70
     0
  3
Center ____ _ ____ _ ____ _ ____ _ ____ _ ____
 72
    65
 73
     4
 40
10.16
 49
6.35
 74
     0
 49
-1.27
 74
     0
 49
1.27
 74
     0
 49
-1.27
 74
     0
  0
LTYPE
  5
71
330
5
100
AcDbSymbolTableRecord
100
AcDbLinetypeTableRecord
  2
CENTERX2
 70
     0
  3
Center (2x) ________  __  ________  __  _____
 72
    65
 73
     4
 40
20.32
 49
12.7
 74
     0
 49
-2.54
 74
     0
 49
2.54
 74
     0
 49
-2.54
 74
     0
  0
LTYPE
  5
72
330
5
100
AcDbSymbolTableRecord
100
AcDbLinetypeTableRecord
  2
DOT2
 70
     0
  3
Dot (.5x) ........................................
 72
    65
 73
     2
 40
0.635
 49
0.0
 74
     0
 49
-0.635
 74
     0
  0
ENDTAB
  0
TABLE
  2
LAYER
  5
2
330
0
100
AcDbSymbolTable
 70
     5
  0
LAYER
  5
10
330
2
100
AcDbSymbolTableRecord
100
AcDbLayerTableRecord
  2
0
 70
     0
 62
     7
  6
Continuous
370
    -3
390
F
  0
LAYER
  5
73
330
2
100
AcDbSymbolTableRecord
100
AcDbLayerTableRecord
  2
ОСЕВЫЕ
 70
     0
 62
     7
  6
Continuous
370
    -3
390
F
  0
LAYER
  5
74
330
2
100
AcDbSymbolTableRecord
100
AcDbLayerTableRecord
  2
ВОДЯНЫЕ_ЗНАКИ
 70
     0
 62
    11
  6
Continuous
370
    -3
390
F
  0
LAYER
  5
75
330
2
100
AcDbSymbolTableRecord
100
AcDbLayerTableRecord
  2
ОСНОВНОЙ
 70
     0
 62
     7
  6
Continuous
370
    25
390
F
  0
LAYER
  5
76
330
2
100
AcDbSymbolTableRecord
100
AcDbLayerTableRecord
  2
FORMAT
 70
     0
 62
     7
  6
Continuous
370
    -3
390
F
  0
ENDTAB
  0
TABLE
  2
STYLE
  5
3
330
0
100
AcDbSymbolTable
 70
     1
  0
STYLE
  5
11
330
3
100
AcDbSymbolTableRecord
100
AcDbTextStyleTableRecord
  2
Standard
 70
     0
 40
0.0
 41
1.0
 50
0.0
 71
     0
 42
3.5
  3
txt
  4

  0
ENDTAB
  0
TABLE
  2
VIEW
  5
6
330
0
100
AcDbSymbolTable
 70
     0
  0
ENDTAB
  0
TABLE
  2
UCS
  5
7
330
0
100
AcDbSymbolTable
 70
     0
  0
ENDTAB
  0
TABLE
  2
APPID
  5
9
330
0
100
AcDbSymbolTable
 70
     1
  0
APPID
  5
12
330
9
100
AcDbSymbolTableRecord
100
AcDbRegAppTableRecord
  2
ACAD
 70
     0
  0
ENDTAB
  0
TABLE
  2
DIMSTYLE
  5
A
330
0
100
AcDbSymbolTable
 70
     1
100
AcDbDimStyleTable
  0
DIMSTYLE
105
27
330
A
100
AcDbSymbolTableRecord
100
AcDbDimStyleTableRecord
  2
ISO-25
 70
     0
 41
2.5
 42
0.625
 43
3.75
 44
1.25
 73
     0
 74
     0
 77
     1
 78
     8
140
2.5
141
2.5
143
0.0393700787
147
0.625
171
     3
172
     1
178
     0
271
     2
272
     2
274
     3
278
    44
283
     0
284
     8
340
11
  0
ENDTAB
  0
TABLE
  2
BLOCK_RECORD
  5
1
330
0
100
AcDbSymbolTable
 70
     1
  0
BLOCK_RECORD
  5
1F
330
1
100
AcDbSymbolTableRecord
100
AcDbBlockTableRecord
  2
*Model_Space
340
22
  0
BLOCK_RECORD
  5
1B
330
1
100
AcDbSymbolTableRecord
100
AcDbBlockTableRecord
  2
*Paper_Space
340
1E
  0
BLOCK_RECORD
  5
23
330
1
100
AcDbSymbolTableRecord
100
AcDbBlockTableRecord
  2
*Paper_Space0
340
26
  0
ENDTAB
  0
ENDSEC
  0
SECTION
  2
BLOCKS
  0
BLOCK
  5
20
330
1F
100
AcDbEntity
  8
0
100
AcDbBlockBegin
  2
*Model_Space
 70
     0
 10
0.0
 20
0.0
 30
0.0
  3
*Model_Space
  1

  0
ENDBLK
  5
21
330
1F
100
AcDbEntity
  8
0
100
AcDbBlockEnd
  0
BLOCK
  5
1C
330
1B
100
AcDbEntity
 67
     1
  8
0
100
AcDbBlockBegin
  2
*Paper_Space
 70
     0
 10
0.0
 20
0.0
 30
0.0
  3
*Paper_Space
  1

  0
ENDBLK
  5
1D
330
1B
100
AcDbEntity
 67
     1
  8
0
100
AcDbBlockEnd
  0
BLOCK
  5
24
330
23
100
AcDbEntity
  8
0
100
AcDbBlockBegin
  2
*Paper_Space0
 70
     0
 10
0.0
 20
0.0
 30
0.0
  3
*Paper_Space0
  1

  0
ENDBLK
  5
25
330
23
100
AcDbEntity
  8
0
100
AcDbBlockEnd
  0
ENDSEC
  0
SECTION
  2
ENTITIES
  0
LINE
  5
77
330
1F
100
AcDbEntity
  8
0
  6
Continuous
 62
     7
370
    25
100
AcDbLine
 10
627.8850580203
 20
175.9110302434
 30
0.0
 11
628.2347060435
 21
175.9110302434
 31
0.0
  0
LINE
  5
78
330
1F
100
AcDbEntity
  8
0
  6
Continuous
 62
     7
370
    25
100
AcDbLine
 10
628.2347060435
 20
175.9110302434
 30
0.0
 11
628.2347060435
 21
176.6032867538
 31
0.0
  0
LINE
  5
79
330
1F
100
AcDbEntity
  8
0
  6
Continuous
 62
     7
370
    25
100
AcDbLine
 10
628.2347060435
 20
768.618773733
 30
0.0
 11
628.2347060435
 21
768.9110302434
 31
0.0
  0
LINE
  5
7A
330
1F
100
AcDbEntity
  8
0
  6
Continuous
 62
     7
370
    25
100
AcDbLine
 10
628.2347060435
 20
768.9110302434
 30
0.0
 11
627.866876202
 21
768.9110302434
 31
0.0
  0
LINE
  5
7B
330
1F
100
AcDbEntity
  8
0
  6
Continuous
 62
     7
370
    25
100
AcDbLine
 10
629.3234190874
 20
175.6110302434
 30
0.0
 11
629.6347060434
 21
175.6110302434
 31
0.0
  0
SPLINE
  5
7C
330
1F
100
AcDbEntity
  8
0
  6
Continuous
 62
     7
370
    25
100
AcDbSpline
210
0.0
220
0.0
230
1.0
 70
     8
 71
     3
 72
     9
 73
     5
 74
     0
 42
0.00000001
 43
0.00000001
 40
0.0
 40
0.0
 40
0.0
 40
0.0
 40
0.5000000000000011
 40
1.0
 40
1.0
 40
1.0
 40
1.0
 10
628.4347060434241
 20
176.4032867538238
 30
0.0
 10
628.6036456795964
 20
176.2712440020813
 30
0.0
 10
628.9415249519411
 20
176.0071584985963
 30
0.0
 10
629.1961210422572
 20
175.7430729951113
 30
0.0
 10
629.3234190874153
 20
175.6110302433688
 30
0.0
  0
LINE
  5
7D
330
1F
100
AcDbEntity
  8
0
  6
Continuous
 62
     7
370
    25
100
AcDbLine
 10
628.4347060434
 20
768.8187737329
 30
0.0
 11
628.4347060434
 21
176.4032867538
 31
0.0
  0
SPLINE
  5
7E
330
1F
100
AcDbEntity
  8
0
  6
Continuous
 62
     7
370
    25
100
AcDbSpline
210
0.0
220
0.0
230
1.0
 70
     8
 71
     3
 72
     9
 73
     5
 74
     0
 42
0.00000001
 43
0.00000001
 40
0.0
 40
0.0
 40
0.0
 40
0.0
 40
0.5000000000000306
 40
0.9999999999999999
 40
0.9999999999999999
 40
0.9999999999999999
 40
0.9999999999999999
 10
629.3234190874153
 20
769.6110302433643
 30
0.0
 10
629.1961210422572
 20
769.4789874916216
 30
0.0
 10
628.941524951941
 20
769.2149019881367
 30
0.0
 10
628.6036456795963
 20
768.9508164846515
 30
0.0
 10
628.4347060434238
 20
768.8187737329091
 30
0.0
  0
LINE
  5
7F
330
1F
100
AcDbEntity
  8
0
  6
Continuous
 62
     7
370
    25
100
AcDbLine
 10
629.6347060434
 20
769.6110302434
 30
0.0
 11
629.3234190874
 21
769.6110302434
 31
0.0
  0
LINE
  5
80
330
1F
100
AcDbEntity
  8
0
  6
Continuous
 62
     7
370
    25
100
AcDbLine
 10
629.6347060434
 20
769.6110302434
 30
0.0
 11
629.6347060434
 21
175.6110302434
 31
0.0
  0
LINE
  5
81
330
1F
100
AcDbEntity
  8
0
  6
Continuous
 62
     7
370
    25
100
AcDbLine
 10
628.9531219858
 20
175.6110302434
 30
0.0
 11
629.3234190874
 21
175.6110302434
 31
0.0
  0
SPLINE
  5
82
330
1F
100
AcDbEntity
  8
0
  6
Continuous
 62
     7
370
    25
100
AcDbSpline
210
0.0
220
0.0
230
1.0
 70
     8
 71
     3
 72
     9
 73
     5
 74
     0
 42
0.00000001
 43
0.00000001
 40
0.0
 40
0.0
 40
0.0
 40
0.0
 40
0.4999999999999888
 40
1.0
 40
1.0
 40
1.0
 40
1.0
 10
628.434706043424
 20
176.4032867538238
 30
0.0
 10
628.5332541645246
 20
176.2712440020813
 30
0.0
 10
628.7303504067256
 20
176.0071584985963
 30
0.0
 10
628.8788647927433
 20
175.7430729951113
 30
0.0
 10
628.9531219857522
 20
175.6110302433688
 30
0.0
  0
LINE
  5
83
330
1F
100
AcDbEntity
  8
0
  6
Continuous
 62
     7
370
    25
100
AcDbLine
 10
628.4347060434
 20
176.4032867538
 30
0.0
 11
619.2269625539
 21
185.6110302434
 31
0.0
  0
LINE
  5
84
330
1F
100
AcDbEntity
  8
0
  6
Continuous
 62
     7
370
    25
100
AcDbLine
 10
619.2269625539
 20
185.6110302434
 30
0.0
 11
619.2269625539
 21
759.6110302434
 31
0.0
  0
LINE
  5
85
330
1F
100
AcDbEntity
  8
0
  6
Continuous
 62
     7
370
    25
100
AcDbLine
 10
619.2269625539
 20
759.6110302434
 30
0.0
 11
628.4347060434
 21
768.8187737329
 31
0.0
  0
SPLINE
  5
86
330
1F
100
AcDbEntity
  8
0
  6
Continuous
 62
     7
370
    25
100
AcDbSpline
210
0.0
220
0.0
230
1.0
 70
     8
 71
     3
 72
     9
 73
     5
 74
     0
 42
0.00000001
 43
0.00000001
 40
0.0
 40
0.0
 40
0.0
 40
0.0
 40
0.5000000000000221
 40
1.0
 40
1.0
 40
1.0
 40
1.0
 10
628.9531219857522
 20
769.6110302433643
 30
0.0
 10
628.8788647927433
 20
769.4789874916218
 30
0.0
 10
628.7303504067255
 20
769.2149019881366
 30
0.0
 10
628.5332541645245
 20
768.9508164846515
 30
0.0
 10
628.4347060434238
 20
768.8187737329091
 30
0.0
  0
LINE
  5
87
330
1F
100
AcDbEntity
  8
0
  6
Continuous
 62
     7
370
    25
100
AcDbLine
 10
628.9531219858
 20
769.6110302434
 30
0.0
 11
629.3234190874
 21
769.6110302434
 31
0.0
  0
LINE
  5
88
330
1F
100
AcDbEntity
  8
0
  6
Continuous
 62
     7
370
    25
100
AcDbLine
 10
628.4347060435
 20
174.4110302434
 30
0.0
 11
34.4347060435
 21
174.4110302434
 31
0.0
  0
LINE
  5
89
330
1F
100
AcDbEntity
  8
0
  6
Continuous
 62
     7
370
    25
100
AcDbLine
 10
34.4347060435
 20
174.7223171994
 30
0.0
 11
34.4347060435
 21
174.4110302434
 31
0.0
  0
LINE
  5
8A
330
1F
100
AcDbEntity
  8
0
  6
Continuous
 62
     7
370
    25
100
AcDbLine
 10
34.9347060435
 20
174.7223171994
 30
0.0
 11
34.4347060435
 21
174.7223171994
 31
0.0
  0
SPLINE
  5
8B
330
1F
100
AcDbEntity
  8
0
  6
Continuous
 62
     7
370
    25
100
AcDbSpline
210
0.0
220
0.0
230
1.0
 70
     8
 71
     3
 72
    11
 73
     7
 74
     0
 42
0.00000001
 43
0.00000001
 40
0.0
 40
0.0
 40
0.0
 40
0.0
 40
0.2500000000000081
 40
0.5000000000000173
 40
0.7500000000000248
 40
1.0
 40
1.0
 40
1.0
 40
1.0
 10
35.006729362618
 20
175.6110302433686
 30
0.0
 10
35.00072741935701
 20
175.5275972385954
 30
0.0
 10
34.988723532835
 20
175.3607312290488
 30
0.0
 10
34.97071770305171
 20
175.1219600569348
 30
0.0
 10
34.95271187326882
 20
174.9016213253638
 30
0.0
 10
34.9407079867467
 20
174.7820852413728
 30
0.0
 10
34.93470604348564
 20
174.7223171993773
 30
0.0
  0
LINE
  5
8C
330
1F
100
AcDbEntity
  8
0
  6
Continuous
 62
     7
370
    25
100
AcDbLine
 10
627.8986943839
 20
175.6110302434
 30
0.0
 11
35.0067293626
 21
175.6110302434
 31
0.0
  0
SPLINE
  5
8D
330
1F
100
AcDbEntity
  8
0
  6
Continuous
 62
     7
370
    25
100
AcDbSpline
210
0.0
220
0.0
230
1.0
 70
     8
 71
     3
 72
    11
 73
     7
 74
     0
 42
0.00000001
 43
0.00000001
 40
0.0
 40
0.0
 40
0.0
 40
0.0
 40
0.2500000000000122
 40
0.4999999999999991
 40
0.749999999999975
 40
1.0
 40
1.0
 40
1.0
 40
1.0
 10
627.9347060434906
 20
174.7223171993772
 30
0.0
 10
627.93170507186
 20
174.7820852413727
 30
0.0
 10
627.9257031285989
 20
174.9016213253637
 30
0.0
 10
627.9167002137074
 20
175.1219600569348
 30
0.0
 10
627.9076972988158
 20
175.3607312290488
 30
0.0
 10
627.9016953555547
 20
175.5275972385954
 30
0.0
 10
627.8986943839242
 20
175.6110302433687
 30
0.0
  0
LINE
  5
8E
330
1F
100
AcDbEntity
  8
0
  6
Continuous
 62
     7
370
    25
100
AcDbLine
 10
628.4347060435
 20
174.7223171994
 30
0.0
 11
627.9347060435
 21
174.7223171994
 31
0.0
  0
LINE
  5
8F
330
1F
100
AcDbEntity
  8
0
  6
Continuous
 62
     7
370
    25
100
AcDbLine
 10
628.4347060435
 20
174.4110302434
 30
0.0
 11
628.4347060435
 21
174.7223171994
 31
0.0
  0
LINE
  5
90
330
1F
100
AcDbEntity
  8
0
  6
Continuous
 62
     7
370
    25
100
AcDbLine
 10
34.9347060435
 20
175.092614301
 30
0.0
 11
34.9347060435
 21
174.7223171994
 31
0.0
  0
SPLINE
  5
91
330
1F
100
AcDbEntity
  8
0
  6
Continuous
 62
     7
370
    25
100
AcDbSpline
210
0.0
220
0.0
230
1.0
 70
     8
 71
     3
 72
    11
 73
     7
 74
     0
 42
0.00000001
 43
0.00000001
 40
0.0
 40
0.0
 40
0.0
 40
0.0
 40
0.2500000000000407
 40
0.4999999999999645
 40
0.7499999999999574
 40
1.0
 40
1.0
 40
1.0
 40
1.0
 10
35.0067293626179
 20
175.6110302433686
 30
0.0
 10
35.00072741935683
 20
175.5623609905842
 30
0.0
 10
34.98872353283483
 20
175.4650224850154
 30
0.0
 10
34.97071770305188
 20
175.3257393012824
 30
0.0
 10
34.95271187326848
 20
175.1972083745324
 30
0.0
 10
34.94070798674659
 20
175.1274789922043
 30
0.0
 10
34.93470604348558
 20
175.0926143010403
 30
0.0
  0
LINE
  5
92
330
1F
100
AcDbEntity
  8
0
  6
Continuous
 62
     7
370
    25
100
AcDbLine
 10
46.0566087984
 20
185.8187737329
 30
0.0
 11
619.2269625539
 21
185.818773733
 31
0.0
  0
LINE
  5
93
330
1F
100
AcDbEntity
  8
0
  6
Continuous
 62
     7
370
    25
100
AcDbLine
 10
627.8354435187
 20
177.0025492786
 30
0.0
 11
627.8986943839
 21
175.6110302434
 31
0.0
  0
LINE
  5
94
330
1F
100
AcDbEntity
  8
0
  6
Continuous
 62
     7
370
    25
100
AcDbLine
 10
35.0067293626
 20
175.6110302434
 30
0.0
 11
35.1158202717
 21
176.8110302432
 31
0.0
  0
LINE
  5
95
330
1F
100
AcDbEntity
  8
0
  6
Continuous
 62
     7
370
    25
100
AcDbLine
 10
619.2269625539
 20
759.4032867537
 30
0.0
 11
46.0566087984
 21
759.4032867537
 31
0.0
  0
LINE
  5
96
330
1F
100
AcDbEntity
  8
0
  6
Continuous
 62
     7
370
    25
100
AcDbLine
 10
35.0794566353
 20
768.8110302432
 30
0.0
 11
35.0067293626
 21
769.6110302432
 31
0.0
  0
LINE
  5
97
330
1F
100
AcDbEntity
  8
0
  6
Continuous
 62
     7
370
    25
100
AcDbLine
 10
627.8986943839
 20
769.6110302432
 30
0.0
 11
35.0067293626
 21
769.6110302432
 31
0.0
  0
LINE
  5
98
330
1F
100
AcDbEntity
  8
0
  6
Continuous
 62
     7
370
    25
100
AcDbLine
 10
627.8986943839
 20
769.6110302432
 30
0.0
 11
627.8354435186
 21
768.2195112081
 31
0.0
  0
LINE
  5
99
330
1F
100
AcDbEntity
  8
0
  6
Continuous
 62
     7
370
    25
100
AcDbLine
 10
34.4347060434
 20
770.8110302432
 30
0.0
 11
34.4347060434
 21
770.4997432872
 31
0.0
  0
LINE
  5
9A
330
1F
100
AcDbEntity
  8
0
  6
Continuous
 62
     7
370
    25
100
AcDbLine
 10
628.4347060434
 20
770.8110302432
 30
0.0
 11
34.4347060434
 21
770.8110302432
 31
0.0
  0
LINE
  5
9B
330
1F
100
AcDbEntity
  8
0
  6
Continuous
 62
     7
370
    25
100
AcDbLine
 10
628.4347060434
 20
770.4997432872
 30
0.0
 11
628.4347060434
 21
770.8110302432
 31
0.0
  0
LINE
  5
9C
330
1F
100
AcDbEntity
  8
0
  6
Continuous
 62
     7
370
    25
100
AcDbLine
 10
627.9347060434
 20
770.4997432872
 30
0.0
 11
628.4347060434
 21
770.4997432872
 31
0.0
  0
SPLINE
  5
9D
330
1F
100
AcDbEntity
  8
0
  6
Continuous
 62
     7
370
    25
100
AcDbSpline
210
0.0
220
0.0
230
1.0
 70
     8
 71
     3
 72
    11
 73
     7
 74
     0
 42
0.00000001
 43
0.00000001
 40
0.0
 40
0.0
 40
0.0
 40
0.0
 40
0.2500000000000123
 40
0.5000000000000289
 40
0.7499999999999888
 40
1.0
 40
1.0
 40
1.0
 40
1.0
 10
627.8986943838564
 20
769.6110302432351
 30
0.0
 10
627.9016953554869
 20
769.6944632480083
 30
0.0
 10
627.9076972987478
 20
769.8613292575549
 30
0.0
 10
627.9167002136395
 20
770.1001004296688
 30
0.0
 10
627.9257031285313
 20
770.32043916124
 30
0.0
 10
627.9317050717921
 20
770.4399752452309
 30
0.0
 10
627.9347060434226
 20
770.4997432872264
 30
0.0
  0
SPLINE
  5
9E
330
1F
100
AcDbEntity
  8
0
  6
Continuous
 62
     7
370
    25
100
AcDbSpline
210
0.0
220
0.0
230
1.0
 70
     8
 71
     3
 72
    11
 73
     7
 74
     0
 42
0.00000001
 43
0.00000001
 40
0.0
 40
0.0
 40
0.0
 40
0.0
 40
0.2500000000000119
 40
0.5000000000000063
 40
0.7500000000000017
 40
1.0
 40
1.0
 40
1.0
 40
1.0
 10
34.93470604342297
 20
770.4997432872323
 30
0.0
 10
34.94070798668402
 20
770.4399752452366
 30
0.0
 10
34.95271187320609
 20
770.3204391612458
 30
0.0
 10
34.97071770298921
 20
770.1001004296746
 30
0.0
 10
34.98872353277211
 20
769.8613292575607
 30
0.0
 10
35.00072741929428
 20
769.694463248014
 30
0.0
 10
35.00672936255522
 20
769.6110302432409
 30
0.0
  0
LINE
  5
9F
330
1F
100
AcDbEntity
  8
0
  6
Continuous
 62
     7
370
    25
100
AcDbLine
 10
34.4347060434
 20
770.4997432872
 30
0.0
 11
34.9347060434
 21
770.4997432872
 31
0.0
  0
LINE
  5
A0
330
1F
100
AcDbEntity
  8
0
  6
Continuous
 62
     7
370
    25
100
AcDbLine
 10
627.9347060434
 20
770.1294461856
 30
0.0
 11
627.9347060434
 21
770.4997432872
 31
0.0
  0
SPLINE
  5
A1
330
1F
100
AcDbEntity
  8
0
  6
Continuous
 62
     7
370
    25
100
AcDbSpline
210
0.0
220
0.0
230
1.0
 70
     8
 71
     3
 72
    11
 73
     7
 74
     0
 42
0.00000001
 43
0.00000001
 40
0.0
 40
0.0
 40
0.0
 40
0.0
 40
0.2500000000000548
 40
0.50000000000001
 40
0.7500000000000151
 40
1.0
 40
1.0
 40
1.0
 40
1.0
 10
627.8986943838564
 20
769.6110302432351
 30
0.0
 10
627.9016953554868
 20
769.6596994960195
 30
0.0
 10
627.9076972987478
 20
769.7570380015884
 30
0.0
 10
627.9167002136395
 20
769.8963211853213
 30
0.0
 10
627.9257031285313
 20
770.0248521120712
 30
0.0
 10
627.9317050717921
 20
770.0945814943992
 30
0.0
 10
627.9347060434226
 20
770.1294461855632
 30
0.0
  0
SPLINE
  5
A2
330
1F
100
AcDbEntity
  8
0
  6
Continuous
 62
     7
370
    25
100
AcDbSpline
210
0.0
220
0.0
230
1.0
 70
     8
 71
     3
 72
    11
 73
     7
 74
     0
 42
0.00000001
 43
0.00000001
 40
0.0
 40
0.0
 40
0.0
 40
0.0
 40
0.2500000000000486
 40
0.5000000000000113
 40
0.7499999999999994
 40
1.0
 40
1.0
 40
1.0
 40
1.0
 10
627.9347060434905
 20
175.0926143010403
 30
0.0
 10
627.9317050718599
 20
175.1274789922044
 30
0.0
 10
627.9257031285989
 20
175.1972083745325
 30
0.0
 10
627.9167002137073
 20
175.3257393012823
 30
0.0
 10
627.9076972988157
 20
175.4650224850154
 30
0.0
 10
627.9016953555545
 20
175.5623609905843
 30
0.0
 10
627.898694383924
 20
175.6110302433687
 30
0.0
  0
LINE
  5
A3
330
1F
100
AcDbEntity
  8
0
  6
Continuous
 62
     7
370
    25
100
AcDbLine
 10
627.9347060435
 20
175.092614301
 30
0.0
 11
627.9347060435
 21
174.7223171994
 31
0.0
  0
LINE
  5
A4
330
1F
100
AcDbEntity
  8
0
  6
Continuous
 62
     7
370
    25
100
AcDbLine
 10
34.9347060434
 20
770.1294461856
 30
0.0
 11
34.9347060434
 21
770.4997432872
 31
0.0
  0
SPLINE
  5
A5
330
1F
100
AcDbEntity
  8
0
  6
Continuous
 62
     7
370
    25
100
AcDbSpline
210
0.0
220
0.0
230
1.0
 70
     8
 71
     3
 72
    11
 73
     7
 74
     0
 42
0.00000001
 43
0.00000001
 40
0.0
 40
0.0
 40
0.0
 40
0.0
 40
0.2500000000000117
 40
0.5000000000000084
 40
0.7500000000000371
 40
1.0
 40
1.0
 40
1.0
 40
1.0
 10
34.93470604342297
 20
770.1294461855692
 30
0.0
 10
34.94070798668398
 20
770.0945814944051
 30
0.0
 10
34.95271187320592
 20
770.0248521120772
 30
0.0
 10
34.97071770298915
 20
769.8963211853272
 30
0.0
 10
34.98872353277216
 20
769.7570380015941
 30
0.0
 10
35.00072741929422
 20
769.6596994960252
 30
0.0
 10
35.00672936255522
 20
769.6110302432409
 30
0.0
  0
LINE
  5
A6
330
1F
100
AcDbEntity
  8
0
  6
Continuous
 62
     7
370
    25
100
AcDbLine
 10
34.4347060435
 20
175.092614301
 30
0.0
 11
34.4347060435
 21
174.7223171994
 31
0.0
  0
LINE
  5
A7
330
1F
100
AcDbEntity
  8
0
  6
Continuous
 62
     7
370
    25
100
AcDbLine
 10
34.9347060435
 20
175.092614301
 30
0.0
 11
34.4347060435
 21
175.092614301
 31
0.0
  0
LINE
  5
A8
330
1F
100
AcDbEntity
  8
0
  6
Continuous
 62
     7
370
    25
100
AcDbLine
 10
628.4347060434
 20
770.1294461856
 30
0.0
 11
628.4347060434
 21
770.4997432872
 31
0.0
  0
LINE
  5
A9
330
1F
100
AcDbEntity
  8
0
  6
Continuous
 62
     7
370
    25
100
AcDbLine
 10
627.9347060434
 20
770.1294461856
 30
0.0
 11
628.4347060434
 21
770.1294461856
 31
0.0
  0
LINE
  5
AA
330
1F
100
AcDbEntity
  8
0
  6
Continuous
 62
     7
370
    25
100
AcDbLine
 10
628.4347060435
 20
175.092614301
 30
0.0
 11
628.4347060435
 21
174.7223171994
 31
0.0
  0
LINE
  5
AB
330
1F
100
AcDbEntity
  8
0
  6
Continuous
 62
     7
370
    25
100
AcDbLine
 10
628.4347060435
 20
175.092614301
 30
0.0
 11
627.9347060435
 21
175.092614301
 31
0.0
  0
LINE
  5
AC
330
1F
100
AcDbEntity
  8
0
  6
Continuous
 62
     7
370
    25
100
AcDbLine
 10
34.4347060434
 20
770.1294461856
 30
0.0
 11
34.9347060434
 21
770.1294461856
 31
0.0
  0
LINE
  5
AD
330
1F
100
AcDbEntity
  8
0
  6
Continuous
 62
     7
370
    25
100
AcDbLine
 10
34.4347060434
 20
770.1294461856
 30
0.0
 11
34.4347060434
 21
770.4997432872
 31
0.0
  0
SPLINE
  5
AE
330
1F
100
AcDbEntity
  8
0
  6
Continuous
 62
     7
370
    25
100
AcDbSpline
210
0.0
220
0.0
230
1.0
 70
     8
 71
     3
 72
    11
 73
     7
 74
     0
 42
0.00000001
 43
0.00000001
 40
0.0
 40
0.0
 40
0.0
 40
0.0
 40
0.2499999999999773
 40
0.49999999999998
 40
0.7499999999999858
 40
1.0
 40
1.0
 40
1.0
 40
1.0
 10
629.1347060434238
 20
175.6110302433687
 30
0.0
 10
629.1241839424728
 20
175.5193043127043
 30
0.0
 10
629.1031397405704
 20
175.3358524513757
 30
0.0
 10
628.9412652913849
 20
175.1044709954077
 30
0.0
 10
628.7098838354168
 20
174.9425965462221
 30
0.0
 10
628.5264319740882
 20
174.9215523443198
 30
0.0
 10
628.4347060434238
 20
174.9110302433687
 30
0.0
  0
SPLINE
  5
AF
330
1F
100
AcDbEntity
  8
0
  6
Continuous
 62
     7
370
    25
100
AcDbSpline
210
0.0
220
0.0
230
1.0
 70
     8
 71
     3
 72
    11
 73
     7
 74
     0
 42
0.00000001
 43
0.00000001
 40
0.0
 40
0.0
 40
0.0
 40
0.0
 40
0.2500000000000019
 40
0.5
 40
0.7499999999999981
 40
1.0
 40
1.0
 40
1.0
 40
1.0
 10
629.6347060434239
 20
175.6110302433688
 30
0.0
 10
629.6166681560791
 20
175.4537857908013
 30
0.0
 10
629.5805923813896
 20
175.1392968856663
 30
0.0
 10
629.3030933256426
 20
174.74264296115
 30
0.0
 10
628.9064394011264
 20
174.465143905403
 30
0.0
 10
628.5919504959913
 20
174.4290681307134
 30
0.0
 10
628.4347060434237
 20
174.4110302433687
 30
0.0
  0
SPLINE
  5
B0
330
1F
100
AcDbEntity
  8
0
  6
Continuous
 62
     7
370
    25
100
AcDbSpline
210
0.0
220
0.0
230
1.0
 70
     8
 71
     3
 72
    11
 73
     7
 74
     0
 42
0.00000001
 43
0.00000001
 40
0.0
 40
0.0
 40
0.0
 40
0.0
 40
0.2499999999999919
 40
0.5000000000000097
 40
0.7500000000000039
 40
1.0
 40
1.0
 40
1.0
 40
1.0
 10
628.4347060435871
 20
770.811030243235
 30
0.0
 10
628.5919504961385
 20
770.792992355872
 30
0.0
 10
628.9064394012414
 20
770.7569165811461
 30
0.0
 10
629.303093325698
 20
770.4794175253911
 30
0.0
 10
629.5805923813991
 20
770.0827636008967
 30
0.0
 10
629.6166681560821
 20
769.7682746957889
 30
0.0
 10
629.6347060434239
 20
769.6110302432351
 30
0.0
  0
SPLINE
  5
B1
330
1F
100
AcDbEntity
  8
0
  6
Continuous
 62
     7
370
    25
100
AcDbSpline
210
0.0
220
0.0
230
1.0
 70
     8
 71
     3
 72
    11
 73
     7
 74
     0
 42
0.00000001
 43
0.00000001
 40
0.0
 40
0.0
 40
0.0
 40
0.0
 40
0.2499999999999689
 40
0.499999999999985
 40
0.7499999999999866
 40
1.0
 40
1.0
 40
1.0
 40
1.0
 10
628.4347060435191
 20
770.311030243235
 30
0.0
 10
628.5264319741741
 20
770.3005081422731
 30
0.0
 10
628.7098838354841
 20
770.2794639403497
 30
0.0
 10
628.9412652914173
 20
770.1175894911595
 30
0.0
 10
629.1031397405761
 20
769.8862080352043
 30
0.0
 10
629.1241839424746
 20
769.7027561738914
 30
0.0
 10
629.1347060434238
 20
769.6110302432351
 30
0.0
  0
LINE
  5
B2
330
1F
100
AcDbEntity
  8
0
  6
Continuous
 62
     7
370
    25
100
AcDbLine
 10
33.2347060435
 20
175.6110302432
 30
0.0
 11
33.7347060435
 21
175.6110302432
 31
0.0
  0
LINE
  5
B3
330
1F
100
AcDbEntity
  8
0
  6
Continuous
 62
     7
370
    25
100
AcDbLine
 10
33.2347060435
 20
769.6110302432
 30
0.0
 11
33.7347060435
 21
769.6110302432
 31
0.0
  0
LINE
  5
B4
330
1F
100
AcDbEntity
  8
0
  6
Continuous
 62
     7
370
    25
100
AcDbLine
 10
33.7347060435
 20
769.6110302432
 30
0.0
 11
33.7347060435
 21
769.3110302433
 31
0.0
  0
LINE
  5
B5
330
1F
100
AcDbEntity
  8
0
  6
Continuous
 62
     7
370
    25
100
AcDbLine
 10
33.7347060435
 20
176.3110302433
 30
0.0
 11
33.7347060435
 21
175.6110302432
 31
0.0
  0
LINE
  5
B6
330
1F
100
AcDbEntity
  8
0
  6
Continuous
 62
     7
370
    25
100
AcDbLine
 10
33.2347060435
 20
769.6110302432
 30
0.0
 11
33.2347060435
 21
175.6110302432
 31
0.0
  0
SPLINE
  5
B7
330
1F
100
AcDbEntity
  8
0
  6
Continuous
 62
     7
370
    25
100
AcDbSpline
210
0.0
220
0.0
230
1.0
 70
     8
 71
     3
 72
    11
 73
     7
 74
     0
 42
0.00000001
 43
0.00000001
 40
0.0
 40
0.0
 40
0.0
 40
0.0
 40
0.2349722125069057
 40
0.327735051980134
 40
0.4088708125385268
 40
1.0
 40
1.0
 40
1.0
 40
1.0
 10
627.9347060434842
 20
175.6110302433686
 30
0.0
 10
627.9476943306328
 20
175.5594738225012
 30
0.0
 10
627.9658101619407
 20
175.4875638460296
 30
0.0
 10
628.0143283577374
 20
175.4109846252548
 30
0.0
 10
628.1438744177392
 20
175.3015347099279
 30
0.0
 10
628.2986289019285
 20
175.2791061173855
 30
0.0
 10
628.4347060434848
 20
175.2593844351461
 30
0.0
  0
SPLINE
  5
B8
330
1F
100
AcDbEntity
  8
0
  6
Continuous
 62
     7
370
    25
100
AcDbSpline
210
0.0
220
0.0
230
1.0
 70
     8
 71
     3
 72
     9
 73
     5
 74
     0
 42
0.00000001
 43
0.00000001
 40
0.0
 40
0.0
 40
0.0
 40
0.0
 40
0.768280917959941
 40
1.0
 40
1.0
 40
1.0
 40
1.0
 10
34.43470604348597
 20
175.2593844350608
 30
0.0
 10
34.51556964511165
 20
175.2693164107407
 30
0.0
 10
34.62082229389579
 20
175.2822439421262
 30
0.0
 10
34.71486088246623
 20
175.3260762481579
 30
0.0
 10
34.73665141788618
 20
175.3362330298753
 30
0.0
  0
LINE
  5
B9
330
1F
100
AcDbEntity
  8
0
  6
Continuous
 62
     7
370
    25
100
AcDbLine
 10
34.4347060435
 20
175.092614301
 30
0.0
 11
34.4347060435
 21
175.2593844351
 31
0.0
  0
LINE
  5
BA
330
1F
100
AcDbEntity
  8
0
  6
Continuous
 62
     7
370
    25
100
AcDbLine
 10
628.4347060435
 20
175.2593844351
 30
0.0
 11
628.4347060435
 21
175.092614301
 31
0.0
  0
SPLINE
  5
BB
330
1F
100
AcDbEntity
  8
0
  6
Continuous
 62
     7
370
    25
100
AcDbSpline
210
0.0
220
0.0
230
1.0
 70
     8
 71
     3
 72
    12
 73
     8
 74
     0
 42
0.00000001
 43
0.00000001
 40
0.0
 40
0.0
 40
0.0
 40
0.0
 40
0.358803790918232
 40
0.5752394285264966
 40
0.6544863257105058
 40
0.7503396585508647
 40
0.9999999999999999
 40
0.9999999999999999
 40
0.9999999999999999
 40
0.9999999999999999
 10
628.4347060434235
 20
769.9626760514612
 30
0.0
 10
628.3560941527174
 20
769.9491872158086
 30
0.0
 10
628.2300624322348
 20
769.9275617193429
 30
0.0
 10
628.0862705302338
 20
769.8808160756838
 30
0.0
 10
628.0265869470776
 20
769.8182492382899
 30
0.0
 10
627.977203998398
 20
769.7388942461105
 30
0.0
 10
627.952532853179
 20
769.6646659359448
 30
0.0
 10
627.9347060434242
 20
769.6110302432351
 30
0.0
  0
LINE
  5
BC
330
1F
100
AcDbEntity
  8
0
  6
Continuous
 62
     7
370
    25
100
AcDbLine
 10
628.4347060434
 20
770.1294461856
 30
0.0
 11
628.4347060434
 21
769.9626760515
 31
0.0
  0
LINE
  5
BD
330
1F
100
AcDbEntity
  8
0
  6
Continuous
 62
     7
370
    25
100
AcDbLine
 10
34.0205632006
 20
175.6110302432
 30
0.0
 11
33.7347060435
 21
175.6110302432
 31
0.0
  0
SPLINE
  5
BE
330
1F
100
AcDbEntity
  8
0
  6
Continuous
 62
     7
370
    25
100
AcDbSpline
210
0.0
220
0.0
230
1.0
 70
     8
 71
     3
 72
    12
 73
     8
 74
     0
 42
0.00000001
 43
0.00000001
 40
0.0
 40
0.0
 40
0.0
 40
0.0
 40
0.358803790863956
 40
0.5752394285418503
 40
0.6544863256770155
 40
0.750339658495238
 40
1.0
 40
1.0
 40
1.0
 40
1.0
 10
34.0830602351781
 20
769.6110302432348
 30
0.0
 10
34.09654907083792
 20
769.5324183525315
 30
0.0
 10
34.11817456731875
 20
769.4063866320308
 30
0.0
 10
34.16492021097428
 20
769.2625947300204
 30
0.0
 10
34.22748704835887
 20
769.2029111468386
 30
0.0
 10
34.30684204055984
 20
769.1535281981767
 30
0.0
 10
34.38107035075094
 20
769.128857052978
 30
0.0
 10
34.43470604348581
 20
769.1110302432352
 30
0.0
  0
LINE
  5
BF
330
1F
100
AcDbEntity
  8
0
  6
Continuous
 62
     7
370
    25
100
AcDbLine
 10
33.7347060435
 20
769.6110302432
 30
0.0
 11
34.0830602352
 21
769.6110302432
 31
0.0
  0
SPLINE
  5
C0
330
1F
100
AcDbEntity
  8
0
  6
Continuous
 62
     7
370
    25
100
AcDbSpline
210
0.0
220
0.0
230
1.0
 70
     8
 71
     3
 72
    12
 73
     8
 74
     0
 42
0.00000001
 43
0.00000001
 40
0.0
 40
0.0
 40
0.0
 40
0.0
 40
0.3588037910417903
 40
0.5752394285407798
 40
0.6544863257878489
 40
0.7503396586492844
 40
1.0
 40
1.0
 40
1.0
 40
1.0
 10
628.7863518516848
 20
175.6110302433686
 30
0.0
 10
628.772863016029
 20
175.689642134105
 30
0.0
 10
628.7512375195652
 20
175.815673854596
 30
0.0
 10
628.7044918758853
 20
175.959465756626
 30
0.0
 10
628.6419250384556
 20
176.0191493397409
 30
0.0
 10
628.5625700462745
 20
176.0685322884184
 30
0.0
 10
628.4883417361181
 20
176.0932034336252
 30
0.0
 10
628.4347060434241
 20
176.1110302433685
 30
0.0
  0
SPLINE
  5
C1
330
1F
100
AcDbEntity
  8
0
  6
Continuous
 62
     7
370
    25
100
AcDbSpline
210
0.0
220
0.0
230
1.0
 70
     8
 71
     3
 72
    11
 73
     7
 74
     0
 42
0.00000001
 43
0.00000001
 40
0.0
 40
0.0
 40
0.0
 40
0.0
 40
0.234972212549723
 40
0.3277350520120136
 40
0.4088708125424454
 40
0.9999999999999999
 40
0.9999999999999999
 40
0.9999999999999999
 40
0.9999999999999999
 10
628.4347060434241
 20
769.1110302432411
 30
0.0
 10
628.4862624643013
 20
769.1240185303902
 30
0.0
 10
628.5581724407807
 20
769.1421343616976
 30
0.0
 10
628.6347516615584
 20
769.1906525574944
 30
0.0
 10
628.744201576842
 20
769.3201986175253
 30
0.0
 10
628.7666301693961
 20
769.474953101696
 30
0.0
 10
628.7863518516466
 20
769.6110302432411
 30
0.0
  0
ARC
  5
C2
330
1F
100
AcDbEntity
  8
0
  6
Continuous
 62
     7
370
    25
100
AcDbCircle
 10
628.4347060434
 20
769.6110302432
 30
0.0
 40
0.5
100
AcDbArc
 50
180.0000000007
 51
270.0
  0
ARC
  5
C3
330
1F
100
AcDbEntity
  8
0
  6
Continuous
 62
     7
370
    25
100
AcDbCircle
 10
34.4347060435
 20
175.6110302432
 30
0.0
 40
0.499999999999954
100
AcDbArc
 50
23.5781784784
 51
90.0
  0
ARC
  5
C4
330
1F
100
AcDbEntity
  8
0
  6
Continuous
 62
     7
370
    25
100
AcDbCircle
 10
34.4347060434
 20
769.6110302432
 30
0.0
 40
0.4999999999999432
100
AcDbArc
 50
270.0000000153
 51
0.0000000007
  0
ARC
  5
C5
330
1F
100
AcDbEntity
  8
0
  6
Continuous
 62
     7
370
    25
100
AcDbCircle
 10
628.4347060435
 20
175.6110302434
 30
0.0
 40
0.5
100
AcDbArc
 50
143.1301023536
 51
180.0
  0
ARC
  5
C6
330
1F
100
AcDbEntity
  8
0
  6
Continuous
 62
     7
370
    25
100
AcDbCircle
 10
628.4347060435
 20
175.6110302434
 30
0.0
 40
0.4999999999999432
100
AcDbArc
 50
90.0000000069
 51
113.578178478
  0
LINE
  5
C7
330
1F
100
AcDbEntity
  8
0
  6
Continuous
 62
     7
370
    25
100
AcDbLine
 10
33.7347060435
 20
768.9450048395
 30
0.0
 11
33.7347060435
 21
176.677055647
 31
0.0
  0
SPLINE
  5
C8
330
1F
100
AcDbEntity
  8
0
  6
Continuous
 62
     7
370
    25
100
AcDbSpline
210
0.0
220
0.0
230
1.0
 70
     8
 71
     3
 72
     9
 73
     5
 74
     0
 42
0.00000001
 43
0.00000001
 40
0.0
 40
0.0
 40
0.0
 40
0.0
 40
0.5000000000000112
 40
1.0
 40
1.0
 40
1.0
 40
1.0
 10
33.94881878270623
 20
768.8110302432359
 30
0.0
 10
33.88712666820592
 20
768.8333593426053
 30
0.0
 10
33.76374243920522
 20
768.8780175413439
 30
0.0
 10
33.74438484205722
 20
768.9226757400824
 30
0.0
 10
33.73470604348316
 20
768.9450048394516
 30
0.0
  0
LINE
  5
C9
330
1F
100
AcDbEntity
  8
0
  6
Continuous
 62
     7
370
    25
100
AcDbLine
 10
34.7347060435
 20
768.8110302432
 30
0.0
 11
33.9488187827
 21
768.8110302432
 31
0.0
  0
LINE
  5
CA
330
1F
100
AcDbEntity
  8
0
  6
Continuous
 62
     7
370
    25
100
AcDbLine
 10
34.7347060435
 20
768.8110302432
 30
0.0
 11
34.7347060435
 21
176.8110302432
 31
0.0
  0
LINE
  5
CB
330
1F
100
AcDbEntity
  8
0
  6
Continuous
 62
     7
370
    25
100
AcDbLine
 10
33.9488187827
 20
176.8110302432
 30
0.0
 11
34.7347060435
 21
176.8110302432
 31
0.0
  0
SPLINE
  5
CC
330
1F
100
AcDbEntity
  8
0
  6
Continuous
 62
     7
370
    25
100
AcDbSpline
210
0.0
220
0.0
230
1.0
 70
     8
 71
     3
 72
     9
 73
     5
 74
     0
 42
0.00000001
 43
0.00000001
 40
0.0
 40
0.0
 40
0.0
 40
0.0
 40
0.499999999999997
 40
1.0
 40
1.0
 40
1.0
 40
1.0
 10
33.73470604348938
 20
176.6770556470204
 30
0.0
 10
33.74438484206349
 20
176.6993847463897
 30
0.0
 10
33.76374243921154
 20
176.7440429451283
 30
0.0
 10
33.88712666821208
 20
176.7887011438668
 30
0.0
 10
33.94881878271244
 20
176.811030243236
 30
0.0
  0
ARC
  5
CD
330
1F
100
AcDbEntity
  8
0
  6
Continuous
 62
     7
370
    25
100
AcDbCircle
 10
35.6728727932
 20
767.8110302432
 30
0.0
 40
1.000000000000114
100
AcDbArc
 50
48.0127875042
 51
90.0
  0
LINE
  5
CE
330
1F
100
AcDbEntity
  8
0
  6
Continuous
 62
     7
370
    25
100
AcDbLine
 10
36.3418375248
 20
768.5543243895
 30
0.0
 11
46.0566087984
 21
759.8110302432
 31
0.0
  0
LINE
  5
CF
330
1F
100
AcDbEntity
  8
0
  6
Continuous
 62
     7
370
    25
100
AcDbLine
 10
46.0566087984
 20
759.8110302432
 30
0.0
 11
46.0566087984
 21
185.8110302432
 31
0.0
  0
LINE
  5
D0
330
1F
100
AcDbEntity
  8
0
  6
Continuous
 62
     7
370
    25
100
AcDbLine
 10
46.0566087984
 20
185.8110302432
 30
0.0
 11
36.3418375248
 21
177.067736097
 31
0.0
  0
ARC
  5
D1
330
1F
100
AcDbEntity
  8
0
  6
Continuous
 62
     7
370
    25
100
AcDbCircle
 10
35.6728727932
 20
177.8110302432
 30
0.0
 40
0.9999999999998901
100
AcDbArc
 50
270.0
 51
311.9872124958
  0
LINE
  5
D2
330
1F
100
AcDbEntity
  8
0
  6
Continuous
 62
     7
370
    25
100
AcDbLine
 10
34.7347060435
 20
768.8110302432
 30
0.0
 11
35.6728727932
 21
768.8110302432
 31
0.0
  0
LINE
  5
D3
330
1F
100
AcDbEntity
  8
0
  6
Continuous
 62
     7
370
    25
100
AcDbLine
 10
35.6728727932
 20
176.8110302432
 30
0.0
 11
34.7347060435
 21
176.8110302432
 31
0.0
  0
SPLINE
  5
D4
330
1F
100
AcDbEntity
  8
0
  6
Continuous
 62
     7
370
    25
100
AcDbSpline
210
0.0
220
0.0
230
1.0
 70
     8
 71
     3
 72
     9
 73
     5
 74
     0
 42
0.00000001
 43
0.00000001
 40
0.0
 40
0.0
 40
0.0
 40
0.0
 40
0.500000000000021
 40
0.9999999999999999
 40
0.9999999999999999
 40
0.9999999999999999
 40
0.9999999999999999
 10
34.23470604348938
 20
176.6770556470204
 30
0.0
 10
34.23954544277641
 20
176.6993847463897
 30
0.0
 10
34.2492242413504
 20
176.7440429451283
 30
0.0
 10
34.31091635585076
 20
176.7887011438669
 30
0.0
 10
34.34176241310089
 20
176.811030243236
 30
0.0
  0
LINE
  5
D5
330
1F
100
AcDbEntity
  8
0
  6
Continuous
 62
     7
370
    25
100
AcDbLine
 10
34.2347060435
 20
176.677055647
 30
0.0
 11
33.7347060435
 21
176.677055647
 31
0.0
  0
LINE
  5
D6
330
1F
100
AcDbEntity
  8
0
  6
Continuous
 62
     7
370
    25
100
AcDbLine
 10
33.7347060435
 20
768.9450048395
 30
0.0
 11
34.2347060435
 21
768.9450048395
 31
0.0
  0
SPLINE
  5
D7
330
1F
100
AcDbEntity
  8
0
  6
Continuous
 62
     7
370
    25
100
AcDbSpline
210
0.0
220
0.0
230
1.0
 70
     8
 71
     3
 72
     9
 73
     5
 74
     0
 42
0.00000001
 43
0.00000001
 40
0.0
 40
0.0
 40
0.0
 40
0.0
 40
0.500000000000008
 40
1.0
 40
1.0
 40
1.0
 40
1.0
 10
34.34176241309467
 20
768.8110302432359
 30
0.0
 10
34.31091635584449
 20
768.8333593426053
 30
0.0
 10
34.24922424134424
 20
768.8780175413436
 30
0.0
 10
34.23954544277014
 20
768.9226757400824
 30
0.0
 10
34.23470604348316
 20
768.9450048394516
 30
0.0
  0
LINE
  5
D8
330
1F
100
AcDbEntity
  8
0
  6
Continuous
 62
     7
370
    25
100
AcDbLine
 10
34.2347060435
 20
176.3110302432
 30
0.0
 11
33.7347060435
 21
176.3110302432
 31
0.0
  0
LINE
  5
D9
330
1F
100
AcDbEntity
  8
0
  6
Continuous
 62
     7
370
    25
100
AcDbLine
 10
34.2347060435
 20
176.677055647
 30
0.0
 11
34.2347060435
 21
176.3110302432
 31
0.0
  0
LINE
  5
DA
330
1F
100
AcDbEntity
  8
0
  6
Continuous
 62
     7
370
    25
100
AcDbLine
 10
33.7347060435
 20
176.677055647
 30
0.0
 11
33.7347060435
 21
176.3110302432
 31
0.0
  0
LINE
  5
DB
330
1F
100
AcDbEntity
  8
0
  6
Continuous
 62
     7
370
    25
100
AcDbLine
 10
34.2347060435
 20
769.3110302432
 30
0.0
 11
33.7347060435
 21
769.3110302432
 31
0.0
  0
LINE
  5
DC
330
1F
100
AcDbEntity
  8
0
  6
Continuous
 62
     7
370
    25
100
AcDbLine
 10
34.2347060435
 20
769.3110302432
 30
0.0
 11
34.2347060435
 21
768.9450048395
 31
0.0
  0
LINE
  5
DD
330
1F
100
AcDbEntity
  8
0
  6
Continuous
 62
     7
370
    25
100
AcDbLine
 10
33.7347060435
 20
769.3110302432
 30
0.0
 11
33.7347060435
 21
768.9450048395
 31
0.0
  0
SPLINE
  5
DE
330
1F
100
AcDbEntity
  8
0
  6
Continuous
 62
     7
370
    25
100
AcDbSpline
210
0.0
220
0.0
230
1.0
 70
     8
 71
     3
 72
     9
 73
     5
 74
     0
 42
0.00000001
 43
0.00000001
 40
0.0
 40
0.0
 40
0.0
 40
0.0
 40
0.4999999999999648
 40
1.0
 40
1.0
 40
1.0
 40
1.0
 10
33.94881878271244
 20
175.6926604401663
 30
0.0
 10
33.88712666821214
 20
175.7867171763806
 30
0.0
 10
33.76374243921148
 20
175.9748306488092
 30
0.0
 10
33.74438484206338
 20
176.1989637117605
 30
0.0
 10
33.73470604348938
 20
176.3110302432361
 30
0.0
  0
SPLINE
  5
DF
330
1F
100
AcDbEntity
  8
0
  6
Continuous
 62
     7
370
    25
100
AcDbSpline
210
0.0
220
0.0
230
1.0
 70
     8
 71
     3
 72
     9
 73
     5
 74
     0
 42
0.00000001
 43
0.00000001
 40
0.0
 40
0.0
 40
0.0
 40
0.0
 40
0.5000000000000114
 40
1.0
 40
1.0
 40
1.0
 40
1.0
 10
34.34176241310089
 20
176.0018453417012
 30
0.0
 10
34.31091635585065
 20
176.0488737098083
 30
0.0
 10
34.2492242413504
 20
176.1429304460226
 30
0.0
 10
34.23954544277647
 20
176.2549969774983
 30
0.0
 10
34.23470604348938
 20
176.3110302432361
 30
0.0
  0
LINE
  5
E0
330
1F
100
AcDbEntity
  8
0
  6
Continuous
 62
     7
370
    25
100
AcDbLine
 10
34.3417624131
 20
176.0018453417
 30
0.0
 11
33.9488187827
 21
175.6926604402
 31
0.0
  0
LINE
  5
E1
330
1F
100
AcDbEntity
  8
0
  6
Continuous
 62
     7
370
    25
100
AcDbLine
 10
34.3417624131
 20
769.6202151448
 30
0.0
 11
33.9488187827
 21
769.9294000463
 31
0.0
  0
SPLINE
  5
E2
330
1F
100
AcDbEntity
  8
0
  6
Continuous
 62
     7
370
    25
100
AcDbSpline
210
0.0
220
0.0
230
1.0
 70
     8
 71
     3
 72
     9
 73
     5
 74
     0
 42
0.00000001
 43
0.00000001
 40
0.0
 40
0.0
 40
0.0
 40
0.0
 40
0.4999999999999249
 40
0.9999999999999999
 40
0.9999999999999999
 40
0.9999999999999999
 40
0.9999999999999999
 10
34.23470604348316
 20
769.311030243236
 30
0.0
 10
34.23954544277025
 20
769.3670635089737
 30
0.0
 10
34.24922424134436
 20
769.4791300404494
 30
0.0
 10
34.31091635584443
 20
769.5731867766638
 30
0.0
 10
34.34176241309467
 20
769.6202151447709
 30
0.0
  0
SPLINE
  5
E3
330
1F
100
AcDbEntity
  8
0
  6
Continuous
 62
     7
370
    25
100
AcDbSpline
210
0.0
220
0.0
230
1.0
 70
     8
 71
     3
 72
     9
 73
     5
 74
     0
 42
0.00000001
 43
0.00000001
 40
0.0
 40
0.0
 40
0.0
 40
0.0
 40
0.5000000000000169
 40
1.0
 40
1.0
 40
1.0
 40
1.0
 10
33.73470604348316
 20
769.311030243236
 30
0.0
 10
33.74438484205722
 20
769.4230967747116
 30
0.0
 10
33.76374243920532
 20
769.6472298376628
 30
0.0
 10
33.88712666820592
 20
769.8353433100914
 30
0.0
 10
33.94881878270617
 20
769.9294000463058
 30
0.0
  0
LINE
  5
E4
330
1F
100
AcDbEntity
  8
0
  6
Continuous
 62
     7
370
    25
100
AcDbLine
 10
34.7347060435
 20
175.8110302432
 30
0.0
 11
34.7347060435
 21
175.3110302432
 31
0.0
  0
ARC
  5
E5
330
1F
100
AcDbEntity
  8
0
  6
Continuous
 62
     7
370
    25
100
AcDbCircle
 10
34.7347060435
 20
176.3110302432
 30
0.0
 40
1.000000000000021
100
AcDbArc
 50
218.1971863421
 51
270.0
  0
ARC
  5
E6
330
1F
100
AcDbEntity
  8
0
  6
Continuous
 62
     7
370
    25
100
AcDbCircle
 10
34.7347060435
 20
176.3110302432
 30
0.0
 40
0.5
100
AcDbArc
 50
218.1971863421
 51
270.0
  0
ARC
  5
E7
330
1F
100
AcDbEntity
  8
0
  6
Continuous
 62
     7
370
    25
100
AcDbCircle
 10
34.7347060435
 20
769.3110302432
 30
0.0
 40
0.5000000000000211
100
AcDbArc
 50
90.0
 51
141.8028136579
  0
ARC
  5
E8
330
1F
100
AcDbEntity
  8
0
  6
Continuous
 62
     7
370
    25
100
AcDbCircle
 10
34.7347060435
 20
769.3110302432
 30
0.0
 40
1.000000000000055
100
AcDbArc
 50
107.4576031316
 51
141.8028136579
  0
LINE
  5
E9
330
1F
100
AcDbEntity
  8
0
  6
Continuous
 62
     7
370
    25
100
AcDbLine
 10
34.7347060435
 20
175.8110302432
 30
0.0
 11
35.0249111808
 21
175.8110302432
 31
0.0
  0
LINE
  5
EA
330
1F
100
AcDbEntity
  8
0
  6
Continuous
 62
     7
370
    25
100
AcDbLine
 10
34.7347060435
 20
175.3110302432
 30
0.0
 11
35.0566087984
 21
175.3110302432
 31
0.0
  0
LINE
  5
EB
330
1F
100
AcDbEntity
  8
0
  6
Continuous
 62
     7
370
    25
100
AcDbLine
 10
35.0566087984
 20
769.8110302432
 30
0.0
 11
34.7347060435
 21
769.8110302432
 31
0.0
  0
LINE
  5
EC
330
1F
100
AcDbEntity
  8
0
  6
Continuous
 62
     8
370
    25
100
AcDbLine
 10
627.9347060435
 20
175.6110302434
 30
0.0
 11
627.8986943839
 21
175.6110302434
 31
0.0
  0
LINE
  5
ED
330
1F
100
AcDbEntity
  8
0
  6
Continuous
 62
     8
370
    25
100
AcDbLine
 10
34.9347060434
 20
769.6110302432
 30
0.0
 11
35.0067293626
 21
769.6110302432
 31
0.0
  0
LINE
  5
EE
330
1F
100
AcDbEntity
  8
0
  6
Continuous
 62
     8
370
    25
100
AcDbLine
 10
627.8986943839
 20
769.6110302432
 30
0.0
 11
627.9347060434
 21
769.6110302432
 31
0.0
  0
LINE
  5
EF
330
1F
100
AcDbEntity
  8
0
  6
Continuous
 62
     8
370
    25
100
AcDbLine
 10
34.4347060435
 20
769.1110302432
 30
0.0
 11
34.4347060435
 21
768.8110302432
 31
0.0
  0
LINE
  5
F0
330
1F
100
AcDbEntity
  8
0
  6
Continuous
 62
     8
370
    25
100
AcDbLine
 10
34.4347060435
 20
176.8110302432
 30
0.0
 11
34.4347060435
 21
176.1110302432
 31
0.0
  0
LINE
  5
F1
330
1F
100
AcDbEntity
  8
0
  6
Continuous
 62
     8
370
    25
100
AcDbLine
 10
628.4347060434
 20
176.1110302434
 30
0.0
 11
628.4347060434
 21
176.4032867538
 31
0.0
  0
LINE
  5
F2
330
1F
100
AcDbEntity
  8
0
  6
Continuous
 62
     8
370
    25
100
AcDbLine
 10
628.4347060434
 20
768.8187737329
 30
0.0
 11
628.4347060434
 21
769.1110302432
 31
0.0
  0
LINE
  5
F3
330
1F
100
AcDbEntity
  8
0
  6
Continuous
 62
     8
370
    25
100
AcDbLine
 10
34.7347060435
 20
769.8110302432
 30
0.0
 11
34.7347060435
 21
770.1294461856
 31
0.0
  0
LINE
  5
F4
330
1F
100
AcDbEntity
  8
0
  6
Continuous
 62
     7
370
    25
100
AcDbLine
 10
124.6847060435
 20
79.6142576962
 30
0.0
 11
124.6847060435
 21
78.1142576962
 31
0.0
  0
LINE
  5
F5
330
1F
100
AcDbEntity
  8
0
  6
Continuous
 62
     7
370
    25
100
AcDbLine
 10
139.6847060435
 20
78.1142576962
 30
0.0
 11
139.6847060435
 21
79.6142576962
 31
0.0
  0
SPLINE
  5
F6
330
1F
100
AcDbEntity
  8
0
  6
Continuous
 62
     7
370
    25
100
AcDbSpline
210
0.0
220
0.0
230
1.0
 70
     8
 71
     3
 72
    11
 73
     7
 74
     0
 42
0.00000001
 43
0.00000001
 40
0.0
 40
0.0
 40
0.0
 40
0.0
 40
0.2499999999999919
 40
0.5000000000000097
 40
0.7500000000000039
 40
1.0
 40
1.0
 40
1.0
 40
1.0
 10
628.4347060435871
 20
35.65264246175536
 30
0.0
 10
628.5919504961385
 20
35.59046510715844
 30
0.0
 10
628.9064394012414
 20
35.46611039796459
 30
0.0
 10
629.303093325698
 20
35.27957833417389
 30
0.0
 10
629.5805923813991
 20
35.09304627038313
 30
0.0
 10
629.6166681560821
 20
34.9686915611893
 30
0.0
 10
629.6347060434239
 20
34.90651420659239
 30
0.0
  0
LINE
  5
F7
330
1F
100
AcDbEntity
  8
0
  6
Continuous
 62
     7
370
    25
100
AcDbLine
 10
628.4347060434
 20
35.6526424618
 30
0.0
 11
628.4347060434
 21
76.9142576962
 31
0.0
  0
LINE
  5
F8
330
1F
100
AcDbEntity
  8
0
  6
Continuous
 62
     7
370
    25
100
AcDbLine
 10
629.6347060434
 20
76.9142576962
 30
0.0
 11
628.4347060434
 21
76.9142576962
 31
0.0
  0
LINE
  5
F9
330
1F
100
AcDbEntity
  8
0
  6
Continuous
 62
     7
370
    25
100
AcDbLine
 10
629.6347060434
 20
34.9065142066
 30
0.0
 11
629.6347060434
 21
76.9142576962
 31
0.0
  0
LINE
  5
FA
330
1F
100
AcDbEntity
  8
0
  6
Continuous
 62
     7
370
    25
100
AcDbLine
 10
604.9269625538
 20
47.4065142066
 30
0.0
 11
604.9269625538
 21
76.9142576962
 31
0.0
  0
LINE
  5
FB
330
1F
100
AcDbEntity
  8
0
  6
Continuous
 62
     7
370
    25
100
AcDbLine
 10
628.4347060434
 20
76.9142576962
 30
0.0
 11
604.9269625538
 21
76.9142576962
 31
0.0
  0
LINE
  5
FC
330
1F
100
AcDbEntity
  8
0
  6
Continuous
 62
     7
370
    25
100
AcDbLine
 10
628.4347060436
 20
35.6526424617
 30
0.0
 11
604.9269625538
 21
47.4065142066
 31
0.0
  0
LINE
  5
FD
330
1F
100
AcDbEntity
  8
0
  6
Continuous
 62
     7
370
    25
100
AcDbLine
 10
629.6347060434
 20
34.9065142066
 30
0.0
 11
629.1347060434
 21
34.9065142066
 31
0.0
  0
SPLINE
  5
FE
330
1F
100
AcDbEntity
  8
0
  6
Continuous
 62
     7
370
    25
100
AcDbSpline
210
0.0
220
0.0
230
1.0
 70
     8
 71
     3
 72
    11
 73
     7
 74
     0
 42
0.00000001
 43
0.00000001
 40
0.0
 40
0.0
 40
0.0
 40
0.0
 40
0.2499999999999689
 40
0.499999999999985
 40
0.7499999999999866
 40
1.0
 40
1.0
 40
1.0
 40
1.0
 10
628.4347060435191
 20
35.65264246175536
 30
0.0
 10
628.5264319741741
 20
35.59046510715844
 30
0.0
 10
628.7098838354841
 20
35.4661103979646
 30
0.0
 10
628.9412652914173
 20
35.27957833417388
 30
0.0
 10
629.1031397405761
 20
35.09304627038313
 30
0.0
 10
629.1241839424746
 20
34.96869156118932
 30
0.0
 10
629.1347060434238
 20
34.9065142065924
 30
0.0
  0
SPLINE
  5
FF
330
1F
100
AcDbEntity
  8
0
  6
Continuous
 62
     7
370
    25
100
AcDbSpline
210
0.0
220
0.0
230
1.0
 70
     8
 71
     3
 72
    12
 73
     8
 74
     0
 42
0.00000001
 43
0.00000001
 40
0.0
 40
0.0
 40
0.0
 40
0.0
 40
0.2893414005567004
 40
0.3971452044249545
 40
0.4846423278014743
 40
0.6854347488733652
 40
0.9999999999999999
 40
0.9999999999999999
 40
0.9999999999999999
 40
0.9999999999999999
 10
628.4347060434235
 20
77.95185413852616
 30
0.0
 10
628.3539666797399
 20
77.96497981627235
 30
0.0
 10
628.2431451691176
 20
77.98299590370986
 30
0.0
 10
628.1222689275967
 20
78.0148219250549
 30
0.0
 10
628.0404747062908
 20
78.04661207786937
 30
0.0
 10
627.9821922060671
 20
78.09965260666782
 30
0.0
 10
627.9527046987896
 20
78.10872193675533
 30
0.0
 10
627.9347060434242
 20
78.11425769619085
 30
0.0
  0
LINE
  5
100
330
1F
100
AcDbEntity
  8
0
  6
Continuous
 62
     7
370
    25
100
AcDbLine
 10
628.4347060434
 20
76.9142576962
 30
0.0
 11
628.4347060434
 21
77.9518541385
 31
0.0
  0
LINE
  5
101
330
1F
100
AcDbEntity
  8
0
  6
Continuous
 62
     7
370
    25
100
AcDbLine
 10
34.4347060434
 20
76.9142576962
 30
0.0
 11
628.4347060434
 21
76.9142576962
 31
0.0
  0
LINE
  5
102
330
1F
100
AcDbEntity
  8
0
  6
Continuous
 62
     7
370
    25
100
AcDbLine
 10
34.4347060434
 20
77.9518541385
 30
0.0
 11
34.4347060434
 21
76.9142576962
 31
0.0
  0
SPLINE
  5
103
330
1F
100
AcDbEntity
  8
0
  6
Continuous
 62
     7
370
    25
100
AcDbSpline
210
0.0
220
0.0
230
1.0
 70
     8
 71
     3
 72
    12
 73
     8
 74
     0
 42
0.00000001
 43
0.00000001
 40
0.0
 40
0.0
 40
0.0
 40
0.0
 40
0.3006396947613481
 40
0.4108252155763567
 40
0.4972322866632269
 40
0.6936496680067786
 40
1.0
 40
1.0
 40
1.0
 40
1.0
 10
34.93470604335192
 20
78.11425769619085
 30
0.0
 10
34.92225638716573
 20
78.10899035705394
 30
0.0
 10
34.90524388756683
 20
78.10179251932945
 30
0.0
 10
34.85686651729086
 20
78.06642439510077
 30
0.0
 10
34.79726982576331
 20
78.03519023962093
 30
0.0
 10
34.64877134684724
 20
77.99731165021753
 30
0.0
 10
34.51575599295143
 20
77.96906537721057
 30
0.0
 10
34.43470604335197
 20
77.95185413853372
 30
0.0
  0
LINE
  5
104
330
1F
100
AcDbEntity
  8
0
  6
Continuous
 62
     7
370
    25
100
AcDbLine
 10
34.9347060434
 20
78.1142576962
 30
0.0
 11
627.9347060434
 21
78.1142576962
 31
0.0
  0
CIRCLE
  5
105
330
1F
100
AcDbEntity
  8
0
  6
Continuous
 62
     7
370
    25
100
AcDbCircle
 10
40.4347060435
 20
51.4065142067
 30
0.0
 40
1.749999999999972
  0
LINE
  5
106
330
1F
100
AcDbEntity
  8
0
  6
Continuous
 62
     7
370
    25
100
AcDbLine
 10
34.4347060434
 20
35.1065142067
 30
0.0
 11
34.4347060434
 21
76.9142576962
 31
0.0
  0
LINE
  5
107
330
1F
100
AcDbEntity
  8
0
  6
Continuous
 62
     7
370
    25
100
AcDbLine
 10
628.4347060434
 20
76.9142576962
 30
0.0
 11
628.4347060434
 21
35.1065142066
 31
0.0
  0
LINE
  5
108
330
1F
100
AcDbEntity
  8
0
  6
Continuous
 62
     7
370
    25
100
AcDbLine
 10
628.4347060434
 20
35.1065142066
 30
0.0
 11
34.4347060434
 21
35.1065142067
 31
0.0
  0
LINE
  5
109
330
1F
100
AcDbEntity
  8
0
  6
Continuous
 62
     7
370
    25
100
AcDbLine
 10
34.4347060434
 20
35.1065142067
 30
0.0
 11
34.4347060434
 21
34.3001711497
 31
0.0
  0
LINE
  5
10A
330
1F
100
AcDbEntity
  8
0
  6
Continuous
 62
     7
370
    25
100
AcDbLine
 10
628.4347060434
 20
34.3001711497
 30
0.0
 11
628.4347060434
 21
35.1065142066
 31
0.0
  0
LINE
  5
10B
330
1F
100
AcDbEntity
  8
0
  6
Continuous
 62
     7
370
    25
100
AcDbLine
 10
627.9347060434
 20
34.3001711497
 30
0.0
 11
628.4347060434
 21
34.3001711497
 31
0.0
  0
SPLINE
  5
10C
330
1F
100
AcDbEntity
  8
0
  6
Continuous
 62
     7
370
    25
100
AcDbSpline
210
0.0
220
0.0
230
1.0
 70
     8
 71
     3
 72
    11
 73
     7
 74
     0
 42
0.00000001
 43
0.00000001
 40
0.0
 40
0.0
 40
0.0
 40
0.0
 40
0.2500000000000123
 40
0.5000000000000289
 40
0.7499999999999888
 40
1.0
 40
1.0
 40
1.0
 40
1.0
 10
627.8986943838564
 20
33.90651420664019
 30
0.0
 10
627.9016953554869
 20
33.91151697587814
 30
0.0
 10
627.9076972987478
 20
33.92152251435407
 30
0.0
 10
627.9167002136395
 20
34.00239788975782
 30
0.0
 10
627.9257031285313
 20
34.12488602121982
 30
0.0
 10
627.9317050717921
 20
34.24174277355483
 30
0.0
 10
627.9347060434226
 20
34.30017114972232
 30
0.0
  0
LINE
  5
10D
330
1F
100
AcDbEntity
  8
0
  6
Continuous
 62
     7
370
    25
100
AcDbLine
 10
627.8986943839
 20
33.9065142066
 30
0.0
 11
35.0067293626
 21
33.9065142067
 31
0.0
  0
SPLINE
  5
10E
330
1F
100
AcDbEntity
  8
0
  6
Continuous
 62
     7
370
    25
100
AcDbSpline
210
0.0
220
0.0
230
1.0
 70
     8
 71
     3
 72
    11
 73
     7
 74
     0
 42
0.00000001
 43
0.00000001
 40
0.0
 40
0.0
 40
0.0
 40
0.0
 40
0.2500000000000119
 40
0.5000000000000063
 40
0.7500000000000017
 40
1.0
 40
1.0
 40
1.0
 40
1.0
 10
34.93470604342297
 20
34.30017114973421
 30
0.0
 10
34.94070798668402
 20
34.2417427735667
 30
0.0
 10
34.95271187320609
 20
34.12488602123167
 30
0.0
 10
34.97071770298921
 20
34.0023978897697
 30
0.0
 10
34.98872353277211
 20
33.92152251436593
 30
0.0
 10
35.00072741929428
 20
33.91151697589001
 30
0.0
 10
35.00672936255522
 20
33.90651420665206
 30
0.0
  0
LINE
  5
10F
330
1F
100
AcDbEntity
  8
0
  6
Continuous
 62
     7
370
    25
100
AcDbLine
 10
34.4347060434
 20
34.3001711497
 30
0.0
 11
34.9347060434
 21
34.3001711497
 31
0.0
  0
LINE
  5
110
330
1F
100
AcDbEntity
  8
0
  6
Continuous
 62
     7
370
    25
100
AcDbLine
 10
629.6347060434
 20
34.1065142066
 30
0.0
 11
629.1347060434
 21
34.1065142066
 31
0.0
  0
ARC
  5
111
330
1F
100
AcDbEntity
  8
0
  6
Continuous
 62
     7
370
    25
100
AcDbCircle
 10
628.4347060434
 20
34.1065142066
 30
0.0
 40
1.200000000000118
100
AcDbArc
 50
317.7820572009
 51
0.0
  0
LINE
  5
112
330
1F
100
AcDbEntity
  8
0
  6
Continuous
 62
     7
370
    25
100
AcDbLine
 10
628.9531219858
 20
33.6361474234
 30
0.0
 11
629.3234190874
 21
33.3001711497
 31
0.0
  0
ARC
  5
113
330
1F
100
AcDbEntity
  8
0
  6
Continuous
 62
     7
370
    25
100
AcDbCircle
 10
628.4347060434
 20
34.1065142066
 30
0.0
 40
0.7000000000000454
100
AcDbArc
 50
317.7820572009
 51
0.0
  0
LINE
  5
114
330
1F
100
AcDbEntity
  8
0
  6
Continuous
 62
     7
370
    25
100
AcDbLine
 10
628.4347060434
 20
32.9065142066
 30
0.0
 11
628.4347060434
 21
33.4065142066
 31
0.0
  0
SPLINE
  5
115
330
1F
100
AcDbEntity
  8
0
  6
Continuous
 62
     7
370
    25
100
AcDbSpline
210
0.0
220
0.0
230
1.0
 70
     8
 71
     3
 72
     9
 73
     5
 74
     0
 42
0.00000001
 43
0.00000001
 40
0.0
 40
0.0
 40
0.0
 40
0.0
 40
0.5000000000000306
 40
0.9999999999999999
 40
0.9999999999999999
 40
0.9999999999999999
 40
0.9999999999999999
 10
629.3234190874153
 20
33.30017114967143
 30
0.0
 10
629.1961210422572
 20
33.18755699461754
 30
0.0
 10
628.941524951941
 20
32.96232868450979
 30
0.0
 10
628.6036456795963
 20
32.92511903256279
 30
0.0
 10
628.4347060434238
 20
32.90651420658928
 30
0.0
  0
SPLINE
  5
116
330
1F
100
AcDbEntity
  8
0
  6
Continuous
 62
     7
370
    25
100
AcDbSpline
210
0.0
220
0.0
230
1.0
 70
     8
 71
     3
 72
     9
 73
     5
 74
     0
 42
0.00000001
 43
0.00000001
 40
0.0
 40
0.0
 40
0.0
 40
0.0
 40
0.5000000000000221
 40
1.0
 40
1.0
 40
1.0
 40
1.0
 10
628.9531219857522
 20
33.63614742338721
 30
0.0
 10
628.8788647927433
 20
33.5704558329391
 30
0.0
 10
628.7303504067255
 20
33.4390726520429
 30
0.0
 10
628.5332541645245
 20
33.41736702174049
 30
0.0
 10
628.4347060434238
 20
33.40651420658928
 30
0.0
  0
LINE
  5
117
330
1F
100
AcDbEntity
  8
0
  6
Continuous
 62
     7
370
    25
100
AcDbLine
 10
629.6347060434
 20
34.1065142066
 30
0.0
 11
629.6347060434
 21
34.9065142066
 31
0.0
  0
LINE
  5
118
330
1F
100
AcDbEntity
  8
0
  6
Continuous
 62
     7
370
    25
100
AcDbLine
 10
629.1347060434
 20
34.1065142066
 30
0.0
 11
629.1347060434
 21
34.9065142066
 31
0.0
  0
ARC
  5
119
330
1F
100
AcDbEntity
  8
0
  6
Continuous
 62
     7
370
    25
100
AcDbCircle
 10
628.4347060434
 20
76.9142576962
 30
0.0
 40
0.7000000000000511
100
AcDbArc
 50
0.0
 51
59.8443265721
  0
LINE
  5
11A
330
1F
100
AcDbEntity
  8
0
  6
Continuous
 62
     7
370
    25
100
AcDbLine
 10
628.7863518516
 20
77.5195222876
 30
0.0
 11
629.0375274289
 21
77.9518541385
 31
0.0
  0
ARC
  5
11B
330
1F
100
AcDbEntity
  8
0
  6
Continuous
 62
     7
370
    25
100
AcDbCircle
 10
628.4347060434
 20
76.9142576962
 30
0.0
 40
1.200000000000045
100
AcDbArc
 50
0.0000000021
 51
59.8443265721
  0
LINE
  5
11C
330
1F
100
AcDbEntity
  8
0
  6
Continuous
 62
     7
370
    25
100
AcDbLine
 10
34.9347060434
 20
78.1142576962
 30
0.0
 11
34.4347060435
 21
78.1142576962
 31
0.0
  0
SPLINE
  5
11D
330
1F
100
AcDbEntity
  8
0
  6
Continuous
 62
     7
370
    25
100
AcDbSpline
210
0.0
220
0.0
230
1.0
 70
     8
 71
     3
 72
    11
 73
     7
 74
     0
 42
0.00000001
 43
0.00000001
 40
0.0
 40
0.0
 40
0.0
 40
0.0
 40
0.234972212549723
 40
0.3277350520120136
 40
0.4088708125424454
 40
0.9999999999999999
 40
0.9999999999999999
 40
0.9999999999999999
 40
0.9999999999999999
 10
628.4347060434241
 20
77.61425769619085
 30
0.0
 10
628.4862624643013
 20
77.6109729896807
 30
0.0
 10
628.5581724407807
 20
77.60639153961364
 30
0.0
 10
628.6347516615584
 20
77.58552191569201
 30
0.0
 10
628.744201576842
 20
77.54862645364298
 30
0.0
 10
628.7666301693961
 20
77.53313982904007
 30
0.0
 10
628.7863518516466
 20
77.51952228755532
 30
0.0
  0
SPLINE
  5
11E
330
1F
100
AcDbEntity
  8
0
  6
Continuous
 62
     7
370
    25
100
AcDbSpline
210
0.0
220
0.0
230
1.0
 70
     8
 71
     3
 72
    12
 73
     8
 74
     0
 42
0.00000001
 43
0.00000001
 40
0.0
 40
0.0
 40
0.0
 40
0.0
 40
0.3006396947631363
 40
0.4108252155779215
 40
0.4972322866639021
 40
0.6936496680082823
 40
1.0
 40
1.0
 40
1.0
 40
1.0
 10
628.4347060434241
 20
78.11425769619085
 30
0.0
 10
628.5216875280111
 20
78.1089903570538
 30
0.0
 10
628.6405480370496
 20
78.10179251932911
 30
0.0
 10
628.7729414893284
 20
78.06642439509942
 30
0.0
 10
628.8670847767771
 20
78.03519023961888
 30
0.0
 10
628.9550188376043
 20
77.99731165021466
 30
0.0
 10
629.0062878162657
 20
77.96906537720709
 30
0.0
 10
629.0375274289481
 20
77.95185413852994
 30
0.0
  0
LINE
  5
11F
330
1F
100
AcDbEntity
  8
0
  6
Continuous
 62
     7
370
    25
100
AcDbLine
 10
628.4347060434
 20
78.1142576962
 30
0.0
 11
627.9347060434
 21
78.1142576962
 31
0.0
  0
SPLINE
  5
120
330
1F
100
AcDbEntity
  8
0
  6
Continuous
 62
     7
370
    25
100
AcDbSpline
210
0.0
220
0.0
230
1.0
 70
     8
 71
     3
 72
    12
 73
     8
 74
     0
 42
0.00000001
 43
0.00000001
 40
0.0
 40
0.0
 40
0.0
 40
0.0
 40
0.2893414005111998
 40
0.3971452043941958
 40
0.4846423278047048
 40
0.6854347487896807
 40
1.0
 40
1.0
 40
1.0
 40
1.0
 10
33.83188465781545
 20
77.95185413844496
 30
0.0
 10
33.85499408577025
 20
77.96497981619964
 30
0.0
 10
33.88671370305391
 20
77.98299590365026
 30
0.0
 10
33.95535984667897
 20
78.01482192501267
 30
0.0
 10
34.03330648271907
 20
78.04661207782692
 30
0.0
 10
34.19743617940723
 20
78.0996526066574
 30
0.0
 10
34.34477377111017
 20
78.10872193675046
 30
0.0
 10
34.43470604348586
 20
78.11425769619085
 30
0.0
  0
SPLINE
  5
121
330
1F
100
AcDbEntity
  8
0
  6
Continuous
 62
     7
370
    25
100
AcDbSpline
210
0.0
220
0.0
230
1.0
 70
     8
 71
     3
 72
    12
 73
     8
 74
     0
 42
0.00000001
 43
0.00000001
 40
0.0
 40
0.0
 40
0.0
 40
0.0
 40
0.358803790863956
 40
0.5752394285418503
 40
0.6544863256770155
 40
0.750339658495238
 40
1.0
 40
1.0
 40
1.0
 40
1.0
 10
34.0830602351781
 20
77.51952228750575
 30
0.0
 10
34.09654907083792
 20
77.52700843573682
 30
0.0
 10
34.11817456731875
 20
77.53901033688743
 30
0.0
 10
34.16492021097428
 20
77.56146324686912
 30
0.0
 10
34.22748704835887
 20
77.58340547826984
 30
0.0
 10
34.30684204055984
 20
77.6058379145747
 30
0.0
 10
34.38107035075094
 20
77.61072581224133
 30
0.0
 10
34.43470604348581
 20
77.61425769619085
 30
0.0
  0
LINE
  5
122
330
1F
100
AcDbEntity
  8
0
  6
Continuous
 62
     7
370
    25
100
AcDbLine
 10
34.0830602352
 20
77.5195222875
 30
0.0
 11
33.8318846578
 21
77.9518541384
 31
0.0
  0
LINE
  5
123
330
1F
100
AcDbEntity
  8
0
  6
Continuous
 62
     7
370
    25
100
AcDbLine
 10
33.2347060435
 20
76.9142576962
 30
0.0
 11
33.7347060435
 21
76.9142576962
 31
0.0
  0
ARC
  5
124
330
1F
100
AcDbEntity
  8
0
  6
Continuous
 62
     7
370
    25
100
AcDbCircle
 10
34.4347060435
 20
76.9142576962
 30
0.0
 40
1.199999999999994
100
AcDbArc
 50
120.155673436
 51
180.0
  0
ARC
  5
125
330
1F
100
AcDbEntity
  8
0
  6
Continuous
 62
     7
370
    25
100
AcDbCircle
 10
34.4347060435
 20
76.9142576962
 30
0.0
 40
0.7000000000000035
100
AcDbArc
 50
120.155673436
 51
180.0
  0
LINE
  5
126
330
1F
100
AcDbEntity
  8
0
  6
Continuous
 62
     7
370
    25
100
AcDbLine
 10
33.7347060435
 20
76.9142576962
 30
0.0
 11
33.7347060435
 21
62.4065142066
 31
0.0
  0
LINE
  5
127
330
1F
100
AcDbEntity
  8
0
  6
Continuous
 62
     7
370
    25
100
AcDbLine
 10
33.2347060435
 20
62.4065142066
 30
0.0
 11
33.7347060435
 21
62.4065142066
 31
0.0
  0
LINE
  5
128
330
1F
100
AcDbEntity
  8
0
  6
Continuous
 62
     7
370
    25
100
AcDbLine
 10
33.2347060435
 20
76.9142576962
 30
0.0
 11
33.2347060435
 21
62.4065142066
 31
0.0
  0
LINE
  5
129
330
1F
100
AcDbEntity
  8
0
  6
Continuous
 62
     7
370
    25
100
AcDbLine
 10
619.2269625539
 20
32.9065142066
 30
0.0
 11
619.2269625539
 21
33.4065142066
 31
0.0
  0
LINE
  5
12A
330
1F
100
AcDbEntity
  8
0
  6
Continuous
 62
     7
370
    25
100
AcDbLine
 10
619.2269625539
 20
32.9065142066
 30
0.0
 11
628.4347060434
 21
32.9065142066
 31
0.0
  0
LINE
  5
12B
330
1F
100
AcDbEntity
  8
0
  6
Continuous
 62
     7
370
    25
100
AcDbLine
 10
619.2269625539
 20
33.4065142066
 30
0.0
 11
628.4347060434
 21
33.4065142066
 31
0.0
  0
LINE
  5
12C
330
1F
100
AcDbEntity
  8
0
  6
Continuous
 62
     7
370
    25
100
AcDbLine
 10
33.7347060435
 20
62.4065142066
 30
0.0
 11
33.7347060435
 21
34.7725396079
 31
0.0
  0
SPLINE
  5
12D
330
1F
100
AcDbEntity
  8
0
  6
Continuous
 62
     7
370
    25
100
AcDbSpline
210
0.0
220
0.0
230
1.0
 70
     8
 71
     3
 72
     9
 73
     5
 74
     0
 42
0.00000001
 43
0.00000001
 40
0.0
 40
0.0
 40
0.0
 40
0.0
 40
0.5000000000000023
 40
1.0
 40
1.0
 40
1.0
 40
1.0
 10
33.94881878270584
 20
67.90651420408764
 30
0.0
 10
33.88712666820554
 20
67.92884330345689
 30
0.0
 10
33.76374243920493
 20
67.97350150219542
 30
0.0
 10
33.74438484205677
 20
68.01815970093394
 30
0.0
 10
33.73470604348277
 20
68.0404888003032
 30
0.0
  0
LINE
  5
12E
330
1F
100
AcDbEntity
  8
0
  6
Continuous
 62
     7
370
    25
100
AcDbLine
 10
34.4347060434
 20
67.9065142041
 30
0.0
 11
33.9488187827
 21
67.9065142041
 31
0.0
  0
SPLINE
  5
12F
330
1F
100
AcDbEntity
  8
0
  6
Continuous
 62
     7
370
    25
100
AcDbSpline
210
0.0
220
0.0
230
1.0
 70
     8
 71
     3
 72
     9
 73
     5
 74
     0
 42
0.00000001
 43
0.00000001
 40
0.0
 40
0.0
 40
0.0
 40
0.0
 40
0.5000000000000169
 40
1.0
 40
1.0
 40
1.0
 40
1.0
 10
33.73470604348316
 20
34.7725396078721
 30
0.0
 10
33.74438484205722
 20
34.79486870724136
 30
0.0
 10
33.76374243920532
 20
34.83952690597988
 30
0.0
 10
33.88712666820592
 20
34.8841851047184
 30
0.0
 10
33.94881878270617
 20
34.90651420408766
 30
0.0
  0
LINE
  5
130
330
1F
100
AcDbEntity
  8
0
  6
Continuous
 62
     7
370
    25
100
AcDbLine
 10
33.9488187827
 20
34.9065142041
 30
0.0
 11
34.4347060434
 21
34.9065142041
 31
0.0
  0
LWPOLYLINE
  5
131
330
1F
100
AcDbEntity
  8
0
  6
Continuous
 62
     7
370
    25
100
AcDbPolyline
 90
        3
 70
   128
 43
0.0
 10
40.8066087984
 20
50.4065142041
 10
40.6733979803
 20
49.7368181974
 10
40.643623661
 20
49.669029407
  0
LINE
  5
132
330
1F
100
AcDbEntity
  8
0
  6
Continuous
 62
     7
370
    25
100
AcDbLine
 10
40.8066087984
 20
52.4065142041
 30
0.0
 11
40.8066087984
 21
50.4065142041
 31
0.0
  0
LWPOLYLINE
  5
133
330
1F
100
AcDbEntity
  8
0
  6
Continuous
 62
     7
370
    25
100
AcDbPolyline
 90
        3
 70
   128
 43
0.0
 10
40.6436236584
 20
53.1439990066
 10
40.6733979803
 20
53.0762102107
 10
40.8066087984
 20
52.4065142041
  0
SPLINE
  5
134
330
1F
100
AcDbEntity
  8
0
  6
Continuous
 62
     7
370
    25
100
AcDbSpline
210
0.0
220
0.0
230
1.0
 70
     8
 71
     3
 72
     9
 73
     5
 74
     0
 42
0.00000001
 43
0.00000001
 40
0.0
 40
0.0
 40
0.0
 40
0.0
 40
0.4999999999999249
 40
0.9999999999999999
 40
0.9999999999999999
 40
0.9999999999999999
 40
0.9999999999999999
 10
34.23470604348316
 20
34.7725396078721
 30
0.0
 10
34.23954544277025
 20
34.79486870724137
 30
0.0
 10
34.24922424134436
 20
34.83952690597989
 30
0.0
 10
34.31091635584443
 20
34.8841851047184
 30
0.0
 10
34.34176241309467
 20
34.90651420408766
 30
0.0
  0
LINE
  5
135
330
1F
100
AcDbEntity
  8
0
  6
Continuous
 62
     7
370
    25
100
AcDbLine
 10
34.2347060435
 20
34.7725396079
 30
0.0
 11
33.7347060435
 21
34.7725396079
 31
0.0
  0
LINE
  5
136
330
1F
100
AcDbEntity
  8
0
  6
Continuous
 62
     7
370
    25
100
AcDbLine
 10
33.7347060435
 20
68.0404888003
 30
0.0
 11
34.2347060435
 21
68.0404888003
 31
0.0
  0
SPLINE
  5
137
330
1F
100
AcDbEntity
  8
0
  6
Continuous
 62
     7
370
    25
100
AcDbSpline
210
0.0
220
0.0
230
1.0
 70
     8
 71
     3
 72
     9
 73
     5
 74
     0
 42
0.00000001
 43
0.00000001
 40
0.0
 40
0.0
 40
0.0
 40
0.0
 40
0.5000000000000631
 40
0.9999999999999999
 40
0.9999999999999999
 40
0.9999999999999999
 40
0.9999999999999999
 10
34.34176241309434
 20
67.90651420408764
 30
0.0
 10
34.31091635584421
 20
67.92884330345689
 30
0.0
 10
34.24922424134391
 20
67.9735015021954
 30
0.0
 10
34.23954544276986
 20
68.01815970093394
 30
0.0
 10
34.23470604348277
 20
68.0404888003032
 30
0.0
  0
LINE
  5
138
330
1F
100
AcDbEntity
  8
0
  6
Continuous
 62
     7
370
    25
100
AcDbLine
 10
34.2347060435
 20
34.7725396079
 30
0.0
 11
34.2347060435
 21
34.4065142041
 31
0.0
  0
LINE
  5
139
330
1F
100
AcDbEntity
  8
0
  6
Continuous
 62
     7
370
    25
100
AcDbLine
 10
33.7347060435
 20
34.4065142041
 30
0.0
 11
34.2347060435
 21
34.4065142041
 31
0.0
  0
LINE
  5
13A
330
1F
100
AcDbEntity
  8
0
  6
Continuous
 62
     7
370
    25
100
AcDbLine
 10
33.7347060435
 20
34.7725396079
 30
0.0
 11
33.7347060435
 21
34.4065142041
 31
0.0
  0
LINE
  5
13B
330
1F
100
AcDbEntity
  8
0
  6
Continuous
 62
     7
370
    25
100
AcDbLine
 10
34.2347060435
 20
68.4065142041
 30
0.0
 11
33.7347060435
 21
68.4065142041
 31
0.0
  0
LINE
  5
13C
330
1F
100
AcDbEntity
  8
0
  6
Continuous
 62
     7
370
    25
100
AcDbLine
 10
34.2347060435
 20
68.4065142041
 30
0.0
 11
34.2347060435
 21
68.0404888003
 31
0.0
  0
SPLINE
  5
13D
330
1F
100
AcDbEntity
  8
0
  6
Continuous
 62
     7
370
    25
100
AcDbSpline
210
0.0
220
0.0
230
1.0
 70
     8
 71
     3
 72
     9
 73
     5
 74
     0
 42
0.00000001
 43
0.00000001
 40
0.0
 40
0.0
 40
0.0
 40
0.0
 40
0.5000000000000112
 40
1.0
 40
1.0
 40
1.0
 40
1.0
 10
33.94881878270623
 20
33.7881444010179
 30
0.0
 10
33.88712666820592
 20
33.88220113723222
 30
0.0
 10
33.76374243920522
 20
34.07031460966085
 30
0.0
 10
33.74438484205722
 20
34.29444767261205
 30
0.0
 10
33.73470604348316
 20
34.40651420408765
 30
0.0
  0
SPLINE
  5
13E
330
1F
100
AcDbEntity
  8
0
  6
Continuous
 62
     7
370
    25
100
AcDbSpline
210
0.0
220
0.0
230
1.0
 70
     8
 71
     3
 72
     9
 73
     5
 74
     0
 42
0.00000001
 43
0.00000001
 40
0.0
 40
0.0
 40
0.0
 40
0.0
 40
0.500000000000008
 40
1.0
 40
1.0
 40
1.0
 40
1.0
 10
34.34176241309467
 20
34.09732930255279
 30
0.0
 10
34.31091635584449
 20
34.14435767065993
 30
0.0
 10
34.24922424134424
 20
34.23841440687425
 30
0.0
 10
34.23954544277014
 20
34.35048093834985
 30
0.0
 10
34.23470604348316
 20
34.40651420408765
 30
0.0
  0
LINE
  5
13F
330
1F
100
AcDbEntity
  8
0
  6
Continuous
 62
     7
370
    25
100
AcDbLine
 10
34.3417624131
 20
34.0973293026
 30
0.0
 11
33.9488187827
 21
33.788144401
 31
0.0
  0
LINE
  5
140
330
1F
100
AcDbEntity
  8
0
  6
Continuous
 62
     7
370
    25
100
AcDbLine
 10
34.3417624131
 20
68.7156991056
 30
0.0
 11
33.9488187827
 21
69.0248840072
 31
0.0
  0
SPLINE
  5
141
330
1F
100
AcDbEntity
  8
0
  6
Continuous
 62
     7
370
    25
100
AcDbSpline
210
0.0
220
0.0
230
1.0
 70
     8
 71
     3
 72
     9
 73
     5
 74
     0
 42
0.00000001
 43
0.00000001
 40
0.0
 40
0.0
 40
0.0
 40
0.0
 40
0.5000000000000318
 40
1.0
 40
1.0
 40
1.0
 40
1.0
 10
33.73470604348277
 20
68.40651420408764
 30
0.0
 10
33.74438484205683
 20
68.51858073556323
 30
0.0
 10
33.76374243920493
 20
68.7427137985144
 30
0.0
 10
33.88712666820554
 20
68.93082727094304
 30
0.0
 10
33.94881878270584
 20
69.02488400715737
 30
0.0
  0
SPLINE
  5
142
330
1F
100
AcDbEntity
  8
0
  6
Continuous
 62
     7
370
    25
100
AcDbSpline
210
0.0
220
0.0
230
1.0
 70
     8
 71
     3
 72
     9
 73
     5
 74
     0
 42
0.00000001
 43
0.00000001
 40
0.0
 40
0.0
 40
0.0
 40
0.0
 40
0.500000000000033
 40
1.0
 40
1.0
 40
1.0
 40
1.0
 10
34.23470604348277
 20
68.40651420408763
 30
0.0
 10
34.23954544276992
 20
68.46254746982541
 30
0.0
 10
34.24922424134385
 20
68.574614001301
 30
0.0
 10
34.3109163558441
 20
68.66867073751533
 30
0.0
 10
34.34176241309434
 20
68.71569910562249
 30
0.0
  0
LINE
  5
143
330
1F
100
AcDbEntity
  8
0
  6
Continuous
 62
     7
370
    25
100
AcDbLine
 10
34.7347060435
 20
33.4065142041
 30
0.0
 11
34.7347060435
 21
33.9065142041
 31
0.0
  0
ARC
  5
144
330
1F
100
AcDbEntity
  8
0
  6
Continuous
 62
     7
370
    25
100
AcDbCircle
 10
34.7347060435
 20
34.4065142041
 30
0.0
 40
0.5000000000000123
100
AcDbArc
 50
218.1971863421
 51
270.0
  0
ARC
  5
145
330
1F
100
AcDbEntity
  8
0
  6
Continuous
 62
     7
370
    25
100
AcDbCircle
 10
34.7347060435
 20
34.4065142041
 30
0.0
 40
0.9999999999999988
100
AcDbArc
 50
218.1971863421
 51
270.0
  0
ARC
  5
146
330
1F
100
AcDbEntity
  8
0
  6
Continuous
 62
     7
370
    25
100
AcDbCircle
 10
34.7347060435
 20
68.4065142041
 30
0.0
 40
0.9999999999999964
100
AcDbArc
 50
107.4576031316
 51
141.8028136579
  0
ARC
  5
147
330
1F
100
AcDbEntity
  8
0
  6
Continuous
 62
     7
370
    25
100
AcDbCircle
 10
34.7347060435
 20
68.4065142041
 30
0.0
 40
0.4999999999999957
100
AcDbArc
 50
126.8698976646
 51
141.8028136579
  0
LINE
  5
148
330
1F
100
AcDbEntity
  8
0
  6
Continuous
 62
     7
370
    25
100
AcDbLine
 10
36.3418375248
 20
33.4065142041
 30
0.0
 11
36.3418375248
 21
33.9065142041
 31
0.0
  0
LINE
  5
149
330
1F
100
AcDbEntity
  8
0
  6
Continuous
 62
     7
370
    25
100
AcDbLine
 10
35.6728727932
 20
33.4065142041
 30
0.0
 11
35.6728727932
 21
33.9065142041
 31
0.0
  0
LINE
  5
14A
330
1F
100
AcDbEntity
  8
0
  6
Continuous
 62
     7
370
    25
100
AcDbLine
 10
35.6728727932
 20
33.4065142041
 30
0.0
 11
36.3418375248
 21
33.4065142041
 31
0.0
  0
LINE
  5
14B
330
1F
100
AcDbEntity
  8
0
  6
Continuous
 62
     7
370
    25
100
AcDbLine
 10
34.7347060435
 20
33.9065142041
 30
0.0
 11
35.0067293626
 21
33.9065142041
 31
0.0
  0
LINE
  5
14C
330
1F
100
AcDbEntity
  8
0
  6
Continuous
 62
     7
370
    25
100
AcDbLine
 10
34.7347060435
 20
33.4065142041
 30
0.0
 11
35.6728727932
 21
33.4065142041
 31
0.0
  0
LINE
  5
14D
330
1F
100
AcDbEntity
  8
0
  6
Continuous
 62
     7
370
    25
100
AcDbLine
 10
46.0566087984
 20
33.4065142041
 30
0.0
 11
46.0566087984
 21
33.9065142041
 31
0.0
  0
LINE
  5
14E
330
1F
100
AcDbEntity
  8
0
  6
Continuous
 62
     7
370
    25
100
AcDbLine
 10
36.3418375248
 20
33.4065142041
 30
0.0
 11
46.0566087984
 21
33.4065142041
 31
0.0
  0
SPLINE
  5
14F
330
1F
100
AcDbEntity
  8
0
  6
Continuous
 62
     7
370
    25
100
AcDbSpline
210
0.0
220
0.0
230
1.0
 70
     8
 71
     3
 72
     9
 73
     5
 74
     0
 42
0.00000001
 43
0.00000001
 40
0.0
 40
0.0
 40
0.0
 40
0.0
 40
0.5931105904960091
 40
1.0
 40
1.0
 40
1.0
 40
1.0
 10
168.4883071958148
 20
80.03690270704807
 30
0.0
 10
168.4772433455184
 20
79.69722978482464
 30
0.0
 10
168.458589403954
 20
79.12453233570415
 30
0.0
 10
168.2888526620258
 20
78.57377422857077
 30
0.0
 10
168.2197885793314
 20
78.34967658757974
 30
0.0
  0
SPLINE
  5
150
330
1F
100
AcDbEntity
  8
0
  6
Continuous
 62
     7
370
    25
100
AcDbSpline
210
0.0
220
0.0
230
1.0
 70
     8
 71
     3
 72
     9
 73
     5
 74
     0
 42
0.00000001
 43
0.00000001
 40
0.0
 40
0.0
 40
0.0
 40
0.0
 40
0.5599999999999962
 40
1.0
 40
1.0
 40
1.0
 40
1.0
 10
168.2197885793315
 20
78.34967658757974
 30
0.0
 10
168.1003210868954
 20
78.35466446382361
 30
0.0
 10
167.8869862789739
 20
78.36357138568762
 30
0.0
 10
167.612369590698
 20
78.36439105749078
 30
0.0
 10
167.4915382478567
 20
78.36475171308416
 30
0.0
  0
LINE
  5
151
330
1F
100
AcDbEntity
  8
0
  6
Continuous
 62
     7
370
    25
100
AcDbLine
 10
167.4915382479
 20
78.3647517131
 30
0.0
 11
167.4876607918
 21
80.3702729931
 31
0.0
  0
SPLINE
  5
152
330
1F
100
AcDbEntity
  8
0
  6
Continuous
 62
     7
370
    25
100
AcDbSpline
210
0.0
220
0.0
230
1.0
 70
     8
 71
     3
 72
    11
 73
     7
 74
     0
 42
0.00000001
 43
0.00000001
 40
0.0
 40
0.0
 40
0.0
 40
0.0
 40
0.2796579740372184
 40
0.5592666022935349
 40
0.7796650582495827
 40
1.0
 40
1.0
 40
1.0
 40
1.0
 10
167.4876607918344
 20
80.37027299306118
 30
0.0
 10
167.6348531973683
 20
80.36804333555345
 30
0.0
 10
167.9292120362672
 20
80.36358441396207
 30
0.0
 10
168.2580341273263
 20
80.32669884734864
 30
0.0
 10
168.4533471984425
 20
80.27811750709526
 30
0.0
 10
168.4764230169028
 20
80.23727881814263
 30
0.0
 10
168.4879592634017
 20
80.21686241630343
 30
0.0
  0
LINE
  5
153
330
1F
100
AcDbEntity
  8
0
  6
Continuous
 62
     7
370
    25
100
AcDbLine
 10
168.4879592634
 20
80.2168624163
 30
0.0
 11
168.4883071958
 21
80.036902707
 31
0.0
  0
SPLINE
  5
154
330
1F
100
AcDbEntity
  8
0
  6
Continuous
 62
     7
370
    25
100
AcDbSpline
210
0.0
220
0.0
230
1.0
 70
     8
 71
     3
 72
     9
 73
     5
 74
     0
 42
0.00000001
 43
0.00000001
 40
0.0
 40
0.0
 40
0.0
 40
0.0
 40
0.5600000000000122
 40
1.0
 40
1.0
 40
1.0
 40
1.0
 10
167.0915389954544
 20
78.36397835828328
 30
0.0
 10
166.9371220978012
 20
78.36269951625636
 30
0.0
 10
166.6613776377062
 20
78.36041586977967
 30
0.0
 10
166.4544156673215
 20
78.35046552360814
 30
0.0
 10
166.3633524003523
 20
78.34608737129265
 30
0.0
  0
SPLINE
  5
155
330
1F
100
AcDbEntity
  8
0
  6
Continuous
 62
     7
370
    25
100
AcDbSpline
210
0.0
220
0.0
230
1.0
 70
     8
 71
     3
 72
     9
 73
     5
 74
     0
 42
0.00000001
 43
0.00000001
 40
0.0
 40
0.0
 40
0.0
 40
0.0
 40
0.5304166037466849
 40
1.0
 40
1.0
 40
1.0
 40
1.0
 10
166.3633524003522
 20
78.34608737129267
 30
0.0
 10
166.2765970488643
 20
78.6392345053483
 30
0.0
 10
166.1130362725328
 20
79.19190787941864
 30
0.0
 10
166.0962120547344
 20
79.76373980196671
 30
0.0
 10
166.0883116814013
 20
80.0322625782429
 30
0.0
  0
LINE
  5
156
330
1F
100
AcDbEntity
  8
0
  6
Continuous
 62
     7
370
    25
100
AcDbLine
 10
166.0883116814
 20
80.0322625782
 30
0.0
 11
166.087963749
 21
80.2122222875
 31
0.0
  0
SPLINE
  5
157
330
1F
100
AcDbEntity
  8
0
  6
Continuous
 62
     7
370
    25
100
AcDbSpline
210
0.0
220
0.0
230
1.0
 70
     8
 71
     3
 72
    11
 73
     7
 74
     0
 42
0.00000001
 43
0.00000001
 40
0.0
 40
0.0
 40
0.0
 40
0.0
 40
0.2796579740371054
 40
0.559266602293337
 40
0.7796650582493756
 40
1.0
 40
1.0
 40
1.0
 40
1.0
 10
167.0876615394321
 20
80.36949963826031
 30
0.0
 10
166.9404788558699
 20
80.36670083871786
 30
0.0
 10
166.6461394591991
 20
80.36110373348248
 30
0.0
 10
166.317462454288
 20
80.32294696428706
 30
0.0
 10
166.1223386960388
 20
80.27361075713165
 30
0.0
 10
166.0994209637783
 20
80.23268314467973
 30
0.0
 10
166.0879637489883
 20
80.21222228749825
 30
0.0
  0
LINE
  5
158
330
1F
100
AcDbEntity
  8
0
  6
Continuous
 62
     7
370
    25
100
AcDbLine
 10
167.0876615394
 20
80.3694996383
 30
0.0
 11
167.0915389955
 21
78.3639783583
 31
0.0
  0
LINE
  5
159
330
1F
100
AcDbEntity
  8
0
  6
Continuous
 62
     7
370
    25
100
AcDbLine
 10
167.0915389955
 20
78.3639783583
 30
0.0
 11
167.4915382479
 21
78.3647517131
 31
0.0
  0
LINE
  5
15A
330
1F
100
AcDbEntity
  8
0
  6
Continuous
 62
     7
370
    25
100
AcDbLine
 10
167.0876615394
 20
80.3694996383
 30
0.0
 11
167.4876607918
 21
80.3702729931
 31
0.0
  0
LINE
  5
15B
330
1F
100
AcDbEntity
  8
0
  6
Continuous
 62
     7
370
    25
100
AcDbLine
 10
166.3633524004
 20
78.3460873713
 30
0.0
 11
168.2197885793
 21
78.3496765876
 31
0.0
  0
SPLINE
  5
15C
330
1F
100
AcDbEntity
  8
0
  6
Continuous
 62
     7
370
    25
100
AcDbSpline
210
0.0
220
0.0
230
1.0
 70
     8
 71
     3
 72
    11
 73
     7
 74
     0
 42
0.00000001
 43
0.00000001
 40
0.0
 40
0.0
 40
0.0
 40
0.0
 40
0.2702613318129026
 40
0.5624293896421035
 40
0.7897364218595584
 40
1.0
 40
1.0
 40
1.0
 40
1.0
 10
166.0872856320586
 20
80.5629620315494
 30
0.0
 10
166.1046584532158
 20
80.6956378200479
 30
0.0
 10
166.1408122941455
 20
80.97174377366306
 30
0.0
 10
166.4107033514213
 20
81.28623443018157
 30
0.0
 10
166.7467533581982
 20
81.46962478658278
 30
0.0
 10
166.9755375396084
 20
81.49077113851637
 30
0.0
 10
167.0854740377793
 20
81.5009324873751
 30
0.0
  0
SPLINE
  5
15D
330
1F
100
AcDbEntity
  8
0
  6
Continuous
 62
     7
370
    25
100
AcDbSpline
210
0.0
220
0.0
230
1.0
 70
    24
 71
     3
 72
    10
 73
     6
 74
     0
 42
0.00000001
 43
0.00000001
 40
0.0
 40
0.0
 40
0.0
 40
0.0
 40
0.2768779234291005
 40
0.5624038656203739
 40
0.9999999999999999
 40
0.9999999999999999
 40
0.9999999999999999
 40
0.9999999999999999
 10
167.0854740377793
 20
81.5009324873751
 30
0.0
 10
167.0855929699285
 20
81.4394176811481
 30
0.0
 10
167.0858345489593
 20
81.31446671219223
 30
0.0
 10
167.086553072248
 20
80.94282774648659
 30
0.0
 10
167.0872436421766
 20
80.58564698696568
 30
0.0
 10
167.0876615394321
 20
80.36949963826031
 30
0.0
  0
SPLINE
  5
15E
330
1F
100
AcDbEntity
  8
0
  6
Continuous
 62
     7
370
    25
100
AcDbSpline
210
0.0
220
0.0
230
1.0
 70
    24
 71
     3
 72
     9
 73
     5
 74
     0
 42
0.00000001
 43
0.00000001
 40
0.0
 40
0.0
 40
0.0
 40
0.0
 40
0.5599999999999744
 40
1.0
 40
1.0
 40
1.0
 40
1.0
 10
166.0879637489883
 20
80.21222228749825
 30
0.0
 10
166.0877964348466
 20
80.29876152090928
 30
0.0
 10
166.0874976595935
 20
80.45329586628615
 30
0.0
 10
166.0873504182498
 20
80.52945292549674
 30
0.0
 10
166.0872856320586
 20
80.5629620315494
 30
0.0
  0
SPLINE
  5
15F
330
1F
100
AcDbEntity
  8
0
  6
Continuous
 62
     7
370
    25
100
AcDbSpline
210
0.0
220
0.0
230
1.0
 70
     8
 71
     3
 72
    11
 73
     7
 74
     0
 42
0.00000001
 43
0.00000001
 40
0.0
 40
0.0
 40
0.0
 40
0.0
 40
0.2702613318129026
 40
0.5624293896420958
 40
0.7897364218595412
 40
1.0
 40
1.0
 40
1.0
 40
1.0
 10
167.4854732901816
 20
81.50170584217598
 30
0.0
 10
167.6272105399714
 20
81.48547813348067
 30
0.0
 10
167.922173916175
 20
81.4517073375049
 30
0.0
 10
168.2580850870181
 20
81.19915913593816
 30
0.0
 10
168.4539207864007
 20
80.88465002483161
 30
0.0
 10
168.4764535785523
 20
80.67050444555399
 30
0.0
 10
168.487281146472
 20
80.5676021603547
 30
0.0
  0
SPLINE
  5
160
330
1F
100
AcDbEntity
  8
0
  6
Continuous
 62
     7
370
    25
100
AcDbSpline
210
0.0
220
0.0
230
1.0
 70
    24
 71
     3
 72
     9
 73
     5
 74
     0
 42
0.00000001
 43
0.00000001
 40
0.0
 40
0.0
 40
0.0
 40
0.0
 40
0.5599999999999886
 40
1.0
 40
1.0
 40
1.0
 40
1.0
 10
168.487281146472
 20
80.5676021603547
 30
0.0
 10
168.487369208884
 20
80.5220539864317
 30
0.0
 10
168.4875264631913
 20
80.4407179615692
 30
0.0
 10
168.4878270188929
 20
80.2852627218013
 30
0.0
 10
168.4879592634017
 20
80.21686241630343
 30
0.0
  0
SPLINE
  5
161
330
1F
100
AcDbEntity
  8
0
  6
Continuous
 62
     7
370
    25
100
AcDbSpline
210
0.0
220
0.0
230
1.0
 70
    24
 71
     3
 72
    10
 73
     6
 74
     0
 42
0.00000001
 43
0.00000001
 40
0.0
 40
0.0
 40
0.0
 40
0.0
 40
0.2768779234291824
 40
0.5624038656204461
 40
1.0
 40
1.0
 40
1.0
 40
1.0
 10
167.4876607918344
 20
80.37027299306118
 30
0.0
 10
167.4873952069334
 20
80.50764042349566
 30
0.0
 10
167.4868557418397
 20
80.78666582548463
 30
0.0
 10
167.4860236857438
 20
81.21702691715187
 30
0.0
 10
167.4856807918543
 20
81.39438057067197
 30
0.0
 10
167.4854732901816
 20
81.50170584217598
 30
0.0
  0
LINE
  5
162
330
1F
100
AcDbEntity
  8
0
  6
Continuous
 62
     7
370
    25
100
AcDbLine
 10
167.4854732902
 20
81.5017058422
 30
0.0
 11
167.0854740378
 21
81.5009324874
 31
0.0
  0
SPLINE
  5
163
330
1F
100
AcDbEntity
  8
0
  6
Continuous
 62
     7
370
    25
100
AcDbSpline
210
0.0
220
0.0
230
1.0
 70
     8
 71
     3
 72
    11
 73
     7
 74
     0
 42
0.00000001
 43
0.00000001
 40
0.0
 40
0.0
 40
0.0
 40
0.0
 40
0.2702613318128821
 40
0.5624293896420738
 40
0.789736421859521
 40
1.0
 40
1.0
 40
1.0
 40
1.0
 10
167.085350376062
 20
81.56489354955721
 30
0.0
 10
166.9436791147304
 20
81.54699030838839
 30
0.0
 10
166.6488530643071
 20
81.50973263287985
 30
0.0
 10
166.3139544000411
 20
81.23858605238526
 30
0.0
 10
166.1193778983918
 20
80.90180528803197
 30
0.0
 10
166.0977016225538
 20
80.67293831375511
 30
0.0
 10
166.0872856320586
 20
80.5629620315494
 30
0.0
  0
SPLINE
  5
164
330
1F
100
AcDbEntity
  8
0
  6
Continuous
 62
     7
370
    25
100
AcDbSpline
210
0.0
220
0.0
230
1.0
 70
    24
 71
     3
 72
     9
 73
     5
 74
     0
 42
0.00000001
 43
0.00000001
 40
0.0
 40
0.0
 40
0.0
 40
0.0
 40
0.5599999999999908
 40
1.0
 40
1.0
 40
1.0
 40
1.0
 10
167.085350376062
 20
81.56489354955721
 30
0.0
 10
167.0853570088329
 20
81.56146290758221
 30
0.0
 10
167.0853688530668
 20
81.5553367611983
 30
0.0
 10
167.0854418980061
 20
81.51755601548774
 30
0.0
 10
167.0854740377793
 20
81.5009324873751
 30
0.0
  0
SPLINE
  5
165
330
1F
100
AcDbEntity
  8
0
  6
Continuous
 62
     7
370
    25
100
AcDbSpline
210
0.0
220
0.0
230
1.0
 70
    24
 71
     3
 72
     9
 73
     5
 74
     0
 42
0.00000001
 43
0.00000001
 40
0.0
 40
0.0
 40
0.0
 40
0.0
 40
0.5599999999999659
 40
1.0
 40
1.0
 40
1.0
 40
1.0
 10
167.4854732901816
 20
81.50170584217598
 30
0.0
 10
167.4854336910957
 20
81.52218752115903
 30
0.0
 10
167.4853629784422
 20
81.55876194791448
 30
0.0
 10
167.4853537076242
 20
81.56355705655588
 30
0.0
 10
167.4853496284642
 20
81.5656669043581
 30
0.0
  0
SPLINE
  5
166
330
1F
100
AcDbEntity
  8
0
  6
Continuous
 62
     7
370
    25
100
AcDbSpline
210
0.0
220
0.0
230
1.0
 70
     8
 71
     3
 72
    11
 73
     7
 74
     0
 42
0.00000001
 43
0.00000001
 40
0.0
 40
0.0
 40
0.0
 40
0.0
 40
0.0661662827718095
 40
0.4400485989930133
 40
0.7309294034528653
 40
1.0
 40
1.0
 40
1.0
 40
1.0
 10
168.414746080238
 20
80.90078756140936
 30
0.0
 10
168.4097846056766
 20
80.92733630467175
 30
0.0
 10
168.3767875890962
 20
81.10390262800483
 30
0.0
 10
168.1547883281742
 20
81.3367628634184
 30
0.0
 10
167.8254536368495
 20
81.53403025295204
 30
0.0
 10
167.5957351051998
 20
81.55539879001167
 30
0.0
 10
167.4853496284642
 20
81.56566690435808
 30
0.0
  0
LINE
  5
167
330
1F
100
AcDbEntity
  8
0
  6
Continuous
 62
     7
370
    25
100
AcDbLine
 10
167.4853496285
 20
81.5656669044
 30
0.0
 11
167.0853503761
 21
81.5648935496
 31
0.0
  0
LINE
  5
168
330
1F
100
AcDbEntity
  8
0
  6
Continuous
 62
     7
370
    25
100
AcDbLine
 10
166.0883117587
 20
80.0322225783
 30
0.0
 11
166.092019934
 21
78.1142576962
 31
0.0
  0
LINE
  5
169
330
1F
100
AcDbEntity
  8
0
  6
Continuous
 62
     7
370
    25
100
AcDbLine
 10
168.4920244196
 20
78.1142576962
 30
0.0
 11
168.488301866
 21
80.0396594365
 31
0.0
  0
LINE
  5
16A
330
1F
100
AcDbEntity
  8
0
  6
Continuous
 62
     7
370
    25
100
AcDbLine
 10
132.1847060435
 20
78.1142576962
 30
0.0
 11
132.1847060435
 21
79.6142576962
 31
0.0
  0
LINE
  5
16B
330
1F
100
AcDbEntity
  8
0
  6
Continuous
 62
     7
370
    25
100
AcDbLine
 10
124.6847060435
 20
79.6142576962
 30
0.0
 11
132.1847060435
 21
79.6142576962
 31
0.0
  0
LINE
  5
16C
330
1F
100
AcDbEntity
  8
0
  6
Continuous
 62
     7
370
    25
100
AcDbLine
 10
132.1847060435
 20
79.6142576962
 30
0.0
 11
139.6847060435
 21
79.6142576962
 31
0.0
  0
LINE
  5
16D
330
1F
100
AcDbEntity
  8
0
  6
Continuous
 62
     7
370
    25
100
AcDbLine
 10
1309.4390860119
 20
78.364751811
 30
0.0
 11
1309.3338833263
 21
80.3702731889
 31
0.0
  0
LINE
  5
16E
330
1F
100
AcDbEntity
  8
0
  6
Continuous
 62
     7
370
    25
100
AcDbLine
 10
1306.2682951626
 20
80.3702737974
 30
0.0
 11
1305.7712042279
 21
78.1142576962
 31
0.0
  0
LINE
  5
16F
330
1F
100
AcDbEntity
  8
0
  6
Continuous
 62
     7
370
    25
100
AcDbLine
 10
1288.9508178824
 20
78.1142576962
 30
0.0
 11
1288.4537269477
 21
80.3702737974
 31
0.0
  0
LINE
  5
170
330
1F
100
AcDbEntity
  8
0
  6
Continuous
 62
     7
370
    25
100
AcDbLine
 10
1285.3881387839
 20
80.3702731889
 30
0.0
 11
1285.2829360984
 21
78.364751811
 31
0.0
  0
LINE
  5
171
330
1F
100
AcDbEntity
  8
0
  6
Continuous
 62
     7
370
    25
100
AcDbLine
 10
730.9270364584
 20
34.4065142065
 30
0.0
 11
730.1610110553
 21
34.4065142065
 31
0.0
  0
LINE
  5
172
330
1F
100
AcDbEntity
  8
0
  6
Continuous
 62
     7
370
    25
100
AcDbLine
 10
730.1610110553
 20
34.4065142065
 30
0.0
 11
730.1610110553
 21
34.8562763823
 31
0.0
  0
LINE
  5
173
330
1F
100
AcDbEntity
  8
0
  6
Continuous
 62
     7
370
    25
100
AcDbLine
 10
1323.3610110551
 20
78.1142576962
 30
0.0
 11
730.3610110551
 21
78.1142576962
 31
0.0
  0
SPLINE
  5
174
330
1F
100
AcDbEntity
  8
0
  6
Continuous
 62
     7
370
    25
100
AcDbSpline
210
0.0
220
0.0
230
1.0
 70
     8
 71
     3
 72
    12
 73
     8
 74
     0
 42
0.00000001
 43
0.00000001
 40
0.0
 40
0.0
 40
0.0
 40
0.0
 40
0.2893414005111998
 40
0.3971452043941958
 40
0.4846423278047048
 40
0.6854347487896807
 40
1.0
 40
1.0
 40
1.0
 40
1.0
 10
1323.861011055124
 20
77.95185413844496
 30
0.0
 10
1323.780271691442
 20
77.96497981619964
 30
0.0
 10
1323.669450180814
 20
77.98299590365026
 30
0.0
 10
1323.548573939284
 20
78.01482192501267
 30
0.0
 10
1323.466779717944
 20
78.04661207782692
 30
0.0
 10
1323.408497217721
 20
78.0996526066574
 30
0.0
 10
1323.379009710475
 20
78.10872193675046
 30
0.0
 10
1323.361011055124
 20
78.11425769619085
 30
0.0
  0
LINE
  5
175
330
1F
100
AcDbEntity
  8
0
  6
Continuous
 62
     7
370
    25
100
AcDbLine
 10
1323.8610110551
 20
76.9142576962
 30
0.0
 11
1323.8610110551
 21
77.9518541384
 31
0.0
  0
LINE
  5
176
330
1F
100
AcDbEntity
  8
0
  6
Continuous
 62
     7
370
    25
100
AcDbLine
 10
1323.8610110551
 20
76.9142576962
 30
0.0
 11
729.8610110551
 21
76.9142576962
 31
0.0
  0
SPLINE
  5
177
330
1F
100
AcDbEntity
  8
0
  6
Continuous
 62
     7
370
    25
100
AcDbSpline
210
0.0
220
0.0
230
1.0
 70
     8
 71
     3
 72
    12
 73
     8
 74
     0
 42
0.00000001
 43
0.00000001
 40
0.0
 40
0.0
 40
0.0
 40
0.0
 40
0.3006396946908552
 40
0.4108252155236801
 40
0.497232286659863
 40
0.6936496679230452
 40
1.0
 40
1.0
 40
1.0
 40
1.0
 10
730.3610110551238
 20
78.11425769619085
 30
0.0
 10
730.34856139894
 20
78.10899035705594
 30
0.0
 10
730.3315488993425
 20
78.10179251933342
 30
0.0
 10
730.2831715290607
 20
78.06642439511229
 30
0.0
 10
730.2235748375734
 20
78.03519023962713
 30
0.0
 10
730.0750763586474
 20
77.99731165021393
 30
0.0
 10
729.9420610047474
 20
77.96906537720972
 30
0.0
 10
729.8610110551238
 20
77.95185413852995
 30
0.0
  0
LINE
  5
178
330
1F
100
AcDbEntity
  8
0
  6
Continuous
 62
     7
370
    25
100
AcDbLine
 10
729.8610110551
 20
77.9518541385
 30
0.0
 11
729.8610110551
 21
76.9142576962
 31
0.0
  0
LINE
  5
179
330
1F
100
AcDbEntity
  8
0
  6
Continuous
 62
     7
370
    25
100
AcDbLine
 10
1323.8610110551
 20
62.4065142066
 30
0.0
 11
729.8610110551
 21
62.4065142066
 31
0.0
  0
LINE
  5
17A
330
1F
100
AcDbEntity
  8
0
  6
Continuous
 62
     7
370
    25
100
AcDbLine
 10
1323.8610110551
 20
76.9142576962
 30
0.0
 11
1323.8610110551
 21
62.4065142066
 31
0.0
  0
LINE
  5
17B
330
1F
100
AcDbEntity
  8
0
  6
Continuous
 62
     7
370
    25
100
AcDbLine
 10
729.8610110551
 20
62.4065142066
 30
0.0
 11
729.8610110551
 21
76.9142576962
 31
0.0
  0
ARC
  5
17C
330
1F
100
AcDbEntity
  8
0
  6
Continuous
 62
     7
370
    25
100
AcDbCircle
 10
1323.8610110551
 20
76.9142576962
 30
0.0
 40
1.200000000000045
100
AcDbArc
 50
0.0
 51
59.8443265724
  0
LINE
  5
17D
330
1F
100
AcDbEntity
  8
0
  6
Continuous
 62
     7
370
    25
100
AcDbLine
 10
1325.0610110551
 20
76.9142576962
 30
0.0
 11
1324.5610110551
 21
76.9142576962
 31
0.0
  0
LINE
  5
17E
330
1F
100
AcDbEntity
  8
0
  6
Continuous
 62
     7
370
    25
100
AcDbLine
 10
1324.2126568633
 20
77.5195222876
 30
0.0
 11
1324.4638324406
 21
77.9518541385
 31
0.0
  0
ARC
  5
17F
330
1F
100
AcDbEntity
  8
0
  6
Continuous
 62
     7
370
    25
100
AcDbCircle
 10
1323.8610110551
 20
76.9142576962
 30
0.0
 40
0.7000000000000455
100
AcDbArc
 50
0.0
 51
59.8443265724
  0
SPLINE
  5
180
330
1F
100
AcDbEntity
  8
0
  6
Continuous
 62
     7
370
    25
100
AcDbSpline
210
0.0
220
0.0
230
1.0
 70
     8
 71
     3
 72
    12
 73
     8
 74
     0
 42
0.00000001
 43
0.00000001
 40
0.0
 40
0.0
 40
0.0
 40
0.0
 40
0.3006396947613481
 40
0.4108252155763567
 40
0.4972322866632269
 40
0.6936496680067786
 40
1.0
 40
1.0
 40
1.0
 40
1.0
 10
1323.86101105513
 20
78.11425769619085
 30
0.0
 10
1323.947992539716
 20
78.10899035705394
 30
0.0
 10
1324.066853048753
 20
78.10179251932945
 30
0.0
 10
1324.19924650103
 20
78.06642439510077
 30
0.0
 10
1324.293389788478
 20
78.03519023962093
 30
0.0
 10
1324.381323849304
 20
77.99731165021753
 30
0.0
 10
1324.432592827965
 20
77.96906537721057
 30
0.0
 10
1324.463832440648
 20
77.95185413853372
 30
0.0
  0
SPLINE
  5
181
330
1F
100
AcDbEntity
  8
0
  6
Continuous
 62
     7
370
    25
100
AcDbSpline
210
0.0
220
0.0
230
1.0
 70
     8
 71
     3
 72
    11
 73
     7
 74
     0
 42
0.00000001
 43
0.00000001
 40
0.0
 40
0.0
 40
0.0
 40
0.0
 40
0.2349722125484278
 40
0.3277350520111021
 40
0.408870812542372
 40
1.0
 40
1.0
 40
1.0
 40
1.0
 10
1323.86101105513
 20
77.61425769619085
 30
0.0
 10
1323.912567476007
 20
77.61097298968079
 30
0.0
 10
1323.984477452485
 20
77.60639153961384
 30
0.0
 10
1324.061056673262
 20
77.58552191569284
 30
0.0
 10
1324.170506588544
 20
77.54862645364456
 30
0.0
 10
1324.192935181098
 20
77.53313982904197
 30
0.0
 10
1324.212656863349
 20
77.51952228755752
 30
0.0
  0
LINE
  5
182
330
1F
100
AcDbEntity
  8
0
  6
Continuous
 62
     7
370
    25
100
AcDbLine
 10
730.3610110551
 20
78.1142576962
 30
0.0
 11
729.8610110553
 21
78.1142576962
 31
0.0
  0
LINE
  5
183
330
1F
100
AcDbEntity
  8
0
  6
Continuous
 62
     7
370
    25
100
AcDbLine
 10
729.5093652469
 20
77.5195222875
 30
0.0
 11
729.2581896696
 21
77.9518541384
 31
0.0
  0
SPLINE
  5
184
330
1F
100
AcDbEntity
  8
0
  6
Continuous
 62
     7
370
    25
100
AcDbSpline
210
0.0
220
0.0
230
1.0
 70
     8
 71
     3
 72
    12
 73
     8
 74
     0
 42
0.00000001
 43
0.00000001
 40
0.0
 40
0.0
 40
0.0
 40
0.0
 40
0.2893414006980866
 40
0.3971452045335664
 40
0.4846423278180156
 40
0.6854347490577789
 40
0.9999999999999999
 40
0.9999999999999999
 40
0.9999999999999999
 40
0.9999999999999999
 10
729.2581896695873
 20
77.95185413844504
 30
0.0
 10
729.2812990975532
 20
77.96497981620556
 30
0.0
 10
729.3130187148427
 20
77.98299590365885
 30
0.0
 10
729.3816648584583
 20
78.01482192501618
 30
0.0
 10
729.4596114946037
 20
78.04661207787092
 30
0.0
 10
729.6237411912591
 20
78.09965260667202
 30
0.0
 10
729.7710787829585
 20
78.10872193675884
 30
0.0
 10
729.8610110552577
 20
78.11425769619085
 30
0.0
  0
SPLINE
  5
185
330
1F
100
AcDbEntity
  8
0
  6
Continuous
 62
     7
370
    25
100
AcDbSpline
210
0.0
220
0.0
230
1.0
 70
     8
 71
     3
 72
    12
 73
     8
 74
     0
 42
0.00000001
 43
0.00000001
 40
0.0
 40
0.0
 40
0.0
 40
0.0
 40
0.3588037911084294
 40
0.5752394285544872
 40
0.6544863258297628
 40
0.7503396586987788
 40
1.0
 40
1.0
 40
1.0
 40
1.0
 10
729.50936524695
 20
77.51952228750581
 30
0.0
 10
729.52285408261
 20
77.52700843573705
 30
0.0
 10
729.5444795790768
 20
77.53901033688003
 30
0.0
 10
729.5912252227696
 20
77.5614632468802
 30
0.0
 10
729.6537920602204
 20
77.58340547829943
 30
0.0
 10
729.7331470524092
 20
77.60583791458488
 30
0.0
 10
729.8073753625669
 20
77.61072581224634
 30
0.0
 10
729.8610110552577
 20
77.61425769619085
 30
0.0
  0
LINE
  5
186
330
1F
100
AcDbEntity
  8
0
  6
Continuous
 62
     7
370
    25
100
AcDbLine
 10
729.1610110553
 20
76.9142576962
 30
0.0
 11
728.6610110553
 21
76.9142576962
 31
0.0
  0
ARC
  5
187
330
1F
100
AcDbEntity
  8
0
  6
Continuous
 62
     7
370
    25
100
AcDbCircle
 10
729.8610110553
 20
76.9142576962
 30
0.0
 40
1.200000000000054
100
AcDbArc
 50
120.155673436
 51
180.0
  0
ARC
  5
188
330
1F
100
AcDbEntity
  8
0
  6
Continuous
 62
     7
370
    25
100
AcDbCircle
 10
729.8610110553
 20
76.9142576962
 30
0.0
 40
0.7000000000000455
100
AcDbArc
 50
120.155673436
 51
180.0
  0
LINE
  5
189
330
1F
100
AcDbEntity
  8
0
  6
Continuous
 62
     7
370
    25
100
AcDbLine
 10
1323.8610110551
 20
78.1142576962
 30
0.0
 11
1323.3610110551
 21
78.1142576962
 31
0.0
  0
LINE
  5
18A
330
1F
100
AcDbEntity
  8
0
  6
Continuous
 62
     7
370
    25
100
AcDbLine
 10
1324.5610110551
 20
35.1065142067
 30
0.0
 11
1325.0610110551
 21
35.1065142067
 31
0.0
  0
ARC
  5
18B
330
1F
100
AcDbEntity
  8
0
  6
Continuous
 62
     7
370
    25
100
AcDbCircle
 10
1323.8610110551
 20
35.1065142067
 30
0.0
 40
1.199999999999894
100
AcDbArc
 50
317.7820572009
 51
360.0
  0
ARC
  5
18C
330
1F
100
AcDbEntity
  8
0
  6
Continuous
 62
     7
370
    25
100
AcDbCircle
 10
1323.8610110551
 20
35.1065142067
 30
0.0
 40
0.6999999999999151
100
AcDbArc
 50
317.7820572009
 51
360.0
  0
LINE
  5
18D
330
1F
100
AcDbEntity
  8
0
  6
Continuous
 62
     7
370
    25
100
AcDbLine
 10
1324.3794269975
 20
34.6361474234
 30
0.0
 11
1324.7497240991
 21
34.3001711497
 31
0.0
  0
LINE
  5
18E
330
1F
100
AcDbEntity
  8
0
  6
Continuous
 62
     7
370
    25
100
AcDbLine
 10
1325.0610110551
 20
35.1065142067
 30
0.0
 11
1325.0610110551
 21
76.9142576962
 31
0.0
  0
LINE
  5
18F
330
1F
100
AcDbEntity
  8
0
  6
Continuous
 62
     7
370
    25
100
AcDbLine
 10
1324.5610110551
 20
35.1065142067
 30
0.0
 11
1324.5610110551
 21
76.9142576962
 31
0.0
  0
LINE
  5
190
330
1F
100
AcDbEntity
  8
0
  6
Continuous
 62
     7
370
    25
100
AcDbLine
 10
729.1610110553
 20
35.1065142065
 30
0.0
 11
728.6610110553
 21
35.1065142065
 31
0.0
  0
ARC
  5
191
330
1F
100
AcDbEntity
  8
0
  6
Continuous
 62
     7
370
    25
100
AcDbCircle
 10
729.8610110553
 20
35.1065142065
 30
0.0
 40
1.200000000000037
100
AcDbArc
 50
180.0
 51
222.2179427991
  0
ARC
  5
192
330
1F
100
AcDbEntity
  8
0
  6
Continuous
 62
     7
370
    25
100
AcDbCircle
 10
729.8610110553
 20
35.1065142065
 30
0.0
 40
0.7000000000000455
100
AcDbArc
 50
180.0
 51
222.2179427991
  0
LINE
  5
193
330
1F
100
AcDbEntity
  8
0
  6
Continuous
 62
     7
370
    25
100
AcDbLine
 10
729.3425951129
 20
34.6361474233
 30
0.0
 11
728.9722980113
 21
34.3001711496
 31
0.0
  0
LINE
  5
194
330
1F
100
AcDbEntity
  8
0
  6
Continuous
 62
     7
370
    25
100
AcDbLine
 10
728.6610110553
 20
76.9142576962
 30
0.0
 11
728.6610110553
 21
35.1065142065
 31
0.0
  0
LINE
  5
195
330
1F
100
AcDbEntity
  8
0
  6
Continuous
 62
     7
370
    25
100
AcDbLine
 10
729.1610110553
 20
76.9142576962
 30
0.0
 11
729.1610110553
 21
35.1065142065
 31
0.0
  0
LINE
  5
196
330
1F
100
AcDbEntity
  8
0
  6
Continuous
 62
     7
370
    25
100
AcDbLine
 10
1323.8610110551
 20
34.4065142067
 30
0.0
 11
1323.8610110551
 21
33.9065142067
 31
0.0
  0
SPLINE
  5
197
330
1F
100
AcDbEntity
  8
0
  6
Continuous
 62
     7
370
    25
100
AcDbSpline
210
0.0
220
0.0
230
1.0
 70
     8
 71
     3
 72
    11
 73
     7
 74
     0
 42
0.00000001
 43
0.00000001
 40
0.0
 40
0.0
 40
0.0
 40
0.0
 40
0.2500000000000119
 40
0.5000000000000063
 40
0.7500000000000017
 40
1.0
 40
1.0
 40
1.0
 40
1.0
 10
1324.749724099121
 20
34.30017114973421
 30
0.0
 10
1324.689956057126
 20
34.2417427735667
 30
0.0
 10
1324.570419973135
 20
34.12488602123167
 30
0.0
 10
1324.350081241564
 20
34.0023978897697
 30
0.0
 10
1324.11131006945
 20
33.92152251436593
 30
0.0
 10
1323.944444059903
 20
33.91151697589001
 30
0.0
 10
1323.86101105513
 20
33.90651420665206
 30
0.0
  0
SPLINE
  5
198
330
1F
100
AcDbEntity
  8
0
  6
Continuous
 62
     7
370
    25
100
AcDbSpline
210
0.0
220
0.0
230
1.0
 70
     8
 71
     3
 72
    11
 73
     7
 74
     0
 42
0.00000001
 43
0.00000001
 40
0.0
 40
0.0
 40
0.0
 40
0.0
 40
0.2500000000000117
 40
0.5000000000000084
 40
0.7500000000000371
 40
1.0
 40
1.0
 40
1.0
 40
1.0
 10
1324.379426997458
 20
34.63614742344998
 30
0.0
 10
1324.344562306294
 20
34.60206420401893
 30
0.0
 10
1324.274832923966
 20
34.53389776515684
 30
0.0
 10
1324.146301997216
 20
34.46244635513734
 30
0.0
 10
1324.007018813483
 20
34.41526905281848
 30
0.0
 10
1323.909680307914
 20
34.40943248870754
 30
0.0
 10
1323.86101105513
 20
34.40651420665206
 30
0.0
  0
LINE
  5
199
330
1F
100
AcDbEntity
  8
0
  6
Continuous
 62
     7
370
    25
100
AcDbLine
 10
729.8610110553
 20
34.4065142065
 30
0.0
 11
729.8610110553
 21
33.9065142065
 31
0.0
  0
SPLINE
  5
19A
330
1F
100
AcDbEntity
  8
0
  6
Continuous
 62
     7
370
    25
100
AcDbSpline
210
0.0
220
0.0
230
1.0
 70
     8
 71
     3
 72
    11
 73
     7
 74
     0
 42
0.00000001
 43
0.00000001
 40
0.0
 40
0.0
 40
0.0
 40
0.0
 40
0.2500000000000081
 40
0.5000000000000173
 40
0.7500000000000248
 40
1.0
 40
1.0
 40
1.0
 40
1.0
 10
729.8610110552578
 20
33.90651420651228
 30
0.0
 10
729.7775780504845
 20
33.91151697575023
 30
0.0
 10
729.610712040938
 20
33.92152251422615
 30
0.0
 10
729.3719408688239
 20
34.00239788962992
 30
0.0
 10
729.1516021372529
 20
34.1248860210919
 30
0.0
 10
729.0320660532619
 20
34.24174277342692
 30
0.0
 10
728.9722980112665
 20
34.30017114959443
 30
0.0
  0
SPLINE
  5
19B
330
1F
100
AcDbEntity
  8
0
  6
Continuous
 62
     7
370
    25
100
AcDbSpline
210
0.0
220
0.0
230
1.0
 70
     8
 71
     3
 72
    11
 73
     7
 74
     0
 42
0.00000001
 43
0.00000001
 40
0.0
 40
0.0
 40
0.0
 40
0.0
 40
0.2500000000000407
 40
0.4999999999999645
 40
0.7499999999999574
 40
1.0
 40
1.0
 40
1.0
 40
1.0
 10
729.8610110552578
 20
34.40651420651228
 30
0.0
 10
729.8123418024734
 20
34.40943248856775
 30
0.0
 10
729.7150032969046
 20
34.4152690526787
 30
0.0
 10
729.5757201131715
 20
34.46244635499757
 30
0.0
 10
729.4471891864216
 20
34.53389776501706
 30
0.0
 10
729.3774598040934
 20
34.60206420387914
 30
0.0
 10
729.3425951129295
 20
34.63614742331018
 30
0.0
  0
LINE
  5
19C
330
1F
100
AcDbEntity
  8
0
  6
Continuous
 62
     7
370
    25
100
AcDbLine
 10
1323.088243031
 20
33.9065142067
 30
0.0
 11
1323.8610110551
 21
33.9065142067
 31
0.0
  0
LINE
  5
19D
330
1F
100
AcDbEntity
  8
0
  6
Continuous
 62
     7
370
    25
100
AcDbLine
 10
1323.1949856519
 20
34.4065142067
 30
0.0
 11
1323.8610110551
 21
34.4065142067
 31
0.0
  0
LINE
  5
19E
330
1F
100
AcDbEntity
  8
0
  6
Continuous
 62
     7
370
    25
100
AcDbLine
 10
729.8610110553
 20
33.9065142065
 30
0.0
 11
731.0337790793
 21
33.9065142065
 31
0.0
  0
LINE
  5
19F
330
1F
100
AcDbEntity
  8
0
  6
Continuous
 62
     7
370
    25
100
AcDbLine
 10
729.8610110553
 20
34.4065142065
 30
0.0
 11
730.1605060553
 21
34.4065142065
 31
0.0
  0
LINE
  5
1A0
330
1F
100
AcDbEntity
  8
0
  6
Continuous
 62
     7
370
    25
100
AcDbLine
 10
1313.8610110552
 20
32.9065142066
 30
0.0
 11
1313.8610110552
 21
33.4065142066
 31
0.0
  0
LINE
  5
1A1
330
1F
100
AcDbEntity
  8
0
  6
Continuous
 62
     7
370
    25
100
AcDbLine
 10
1323.0687545448
 20
32.9065142066
 30
0.0
 11
1323.0687545448
 21
33.4065142066
 31
0.0
  0
LINE
  5
1A2
330
1F
100
AcDbEntity
  8
0
  6
Continuous
 62
     7
370
    25
100
AcDbLine
 10
1323.0610110551
 20
33.4065142066
 30
0.0
 11
1323.0687545448
 21
33.4065142066
 31
0.0
  0
LINE
  5
1A3
330
1F
100
AcDbEntity
  8
0
  6
Continuous
 62
     7
370
    25
100
AcDbLine
 10
1313.8610110552
 20
32.9065142066
 30
0.0
 11
1323.0687545448
 21
32.9065142066
 31
0.0
  0
LINE
  5
1A4
330
1F
100
AcDbEntity
  8
0
  6
Continuous
 62
     7
370
    25
100
AcDbLine
 10
739.8610110553
 20
32.9065142066
 30
0.0
 11
739.8610110553
 21
33.4065142066
 31
0.0
  0
LINE
  5
1A5
330
1F
100
AcDbEntity
  8
0
  6
Continuous
 62
     7
370
    25
100
AcDbLine
 10
730.6532675657
 20
33.4065142066
 30
0.0
 11
730.6532675657
 21
32.9065142066
 31
0.0
  0
LINE
  5
1A6
330
1F
100
AcDbEntity
  8
0
  6
Continuous
 62
     7
370
    25
100
AcDbLine
 10
730.6532675657
 20
33.4065142066
 30
0.0
 11
731.0610110551
 21
33.4065142066
 31
0.0
  0
LINE
  5
1A7
330
1F
100
AcDbEntity
  8
0
  6
Continuous
 62
     7
370
    25
100
AcDbLine
 10
730.6532675657
 20
32.9065142066
 30
0.0
 11
739.8610110553
 21
32.9065142066
 31
0.0
  0
LINE
  5
1A8
330
1F
100
AcDbEntity
  8
0
  6
Continuous
 62
     7
370
    25
100
AcDbLine
 10
739.8610110553
 20
32.9065142066
 30
0.0
 11
1313.8610110552
 21
32.9065142066
 31
0.0
  0
LINE
  5
1A9
330
1F
100
AcDbEntity
  8
0
  6
Continuous
 62
     7
370
    25
100
AcDbLine
 10
1323.8610110553
 20
33.9065142067
 30
0.0
 11
1323.8610110553
 21
33.6361474234
 31
0.0
  0
SPLINE
  5
1AA
330
1F
100
AcDbEntity
  8
0
  6
Continuous
 62
     7
370
    25
100
AcDbSpline
210
0.0
220
0.0
230
1.0
 70
     8
 71
     3
 72
     9
 73
     5
 74
     0
 42
0.00000001
 43
0.00000001
 40
0.0
 40
0.0
 40
0.0
 40
0.0
 40
0.5000000000000221
 40
1.0
 40
1.0
 40
1.0
 40
1.0
 10
1323.861011055254
 20
33.63614742338721
 30
0.0
 10
1323.728968303511
 20
33.5704558329391
 30
0.0
 10
1323.464882800026
 20
33.4390726520429
 30
0.0
 10
1323.200797296541
 20
33.41736702174049
 30
0.0
 10
1323.068754544798
 20
33.40651420658928
 30
0.0
  0
SPLINE
  5
1AB
330
1F
100
AcDbEntity
  8
0
  6
Continuous
 62
     7
370
    25
100
AcDbSpline
210
0.0
220
0.0
230
1.0
 70
     8
 71
     3
 72
     9
 73
     5
 74
     0
 42
0.00000001
 43
0.00000001
 40
0.0
 40
0.0
 40
0.0
 40
0.0
 40
0.4999999999999888
 40
1.0
 40
1.0
 40
1.0
 40
1.0
 10
730.6532675657129
 20
33.40651420658546
 30
0.0
 10
730.5212248139705
 20
33.41736702173667
 30
0.0
 10
730.2571393104855
 20
33.43907265203908
 30
0.0
 10
729.9930538070004
 20
33.57045583293526
 30
0.0
 10
729.8610110552579
 20
33.63614742338336
 30
0.0
  0
LINE
  5
1AC
330
1F
100
AcDbEntity
  8
0
  6
Continuous
 62
     7
370
    25
100
AcDbLine
 10
729.8610110553
 20
33.6361474234
 30
0.0
 11
729.8610110553
 21
33.9065142065
 31
0.0
  0
SPLINE
  5
1AD
330
1F
100
AcDbEntity
  8
0
  6
Continuous
 62
     7
370
    25
100
AcDbSpline
210
0.0
220
0.0
230
1.0
 70
     8
 71
     3
 72
     9
 73
     5
 74
     0
 42
0.00000001
 43
0.00000001
 40
0.0
 40
0.0
 40
0.0
 40
0.0
 40
0.5000000000000011
 40
1.0
 40
1.0
 40
1.0
 40
1.0
 10
730.6532675657129
 20
32.90651420658546
 30
0.0
 10
730.5212248139705
 20
32.92511903255896
 30
0.0
 10
730.2571393104854
 20
32.96232868450595
 30
0.0
 10
729.9930538070005
 20
33.18755699461369
 30
0.0
 10
729.8610110552579
 20
33.30017114966757
 30
0.0
  0
SPLINE
  5
1AE
330
1F
100
AcDbEntity
  8
0
  6
Continuous
 62
     7
370
    25
100
AcDbSpline
210
0.0
220
0.0
230
1.0
 70
     8
 71
     3
 72
     9
 73
     5
 74
     0
 42
0.00000001
 43
0.00000001
 40
0.0
 40
0.0
 40
0.0
 40
0.0
 40
0.5000000000000306
 40
0.9999999999999999
 40
0.9999999999999999
 40
0.9999999999999999
 40
0.9999999999999999
 10
1323.861011055254
 20
33.30017114967143
 30
0.0
 10
1323.728968303511
 20
33.18755699461754
 30
0.0
 10
1323.464882800026
 20
32.96232868450979
 30
0.0
 10
1323.200797296541
 20
32.92511903256279
 30
0.0
 10
1323.068754544798
 20
32.90651420658928
 30
0.0
  0
LINE
  5
1AF
330
1F
100
AcDbEntity
  8
0
  6
Continuous
 62
     7
370
    25
100
AcDbLine
 10
729.8610110553
 20
33.6361474234
 30
0.0
 11
729.8610110553
 21
33.3001711497
 31
0.0
  0
SPLINE
  5
1B0
330
1F
100
AcDbEntity
  8
0
  6
Continuous
 62
     7
370
    25
100
AcDbSpline
210
0.0
220
0.0
230
1.0
 70
     8
 71
     3
 72
     9
 73
     5
 74
     0
 42
0.00000001
 43
0.00000001
 40
0.0
 40
0.0
 40
0.0
 40
0.0
 40
0.5437602269932821
 40
1.0
 40
1.0
 40
1.0
 40
1.0
 10
729.5610110551274
 20
35.02837214980434
 30
0.0
 10
729.5057409072443
 20
35.04993019000028
 30
0.0
 10
729.4040965700171
 20
35.08957641479893
 30
0.0
 10
729.3247413029868
 20
35.12922263959759
 30
0.0
 10
729.2885362739701
 20
35.1473108242003
 30
0.0
  0
SPLINE
  5
1B1
330
1F
100
AcDbEntity
  8
0
  6
Continuous
 62
     7
370
    25
100
AcDbSpline
210
0.0
220
0.0
230
1.0
 70
     8
 71
     3
 72
    10
 73
     6
 74
     0
 42
0.00000001
 43
0.00000001
 40
0.0
 40
0.0
 40
0.0
 40
0.0
 40
0.3003458525071966
 40
0.6501729262535925
 40
1.0
 40
1.0
 40
1.0
 40
1.0
 10
729.5610110551273
 20
35.11943026125539
 30
0.0
 10
729.4924235626778
 20
35.17281295223662
 30
0.0
 10
729.3439489614873
 20
35.28837299782015
 30
0.0
 10
729.1933399906114
 20
35.46611039800599
 30
0.0
 10
729.1717873670424
 20
35.59046510721059
 30
0.0
 10
729.1610110552577
 20
35.65264246181289
 30
0.0
  0
LINE
  5
1B2
330
1F
100
AcDbEntity
  8
0
  6
Continuous
 62
     7
370
    25
100
AcDbLine
 10
729.1610110553
 20
76.9142576962
 30
0.0
 11
729.8610110553
 21
76.9142576962
 31
0.0
  0
LINE
  5
1B3
330
1F
100
AcDbEntity
  8
0
  6
Continuous
 62
     7
370
    25
100
AcDbLine
 10
1323.8610110553
 20
33.6361474234
 30
0.0
 11
1323.8610110553
 21
33.3001711497
 31
0.0
  0
LINE
  5
1B4
330
1F
100
AcDbEntity
  8
0
  6
Continuous
 62
     7
370
    25
100
AcDbLine
 10
1323.8610110552
 20
76.9142576962
 30
0.0
 11
1324.5610110551
 21
76.9142576962
 31
0.0
  0
LINE
  5
1B5
330
1F
100
AcDbEntity
  8
0
  6
Continuous
 62
     7
370
    25
100
AcDbLine
 10
729.8610110553
 20
34.9065142066
 30
0.0
 11
729.8610110553
 21
34.4065142065
 31
0.0
  0
LINE
  5
1B6
330
1F
100
AcDbEntity
  8
0
  6
Continuous
 62
     7
370
    25
100
AcDbLine
 10
1323.8610110553
 20
34.4065142067
 30
0.0
 11
1323.8610110553
 21
34.9065142066
 31
0.0
  0
LINE
  5
1B7
330
1F
100
AcDbEntity
  8
0
  6
Continuous
 62
     7
370
    25
100
AcDbLine
 10
729.6610110553
 20
71.9065142067
 30
0.0
 11
729.1610110553
 21
71.9065142067
 31
0.0
  0
LINE
  5
1B8
330
1F
100
AcDbEntity
  8
0
  6
Continuous
 62
     7
370
    25
100
AcDbLine
 10
729.6610110553
 20
67.9065142041
 30
0.0
 11
729.6610110553
 21
71.9065142067
 31
0.0
  0
ARC
  5
1B9
330
1F
100
AcDbEntity
  8
0
  6
Continuous
 62
     7
370
    25
100
AcDbCircle
 10
730.1610110553
 20
37.9065142067
 30
0.0
 40
1.000000000000046
100
AcDbArc
 50
180.0
 51
233.1301023449
  0
LINE
  5
1BA
330
1F
100
AcDbEntity
  8
0
  6
Continuous
 62
     7
370
    25
100
AcDbLine
 10
1324.0610110551
 20
71.9065142066
 30
0.0
 11
1324.5610110551
 21
71.9065142066
 31
0.0
  0
LINE
  5
1BB
330
1F
100
AcDbEntity
  8
0
  6
Continuous
 62
     7
370
    25
100
AcDbLine
 10
1324.0610110551
 20
71.9065142066
 30
0.0
 11
1324.0610110551
 21
67.9337461793
 31
0.0
  0
ARC
  5
1BC
330
1F
100
AcDbEntity
  8
0
  6
Continuous
 62
     7
370
    25
100
AcDbCircle
 10
730.0610110551
 20
33.9065142041
 30
0.0
 40
1.000000000000034
100
AcDbArc
 50
30.0
 51
60.0
  0
ARC
  5
1BD
330
1F
100
AcDbEntity
  8
0
  6
Continuous
 62
     7
370
    25
100
AcDbCircle
 10
1324.0610110551
 20
33.9065142041
 30
0.0
 40
1.000000000000116
100
AcDbArc
 50
120.0
 51
150.0
  0
LINE
  5
1BE
330
1F
100
AcDbEntity
  8
0
  6
Continuous
 62
     7
370
    25
100
AcDbLine
 10
1323.1949856513
 20
34.4065142041
 30
0.0
 11
730.9270364589
 21
34.4065142041
 31
0.0
  0
LINE
  5
1BF
330
1F
100
AcDbEntity
  8
0
  6
Continuous
 62
     7
370
    25
100
AcDbLine
 10
1324.5610110551
 20
67.9065142041
 30
0.0
 11
1324.1793808582
 21
67.9065142041
 31
0.0
  0
LINE
  5
1C0
330
1F
100
AcDbEntity
  8
0
  6
Continuous
 62
     7
370
    25
100
AcDbLine
 10
1324.1793808582
 20
34.9065142041
 30
0.0
 11
1324.5318314476
 21
34.9065142041
 31
0.0
  0
SPLINE
  5
1C1
330
1F
100
AcDbEntity
  8
0
  6
Continuous
 62
     7
370
    25
100
AcDbSpline
210
0.0
220
0.0
230
1.0
 70
     8
 71
     3
 72
     9
 73
     5
 74
     0
 42
0.00000001
 43
0.00000001
 40
0.0
 40
0.0
 40
0.0
 40
0.0
 40
0.5000000000000169
 40
1.0
 40
1.0
 40
1.0
 40
1.0
 10
1323.561011055125
 20
34.7725396078721
 30
0.0
 10
1323.673077586601
 20
34.79486870724136
 30
0.0
 10
1323.897210649552
 20
34.83952690597988
 30
0.0
 10
1324.085324121981
 20
34.8841851047184
 30
0.0
 10
1324.179380858195
 20
34.90651420408766
 30
0.0
  0
SPLINE
  5
1C2
330
1F
100
AcDbEntity
  8
0
  6
Continuous
 62
     7
370
    25
100
AcDbSpline
210
0.0
220
0.0
230
1.0
 70
     8
 71
     3
 72
     9
 73
     5
 74
     0
 42
0.00000001
 43
0.00000001
 40
0.0
 40
0.0
 40
0.0
 40
0.0
 40
0.9232632316587371
 40
1.0
 40
1.0
 40
1.0
 40
1.0
 10
1324.179380858195
 20
67.90651420408764
 30
0.0
 10
1324.087865083362
 20
67.92884330345689
 30
0.0
 10
1323.988743000195
 20
67.95302827974923
 30
0.0
 10
1323.870114242611
 20
67.97721325604158
 30
0.0
 10
1323.861011055122
 20
67.97906913296467
 30
0.0
  0
SPLINE
  5
1C3
330
1F
100
AcDbEntity
  8
0
  6
Continuous
 62
     7
370
    25
100
AcDbSpline
210
0.0
220
0.0
230
1.0
 70
     8
 71
     3
 72
     9
 73
     5
 74
     0
 42
0.00000001
 43
0.00000001
 40
0.0
 40
0.0
 40
0.0
 40
0.0
 40
0.5000000000000112
 40
1.0
 40
1.0
 40
1.0
 40
1.0
 10
1323.061011055125
 20
33.7881444010179
 30
0.0
 10
1323.083340154494
 20
33.88220113723222
 30
0.0
 10
1323.127998353233
 20
34.07031460966085
 30
0.0
 10
1323.172656551971
 20
34.29444767261205
 30
0.0
 10
1323.194985651341
 20
34.40651420408765
 30
0.0
  0
LINE
  5
1C4
330
1F
100
AcDbEntity
  8
0
  6
Continuous
 62
     7
370
    25
100
AcDbLine
 10
1323.0610110551
 20
33.4065142041
 30
0.0
 11
1323.0610110551
 21
33.788144401
 31
0.0
  0
LINE
  5
1C5
330
1F
100
AcDbEntity
  8
0
  6
Continuous
 62
     7
370
    25
100
AcDbLine
 10
1323.0610110551
 20
33.4065142041
 30
0.0
 11
731.0610110551
 21
33.4065142041
 31
0.0
  0
LINE
  5
1C6
330
1F
100
AcDbEntity
  8
0
  6
Continuous
 62
     7
370
    25
100
AcDbLine
 10
731.0610110551
 20
33.788144401
 30
0.0
 11
731.0610110551
 21
33.4065142041
 31
0.0
  0
SPLINE
  5
1C7
330
1F
100
AcDbEntity
  8
0
  6
Continuous
 62
     7
370
    25
100
AcDbSpline
210
0.0
220
0.0
230
1.0
 70
     8
 71
     3
 72
     9
 73
     5
 74
     0
 42
0.00000001
 43
0.00000001
 40
0.0
 40
0.0
 40
0.0
 40
0.0
 40
0.499999999999997
 40
1.0
 40
1.0
 40
1.0
 40
1.0
 10
730.9270364589096
 20
34.40651420408351
 30
0.0
 10
730.9493655582788
 20
34.29444767260792
 30
0.0
 10
730.9940237570174
 20
34.07031460965672
 30
0.0
 10
731.0386819557559
 20
33.88220113722809
 30
0.0
 10
731.0610110551252
 20
33.78814440101377
 30
0.0
  0
SPLINE
  5
1C8
330
1F
100
AcDbEntity
  8
0
  6
Continuous
 62
     7
370
    25
100
AcDbSpline
210
0.0
220
0.0
230
1.0
 70
     8
 71
     3
 72
     9
 73
     5
 74
     0
 42
0.00000001
 43
0.00000001
 40
0.0
 40
0.0
 40
0.0
 40
0.0
 40
0.4999999999999648
 40
1.0
 40
1.0
 40
1.0
 40
1.0
 10
729.9426412520554
 20
34.90651420408354
 30
0.0
 10
730.0366979882698
 20
34.88418510471426
 30
0.0
 10
730.2248114606984
 20
34.83952690597572
 30
0.0
 10
730.4489445236496
 20
34.79486870723721
 30
0.0
 10
730.5610110551253
 20
34.77253960786794
 30
0.0
  0
LINE
  5
1C9
330
1F
100
AcDbEntity
  8
0
  6
Continuous
 62
     7
370
    25
100
AcDbLine
 10
729.5610110551
 20
34.9065142041
 30
0.0
 11
729.9426412521
 21
34.9065142041
 31
0.0
  0
LINE
  5
1CA
330
1F
100
AcDbEntity
  8
0
  6
Continuous
 62
     7
370
    25
100
AcDbLine
 10
729.5610110551
 20
67.9065142041
 30
0.0
 11
729.5610110551
 21
34.9065142041
 31
0.0
  0
LINE
  5
1CB
330
1F
100
AcDbEntity
  8
0
  6
Continuous
 62
     7
370
    25
100
AcDbLine
 10
729.8610110553
 20
67.9065142041
 30
0.0
 11
729.5610110551
 21
67.9065142041
 31
0.0
  0
SPLINE
  5
1CC
330
1F
100
AcDbEntity
  8
0
  6
Continuous
 62
     7
370
    25
100
AcDbSpline
210
0.0
220
0.0
230
1.0
 70
    24
 71
     3
 72
    11
 73
     7
 74
     0
 42
0.00000001
 43
0.00000001
 40
0.0
 40
0.0
 40
0.0
 40
0.0
 40
0.2702613318128821
 40
0.5624293896420738
 40
0.789736421859521
 40
1.0
 40
1.0
 40
1.0
 40
1.0
 10
1308.001516025513
 20
81.56489354955721
 30
0.0
 10
1308.001516025513
 20
81.54699030838839
 30
0.0
 10
1308.001516025513
 20
81.50973263287985
 30
0.0
 10
1308.001516025513
 20
81.23858605238526
 30
0.0
 10
1308.001516025513
 20
80.90180528803197
 30
0.0
 10
1308.001516025513
 20
80.67293831375511
 30
0.0
 10
1308.001516025513
 20
80.5629620315494
 30
0.0
  0
SPLINE
  5
1CD
330
1F
100
AcDbEntity
  8
0
  6
Continuous
 62
     7
370
    25
100
AcDbSpline
210
0.0
220
0.0
230
1.0
 70
     8
 71
     3
 72
     9
 73
     5
 74
     0
 42
0.00000001
 43
0.00000001
 40
0.0
 40
0.0
 40
0.0
 40
0.0
 40
0.5599999999999908
 40
1.0
 40
1.0
 40
1.0
 40
1.0
 10
1308.001516025513
 20
81.56489354955721
 30
0.0
 10
1308.06884525364
 20
81.56146290758221
 30
0.0
 10
1308.189076018152
 20
81.5553367611983
 30
0.0
 10
1308.303198774235
 20
81.51755601548774
 30
0.0
 10
1308.353412786912
 20
81.5009324873751
 30
0.0
  0
SPLINE
  5
1CE
330
1F
100
AcDbEntity
  8
0
  6
Continuous
 62
     7
370
    25
100
AcDbSpline
210
0.0
220
0.0
230
1.0
 70
     8
 71
     3
 72
    11
 73
     7
 74
     0
 42
0.00000001
 43
0.00000001
 40
0.0
 40
0.0
 40
0.0
 40
0.0
 40
0.2702613318129026
 40
0.5624293896421035
 40
0.7897364218595584
 40
1.0
 40
1.0
 40
1.0
 40
1.0
 10
1308.001516025513
 20
80.5629620315494
 30
0.0
 10
1308.0513817709
 20
80.6956378200479
 30
0.0
 10
1308.155155257672
 20
80.97174377366306
 30
0.0
 10
1308.273189268051
 20
81.28623443018157
 30
0.0
 10
1308.341889110531
 20
81.46962478658278
 30
0.0
 10
1308.349672617788
 20
81.49077113851637
 30
0.0
 10
1308.353412786912
 20
81.5009324873751
 30
0.0
  0
SPLINE
  5
1CF
330
1F
100
AcDbEntity
  8
0
  6
Continuous
 62
     7
370
    25
100
AcDbSpline
210
0.0
220
0.0
230
1.0
 70
     8
 71
     3
 72
     9
 73
     5
 74
     0
 42
0.00000001
 43
0.00000001
 40
0.0
 40
0.0
 40
0.0
 40
0.0
 40
0.5600000000000586
 40
1.0
 40
1.0
 40
1.0
 40
1.0
 10
1286.720506084732
 20
81.56489354955721
 30
0.0
 10
1286.653176856605
 20
81.56146290758223
 30
0.0
 10
1286.532946092093
 20
81.5553367611983
 30
0.0
 10
1286.41882333601
 20
81.51755601548774
 30
0.0
 10
1286.368609323333
 20
81.5009324873751
 30
0.0
  0
SPLINE
  5
1D0
330
1F
100
AcDbEntity
  8
0
  6
Continuous
 62
     7
370
    25
100
AcDbSpline
210
0.0
220
0.0
230
1.0
 70
    24
 71
     3
 72
    11
 73
     7
 74
     0
 42
0.00000001
 43
0.00000001
 40
0.0
 40
0.0
 40
0.0
 40
0.0
 40
0.2702613318128986
 40
0.5624293896420894
 40
0.7897364218595188
 40
1.0
 40
1.0
 40
1.0
 40
1.0
 10
1286.720506084732
 20
81.56489354955721
 30
0.0
 10
1286.720506084732
 20
81.5469903083884
 30
0.0
 10
1286.720506084732
 20
81.50973263287985
 30
0.0
 10
1286.720506084732
 20
81.23858605238526
 30
0.0
 10
1286.720506084732
 20
80.90180528803197
 30
0.0
 10
1286.720506084732
 20
80.67293831375511
 30
0.0
 10
1286.720506084732
 20
80.5629620315494
 30
0.0
  0
SPLINE
  5
1D1
330
1F
100
AcDbEntity
  8
0
  6
Continuous
 62
     7
370
    25
100
AcDbSpline
210
0.0
220
0.0
230
1.0
 70
     8
 71
     3
 72
    11
 73
     7
 74
     0
 42
0.00000001
 43
0.00000001
 40
0.0
 40
0.0
 40
0.0
 40
0.0
 40
0.2702613318128897
 40
0.5624293896421007
 40
0.7897364218595609
 40
1.0
 40
1.0
 40
1.0
 40
1.0
 10
1286.720506084732
 20
80.5629620315494
 30
0.0
 10
1286.670640339345
 20
80.69563782004792
 30
0.0
 10
1286.566866852573
 20
80.97174377366309
 30
0.0
 10
1286.448832842194
 20
81.28623443018157
 30
0.0
 10
1286.380132999714
 20
81.4696247865828
 30
0.0
 10
1286.372349492457
 20
81.49077113851637
 30
0.0
 10
1286.368609323333
 20
81.5009324873751
 30
0.0
  0
SPLINE
  5
1D2
330
1F
100
AcDbEntity
  8
0
  6
Continuous
 62
     7
370
    25
100
AcDbSpline
210
0.0
220
0.0
230
1.0
 70
     8
 71
     3
 72
    11
 73
     7
 74
     0
 42
0.00000001
 43
0.00000001
 40
0.0
 40
0.0
 40
0.0
 40
0.0
 40
0.2702613318128804
 40
0.5624293896420828
 40
0.7897364218595212
 40
1.0
 40
1.0
 40
1.0
 40
1.0
 10
1307.248765618512
 20
81.5009324873751
 30
0.0
 10
1307.254969312909
 20
81.48415683510902
 30
0.0
 10
1307.267879558076
 20
81.44924573701897
 30
0.0
 10
1307.3630671341
 20
81.19540053333967
 30
0.0
 10
1307.481446592245
 20
80.88013652251774
 30
0.0
 10
1307.561969241249
 20
80.66590541513413
 30
0.0
 10
1307.600662379911
 20
80.5629620315494
 30
0.0
  0
SPLINE
  5
1D3
330
1F
100
AcDbEntity
  8
0
  6
Continuous
 62
     7
370
    25
100
AcDbSpline
210
0.0
220
0.0
230
1.0
 70
     8
 71
     3
 72
     9
 73
     5
 74
     0
 42
0.00000001
 43
0.00000001
 40
0.0
 40
0.0
 40
0.0
 40
0.0
 40
0.5600000000000106
 40
1.0
 40
1.0
 40
1.0
 40
1.0
 10
1307.248765618512
 20
81.5009324873751
 30
0.0
 10
1307.3129956237
 20
81.52141416635814
 30
0.0
 10
1307.427692061535
 20
81.55798859311358
 30
0.0
 10
1307.547810338185
 20
81.56278370175498
 30
0.0
 10
1307.600662379911
 20
81.56489354955721
 30
0.0
  0
SPLINE
  5
1D4
330
1F
100
AcDbEntity
  8
0
  6
Continuous
 62
     7
370
    25
100
AcDbSpline
210
0.0
220
0.0
230
1.0
 70
    24
 71
     3
 72
    11
 73
     7
 74
     0
 42
0.00000001
 43
0.00000001
 40
0.0
 40
0.0
 40
0.0
 40
0.0
 40
0.2702613318128853
 40
0.562429389642072
 40
0.7897364218595273
 40
1.0
 40
1.0
 40
1.0
 40
1.0
 10
1307.600662379911
 20
80.5629620315494
 30
0.0
 10
1307.600662379911
 20
80.70470146140897
 30
0.0
 10
1307.600662379911
 20
80.99966937446332
 30
0.0
 10
1307.600662379911
 20
81.33561399562602
 30
0.0
 10
1307.600662379911
 20
81.53149129529798
 30
0.0
 10
1307.600662379911
 20
81.55405238429735
 30
0.0
 10
1307.600662379911
 20
81.56489354955721
 30
0.0
  0
SPLINE
  5
1D5
330
1F
100
AcDbEntity
  8
0
  6
Continuous
 62
     7
370
    25
100
AcDbSpline
210
0.0
220
0.0
230
1.0
 70
     8
 71
     3
 72
     9
 73
     5
 74
     0
 42
0.00000001
 43
0.00000001
 40
0.0
 40
0.0
 40
0.0
 40
0.0
 40
0.5600000000000106
 40
1.0
 40
1.0
 40
1.0
 40
1.0
 10
1287.473256491733
 20
81.5009324873751
 30
0.0
 10
1287.409026486545
 20
81.52141416635814
 30
0.0
 10
1287.29433004871
 20
81.55798859311358
 30
0.0
 10
1287.17421177206
 20
81.56278370175498
 30
0.0
 10
1287.121359730334
 20
81.56489354955721
 30
0.0
  0
SPLINE
  5
1D6
330
1F
100
AcDbEntity
  8
0
  6
Continuous
 62
     7
370
    25
100
AcDbSpline
210
0.0
220
0.0
230
1.0
 70
     8
 71
     3
 72
    11
 73
     7
 74
     0
 42
0.00000001
 43
0.00000001
 40
0.0
 40
0.0
 40
0.0
 40
0.0
 40
0.2702613318128774
 40
0.5624293896420905
 40
0.7897364218595264
 40
1.0
 40
1.0
 40
1.0
 40
1.0
 10
1287.473256491733
 20
81.5009324873751
 30
0.0
 10
1287.467052797336
 20
81.48415683510902
 30
0.0
 10
1287.454142552169
 20
81.44924573701897
 30
0.0
 10
1287.358954976145
 20
81.19540053333968
 30
0.0
 10
1287.240575518
 20
80.88013652251774
 30
0.0
 10
1287.160052868996
 20
80.66590541513413
 30
0.0
 10
1287.121359730334
 20
80.5629620315494
 30
0.0
  0
SPLINE
  5
1D7
330
1F
100
AcDbEntity
  8
0
  6
Continuous
 62
     7
370
    25
100
AcDbSpline
210
0.0
220
0.0
230
1.0
 70
    24
 71
     3
 72
    11
 73
     7
 74
     0
 42
0.00000001
 43
0.00000001
 40
0.0
 40
0.0
 40
0.0
 40
0.0
 40
0.2702613318128871
 40
0.5624293896420866
 40
0.7897364218595433
 40
1.0
 40
1.0
 40
1.0
 40
1.0
 10
1287.121359730334
 20
80.5629620315494
 30
0.0
 10
1287.121359730334
 20
80.70470146140897
 30
0.0
 10
1287.121359730334
 20
80.99966937446331
 30
0.0
 10
1287.121359730334
 20
81.33561399562602
 30
0.0
 10
1287.121359730334
 20
81.53149129529797
 30
0.0
 10
1287.121359730334
 20
81.55405238429734
 30
0.0
 10
1287.121359730334
 20
81.56489354955721
 30
0.0
  0
LINE
  5
1D8
330
1F
100
AcDbEntity
  8
0
  6
Continuous
 62
     7
370
    25
100
AcDbLine
 10
1307.6006623799
 20
81.5648935496
 30
0.0
 11
1308.0015160255
 21
81.5648935496
 31
0.0
  0
LINE
  5
1D9
330
1F
100
AcDbEntity
  8
0
  6
Continuous
 62
     7
370
    25
100
AcDbLine
 10
1308.0015160255
 20
80.5629620315
 30
0.0
 11
1307.6006623799
 21
80.5629620315
 31
0.0
  0
LINE
  5
1DA
330
1F
100
AcDbEntity
  8
0
  6
Continuous
 62
     7
370
    25
100
AcDbLine
 10
1286.7205060847
 20
80.5629620315
 30
0.0
 11
1287.1213597303
 21
80.5629620315
 31
0.0
  0
LINE
  5
1DB
330
1F
100
AcDbEntity
  8
0
  6
Continuous
 62
     7
370
    25
100
AcDbLine
 10
1287.1213597303
 20
81.5648935496
 30
0.0
 11
1286.7205060847
 21
81.5648935496
 31
0.0
  0
SPLINE
  5
1DC
330
1F
100
AcDbEntity
  8
0
  6
Continuous
 62
     7
370
    25
100
AcDbSpline
210
0.0
220
0.0
230
1.0
 70
     8
 71
     3
 72
    10
 73
     6
 74
     0
 42
0.00000001
 43
0.00000001
 40
0.0
 40
0.0
 40
0.0
 40
0.0
 40
0.2768779234291005
 40
0.5624038656203739
 40
0.9999999999999999
 40
0.9999999999999999
 40
0.9999999999999999
 40
0.9999999999999999
 10
1308.353412786912
 20
81.5009324873751
 30
0.0
 10
1308.483351858129
 20
81.4394176811481
 30
0.0
 10
1308.747288523946
 20
81.31446671219223
 30
0.0
 10
1309.128666703285
 20
80.94282774648659
 30
0.0
 10
1309.256515713429
 20
80.58564698696568
 30
0.0
 10
1309.333883331478
 20
80.36949963826031
 30
0.0
  0
SPLINE
  5
1DD
330
1F
100
AcDbEntity
  8
0
  6
Continuous
 62
     7
370
    25
100
AcDbSpline
210
0.0
220
0.0
230
1.0
 70
     8
 71
     3
 72
    11
 73
     7
 74
     0
 42
0.00000001
 43
0.00000001
 40
0.0
 40
0.0
 40
0.0
 40
0.0
 40
0.2796579740371054
 40
0.559266602293337
 40
0.7796650582493756
 40
1.0
 40
1.0
 40
1.0
 40
1.0
 10
1309.333883331478
 20
80.36949963826031
 30
0.0
 10
1309.314999614884
 20
80.36670083871786
 30
0.0
 10
1309.277235513735
 20
80.36110373348248
 30
0.0
 10
1309.009868522101
 20
80.32294696428706
 30
0.0
 10
1308.682144652778
 20
80.27361075713165
 30
0.0
 10
1308.454475443079
 20
80.23268314467973
 30
0.0
 10
1308.340657242964
 20
80.21222228749825
 30
0.0
  0
SPLINE
  5
1DE
330
1F
100
AcDbEntity
  8
0
  6
Continuous
 62
     7
370
    25
100
AcDbSpline
210
0.0
220
0.0
230
1.0
 70
     8
 71
     3
 72
     9
 73
     5
 74
     0
 42
0.00000001
 43
0.00000001
 40
0.0
 40
0.0
 40
0.0
 40
0.0
 40
0.5599999999999744
 40
1.0
 40
1.0
 40
1.0
 40
1.0
 10
1308.340657242964
 20
80.21222228749825
 30
0.0
 10
1308.297994072207
 20
80.29876152090928
 30
0.0
 10
1308.221809838714
 20
80.45329586628615
 30
0.0
 10
1308.068828023991
 20
80.52945292549674
 30
0.0
 10
1308.001516025513
 20
80.5629620315494
 30
0.0
  0
SPLINE
  5
1DF
330
1F
100
AcDbEntity
  8
0
  6
Continuous
 62
     7
370
    25
100
AcDbSpline
210
0.0
220
0.0
230
1.0
 70
     8
 71
     3
 72
    10
 73
     6
 74
     0
 42
0.00000001
 43
0.00000001
 40
0.0
 40
0.0
 40
0.0
 40
0.0
 40
0.2768779234291281
 40
0.5624038656204358
 40
1.0
 40
1.0
 40
1.0
 40
1.0
 10
1307.600662379911
 20
80.5629620315494
 30
0.0
 10
1307.553510174307
 20
80.54063957869744
 30
0.0
 10
1307.457733008776
 20
80.49529745239643
 30
0.0
 10
1307.319338743245
 20
80.36043734637097
 30
0.0
 10
1307.272944977644
 20
80.23082382479684
 30
0.0
 10
1307.244869866754
 20
80.15238841555986
 30
0.0
  0
SPLINE
  5
1E0
330
1F
100
AcDbEntity
  8
0
  6
Continuous
 62
     7
370
    25
100
AcDbSpline
210
0.0
220
0.0
230
1.0
 70
     8
 71
     3
 72
    11
 73
     7
 74
     0
 42
0.00000001
 43
0.00000001
 40
0.0
 40
0.0
 40
0.0
 40
0.0
 40
0.2702613318129111
 40
0.5624293896420959
 40
0.7897364218595406
 40
1.0
 40
1.0
 40
1.0
 40
1.0
 10
1306.268295073946
 20
80.36949963826031
 30
0.0
 10
1306.285511406219
 20
80.3654322313542
 30
0.0
 10
1306.321339584771
 20
80.3569677234341
 30
0.0
 10
1306.585501684371
 20
80.29811392229827
 30
0.0
 10
1306.914025295534
 20
80.22534980001541
 30
0.0
 10
1307.137489668876
 20
80.1760690456255
 30
0.0
 10
1307.244869866754
 20
80.15238841555986
 30
0.0
  0
SPLINE
  5
1E1
330
1F
100
AcDbEntity
  8
0
  6
Continuous
 62
     7
370
    25
100
AcDbSpline
210
0.0
220
0.0
230
1.0
 70
     8
 71
     3
 72
    10
 73
     6
 74
     0
 42
0.00000001
 43
0.00000001
 40
0.0
 40
0.0
 40
0.0
 40
0.0
 40
0.2768779234291552
 40
0.5624038656204328
 40
1.0
 40
1.0
 40
1.0
 40
1.0
 10
1306.268295073946
 20
80.36949963826031
 30
0.0
 10
1306.310702222865
 20
80.50686706869477
 30
0.0
 10
1306.396841067692
 20
80.78589247068373
 30
0.0
 10
1306.710455466666
 20
81.21625356235087
 30
0.0
 10
1307.045820201336
 20
81.39360721587104
 30
0.0
 10
1307.248765618512
 20
81.5009324873751
 30
0.0
  0
SPLINE
  5
1E2
330
1F
100
AcDbEntity
  8
0
  6
Continuous
 62
     7
370
    25
100
AcDbSpline
210
0.0
220
0.0
230
1.0
 70
     8
 71
     3
 72
    10
 73
     6
 74
     0
 42
0.00000001
 43
0.00000001
 40
0.0
 40
0.0
 40
0.0
 40
0.0
 40
0.2768779234291528
 40
0.5624038656204067
 40
0.9999999999999999
 40
0.9999999999999999
 40
0.9999999999999999
 40
0.9999999999999999
 10
1288.453727036299
 20
80.36949963826031
 30
0.0
 10
1288.41131988738
 20
80.50686706869477
 30
0.0
 10
1288.325181042553
 20
80.7858924706837
 30
0.0
 10
1288.011566643579
 20
81.2162535623509
 30
0.0
 10
1287.676201908909
 20
81.39360721587106
 30
0.0
 10
1287.473256491733
 20
81.5009324873751
 30
0.0
  0
SPLINE
  5
1E3
330
1F
100
AcDbEntity
  8
0
  6
Continuous
 62
     7
370
    25
100
AcDbSpline
210
0.0
220
0.0
230
1.0
 70
     8
 71
     3
 72
    11
 73
     7
 74
     0
 42
0.00000001
 43
0.00000001
 40
0.0
 40
0.0
 40
0.0
 40
0.0
 40
0.2702613318128885
 40
0.5624293896420675
 40
0.7897364218595164
 40
1.0
 40
1.0
 40
1.0
 40
1.0
 10
1288.453727036299
 20
80.36949963826031
 30
0.0
 10
1288.436510704026
 20
80.3654322313542
 30
0.0
 10
1288.400682525474
 20
80.3569677234341
 30
0.0
 10
1288.136520425874
 20
80.29811392229827
 30
0.0
 10
1287.807996814711
 20
80.22534980001541
 30
0.0
 10
1287.584532441369
 20
80.1760690456255
 30
0.0
 10
1287.477152243491
 20
80.15238841555986
 30
0.0
  0
SPLINE
  5
1E4
330
1F
100
AcDbEntity
  8
0
  6
Continuous
 62
     7
370
    25
100
AcDbSpline
210
0.0
220
0.0
230
1.0
 70
     8
 71
     3
 72
    10
 73
     6
 74
     0
 42
0.00000001
 43
0.00000001
 40
0.0
 40
0.0
 40
0.0
 40
0.0
 40
0.2768779234291475
 40
0.5624038656204049
 40
1.0
 40
1.0
 40
1.0
 40
1.0
 10
1287.121359730334
 20
80.5629620315494
 30
0.0
 10
1287.168511935938
 20
80.54063957869744
 30
0.0
 10
1287.264289101468
 20
80.49529745239644
 30
0.0
 10
1287.402683367
 20
80.36043734637094
 30
0.0
 10
1287.449077132601
 20
80.23082382479684
 30
0.0
 10
1287.477152243491
 20
80.15238841555986
 30
0.0
  0
SPLINE
  5
1E5
330
1F
100
AcDbEntity
  8
0
  6
Continuous
 62
     7
370
    25
100
AcDbSpline
210
0.0
220
0.0
230
1.0
 70
     8
 71
     3
 72
    11
 73
     7
 74
     0
 42
0.00000001
 43
0.00000001
 40
0.0
 40
0.0
 40
0.0
 40
0.0
 40
0.2796579740370985
 40
0.5592666022933286
 40
0.7796650582494048
 40
0.9999999999999999
 40
0.9999999999999999
 40
0.9999999999999999
 40
0.9999999999999999
 10
1285.388138778767
 20
80.36949963826031
 30
0.0
 10
1285.407022495362
 20
80.36670083871783
 30
0.0
 10
1285.44478659651
 20
80.3611037334824
 30
0.0
 10
1285.712153588144
 20
80.32294696428704
 30
0.0
 10
1286.039877457467
 20
80.27361075713164
 30
0.0
 10
1286.267546667166
 20
80.23268314467973
 30
0.0
 10
1286.381364867281
 20
80.21222228749825
 30
0.0
  0
SPLINE
  5
1E6
330
1F
100
AcDbEntity
  8
0
  6
Continuous
 62
     7
370
    25
100
AcDbSpline
210
0.0
220
0.0
230
1.0
 70
     8
 71
     3
 72
    10
 73
     6
 74
     0
 42
0.00000001
 43
0.00000001
 40
0.0
 40
0.0
 40
0.0
 40
0.0
 40
0.2768779234291047
 40
0.5624038656203825
 40
1.0
 40
1.0
 40
1.0
 40
1.0
 10
1286.368609323333
 20
81.5009324873751
 30
0.0
 10
1286.238670252115
 20
81.4394176811481
 30
0.0
 10
1285.974733586299
 20
81.31446671219223
 30
0.0
 10
1285.59335540696
 20
80.9428277464866
 30
0.0
 10
1285.465506396816
 20
80.58564698696568
 30
0.0
 10
1285.388138778767
 20
80.36949963826031
 30
0.0
  0
SPLINE
  5
1E7
330
1F
100
AcDbEntity
  8
0
  6
Continuous
 62
     7
370
    25
100
AcDbSpline
210
0.0
220
0.0
230
1.0
 70
     8
 71
     3
 72
     9
 73
     5
 74
     0
 42
0.00000001
 43
0.00000001
 40
0.0
 40
0.0
 40
0.0
 40
0.0
 40
0.5600000000000125
 40
1.0
 40
1.0
 40
1.0
 40
1.0
 10
1286.381364867281
 20
80.21222228749825
 30
0.0
 10
1286.424028038038
 20
80.29876152090931
 30
0.0
 10
1286.500212271531
 20
80.45329586628618
 30
0.0
 10
1286.653194086254
 20
80.52945292549677
 30
0.0
 10
1286.720506084732
 20
80.5629620315494
 30
0.0
  0
LINE
  5
1E8
330
1F
100
AcDbEntity
  8
0
  6
Continuous
 62
     7
370
    25
100
AcDbLine
 10
1308.3500973042
 20
80.0322625782
 30
0.0
 11
1308.340657243
 21
80.2122222875
 31
0.0
  0
LINE
  5
1E9
330
1F
100
AcDbEntity
  8
0
  6
Continuous
 62
     7
370
    25
100
AcDbLine
 10
1308.3500973042
 20
80.0322625782
 30
0.0
 11
1308.3488310358
 21
80.0350193077
 31
0.0
  0
SPLINE
  5
1EA
330
1F
100
AcDbEntity
  8
0
  6
Continuous
 62
     7
370
    25
100
AcDbSpline
210
0.0
220
0.0
230
1.0
 70
     8
 71
     3
 72
    15
 73
    11
 74
     0
 42
0.00000001
 43
0.00000001
 40
0.0
 40
0.0
 40
0.0
 40
0.0
 40
0.1200542337629398
 40
0.2500000000000056
 40
0.3799457662370685
 40
0.4999999999999947
 40
0.6200542337629206
 40
0.7500000000000142
 40
0.8799457662370801
 40
1.0
 40
1.0
 40
1.0
 40
1.0
 10
1308.34883103585
 20
80.03501930770356
 30
0.0
 10
1308.341846136391
 20
80.09818241160436
 30
0.0
 10
1308.327300836237
 20
80.22971276651359
 30
0.0
 10
1308.210623556006
 20
80.40061658798595
 30
0.0
 10
1308.040913361522
 20
80.51280165639055
 30
0.0
 10
1307.845997921908
 20
80.54988083226011
 30
0.0
 10
1307.651082482294
 20
80.51280165639054
 30
0.0
 10
1307.48137228781
 20
80.40061658798597
 30
0.0
 10
1307.364695007579
 20
80.2297127665136
 30
0.0
 10
1307.350149707426
 20
80.09818241160436
 30
0.0
 10
1307.343164807966
 20
80.03501930770356
 30
0.0
  0
LINE
  5
1EB
330
1F
100
AcDbEntity
  8
0
  6
Continuous
 62
     7
370
    25
100
AcDbLine
 10
1307.343164808
 20
80.0350193077
 30
0.0
 11
1307.343164808
 21
78.1142576962
 31
0.0
  0
LINE
  5
1EC
330
1F
100
AcDbEntity
  8
0
  6
Continuous
 62
     7
370
    25
100
AcDbLine
 10
1287.3788573023
 20
80.0350193077
 30
0.0
 11
1287.3788573023
 21
78.1142576962
 31
0.0
  0
SPLINE
  5
1ED
330
1F
100
AcDbEntity
  8
0
  6
Continuous
 62
     7
370
    25
100
AcDbSpline
210
0.0
220
0.0
230
1.0
 70
     8
 71
     3
 72
    15
 73
    11
 74
     0
 42
0.00000001
 43
0.00000001
 40
0.0
 40
0.0
 40
0.0
 40
0.0
 40
0.1200542337629316
 40
0.2499999999999958
 40
0.3799457662370866
 40
0.5000000000000113
 40
0.6200542337629356
 40
0.7499999999999981
 40
0.8799457662370817
 40
1.0
 40
1.0
 40
1.0
 40
1.0
 10
1286.373191074395
 20
80.03501930770356
 30
0.0
 10
1286.380175973854
 20
80.09818241160436
 30
0.0
 10
1286.394721274008
 20
80.22971276651359
 30
0.0
 10
1286.511398554239
 20
80.40061658798598
 30
0.0
 10
1286.681108748723
 20
80.51280165639054
 30
0.0
 10
1286.876024188337
 20
80.54988083226011
 30
0.0
 10
1287.070939627951
 20
80.51280165639055
 30
0.0
 10
1287.240649822435
 20
80.40061658798592
 30
0.0
 10
1287.357327102666
 20
80.22971276651361
 30
0.0
 10
1287.37187240282
 20
80.09818241160436
 30
0.0
 10
1287.378857302279
 20
80.03501930770356
 30
0.0
  0
LINE
  5
1EE
330
1F
100
AcDbEntity
  8
0
  6
Continuous
 62
     7
370
    25
100
AcDbLine
 10
1286.371924806
 20
80.0322625782
 30
0.0
 11
1286.3731910744
 21
80.0350193077
 31
0.0
  0
LINE
  5
1EF
330
1F
100
AcDbEntity
  8
0
  6
Continuous
 62
     7
370
    25
100
AcDbLine
 10
1286.371924806
 20
80.0322625782
 30
0.0
 11
1286.3813648673
 21
80.2122222875
 31
0.0
  0
SPLINE
  5
1F0
330
1F
100
AcDbEntity
  8
0
  6
Continuous
 62
     7
370
    25
100
AcDbSpline
210
0.0
220
0.0
230
1.0
 70
     8
 71
     3
 72
     9
 73
     5
 74
     0
 42
0.00000001
 43
0.00000001
 40
0.0
 40
0.0
 40
0.0
 40
0.0
 40
0.5600000000000122
 40
1.0
 40
1.0
 40
1.0
 40
1.0
 10
1309.439086011873
 20
78.36397835828328
 30
0.0
 10
1309.420398273484
 20
78.36269951625636
 30
0.0
 10
1309.387027312076
 20
78.36041586977967
 30
0.0
 10
1309.204967834315
 20
78.35046552360814
 30
0.0
 10
1309.124861664101
 20
78.34608737129265
 30
0.0
  0
SPLINE
  5
1F1
330
1F
100
AcDbEntity
  8
0
  6
Continuous
 62
     7
370
    25
100
AcDbSpline
210
0.0
220
0.0
230
1.0
 70
     8
 71
     3
 72
     9
 73
     5
 74
     0
 42
0.00000001
 43
0.00000001
 40
0.0
 40
0.0
 40
0.0
 40
0.0
 40
0.5304166037466849
 40
1.0
 40
1.0
 40
1.0
 40
1.0
 10
1309.124861664101
 20
78.34608737129267
 30
0.0
 10
1308.99013173844
 20
78.6392345053483
 30
0.0
 10
1308.736123993001
 20
79.19190787941864
 30
0.0
 10
1308.4734463595
 20
79.76373980196671
 30
0.0
 10
1308.350097304241
 20
80.0322625782429
 30
0.0
  0
LINE
  5
1F2
330
1F
100
AcDbEntity
  8
0
  6
Continuous
 62
     7
370
    25
100
AcDbLine
 10
1309.3338833315
 20
80.3694996383
 30
0.0
 11
1309.4390860119
 21
78.3639783583
 31
0.0
  0
SPLINE
  5
1F3
330
1F
100
AcDbEntity
  8
0
  6
Continuous
 62
     7
370
    25
100
AcDbSpline
210
0.0
220
0.0
230
1.0
 70
     8
 71
     3
 72
     9
 73
     5
 74
     0
 42
0.00000001
 43
0.00000001
 40
0.0
 40
0.0
 40
0.0
 40
0.0
 40
0.5304166037466913
 40
1.0
 40
1.0
 40
1.0
 40
1.0
 10
1285.597160446144
 20
78.34608737129265
 30
0.0
 10
1285.731890371805
 20
78.63923450534828
 30
0.0
 10
1285.985898117244
 20
79.19190787941862
 30
0.0
 10
1286.248575750745
 20
79.76373980196671
 30
0.0
 10
1286.371924806004
 20
80.0322625782429
 30
0.0
  0
SPLINE
  5
1F4
330
1F
100
AcDbEntity
  8
0
  6
Continuous
 62
     7
370
    25
100
AcDbSpline
210
0.0
220
0.0
230
1.0
 70
     8
 71
     3
 72
     9
 73
     5
 74
     0
 42
0.00000001
 43
0.00000001
 40
0.0
 40
0.0
 40
0.0
 40
0.0
 40
0.5600000000000122
 40
1.0
 40
1.0
 40
1.0
 40
1.0
 10
1285.282936098372
 20
78.36397835828328
 30
0.0
 10
1285.301623836761
 20
78.36269951625636
 30
0.0
 10
1285.334994798169
 20
78.36041586977967
 30
0.0
 10
1285.517054275929
 20
78.35046552360814
 30
0.0
 10
1285.597160446144
 20
78.34608737129265
 30
0.0
  0
LINE
  5
1F5
330
1F
100
AcDbEntity
  8
0
  6
Continuous
 62
     7
370
    25
100
AcDbLine
 10
1285.3881387788
 20
80.3694996383
 30
0.0
 11
1285.2829360984
 21
78.3639783583
 31
0.0
  0
LINE
  5
1F6
330
1F
100
AcDbEntity
  8
0
  6
Continuous
 62
     7
370
    25
100
AcDbLine
 10
1308.3534127869
 20
81.5017058422
 30
0.0
 11
1308.3534127869
 21
81.5009324874
 31
0.0
  0
LINE
  5
1F7
330
1F
100
AcDbEntity
  8
0
  6
Continuous
 62
     7
370
    25
100
AcDbLine
 10
1308.0015160255
 20
81.5656669044
 30
0.0
 11
1308.0015160255
 21
81.5648935496
 31
0.0
  0
SPLINE
  5
1F8
330
1F
100
AcDbEntity
  8
0
  6
Continuous
 62
     7
370
    25
100
AcDbSpline
210
0.0
220
0.0
230
1.0
 70
     8
 71
     3
 72
     9
 73
     5
 74
     0
 42
0.00000001
 43
0.00000001
 40
0.0
 40
0.0
 40
0.0
 40
0.0
 40
0.3202950743129297
 40
0.9999999999999999
 40
0.9999999999999999
 40
0.9999999999999999
 40
0.9999999999999999
 10
1308.230995397538
 20
81.53412479460808
 30
0.0
 10
1308.207124447169
 20
81.54118164509643
 30
0.0
 10
1308.13259645007
 20
81.5632139866911
 30
0.0
 10
1308.054558681321
 20
81.56467431322196
 30
0.0
 10
1308.001516025513
 20
81.56566690435808
 30
0.0
  0
LINE
  5
1F9
330
1F
100
AcDbEntity
  8
0
  6
Continuous
 62
     7
370
    25
100
AcDbLine
 10
1307.6006623799
 20
81.5656669044
 30
0.0
 11
1307.6006623799
 21
81.5648935496
 31
0.0
  0
LINE
  5
1FA
330
1F
100
AcDbEntity
  8
0
  6
Continuous
 62
     7
370
    25
100
AcDbLine
 10
1307.2487656185
 20
81.5009324874
 30
0.0
 11
1307.2487656185
 21
81.5017058422
 31
0.0
  0
SPLINE
  5
1FB
330
1F
100
AcDbEntity
  8
0
  6
Continuous
 62
     7
370
    25
100
AcDbSpline
210
0.0
220
0.0
230
1.0
 70
     8
 71
     3
 72
     9
 73
     5
 74
     0
 42
0.00000001
 43
0.00000001
 40
0.0
 40
0.0
 40
0.0
 40
0.0
 40
0.5599999999998879
 40
0.9999999999999999
 40
0.9999999999999999
 40
0.9999999999999999
 40
0.9999999999999999
 10
1307.600662379911
 20
81.56566690435808
 30
0.0
 10
1307.533333151784
 20
81.5622362623831
 30
0.0
 10
1307.413102387272
 20
81.55611011599918
 30
0.0
 10
1307.298979631189
 20
81.51832937028864
 30
0.0
 10
1307.248765618512
 20
81.50170584217598
 30
0.0
  0
LINE
  5
1FC
330
1F
100
AcDbEntity
  8
0
  6
Continuous
 62
     7
370
    25
100
AcDbLine
 10
1308.0015160255
 20
81.5656669044
 30
0.0
 11
1307.6006623799
 21
81.5656669044
 31
0.0
  0
LINE
  5
1FD
330
1F
100
AcDbEntity
  8
0
  6
Continuous
 62
     7
370
    25
100
AcDbLine
 10
1286.7205060847
 20
81.5656669044
 30
0.0
 11
1286.7205060847
 21
81.5648935496
 31
0.0
  0
LINE
  5
1FE
330
1F
100
AcDbEntity
  8
0
  6
Continuous
 62
     7
370
    25
100
AcDbLine
 10
1286.3686093233
 20
81.5017058422
 30
0.0
 11
1286.3686093233
 21
81.5009324874
 31
0.0
  0
SPLINE
  5
1FF
330
1F
100
AcDbEntity
  8
0
  6
Continuous
 62
     7
370
    25
100
AcDbSpline
210
0.0
220
0.0
230
1.0
 70
     8
 71
     3
 72
     9
 73
     5
 74
     0
 42
0.00000001
 43
0.00000001
 40
0.0
 40
0.0
 40
0.0
 40
0.0
 40
0.5600000000000316
 40
1.0
 40
1.0
 40
1.0
 40
1.0
 10
1286.368609323333
 20
81.50170584217598
 30
0.0
 10
1286.432839328521
 20
81.52218752115903
 30
0.0
 10
1286.547535766357
 20
81.55876194791448
 30
0.0
 10
1286.667654043006
 20
81.56355705655588
 30
0.0
 10
1286.720506084732
 20
81.56566690435808
 30
0.0
  0
LINE
  5
200
330
1F
100
AcDbEntity
  8
0
  6
Continuous
 62
     7
370
    25
100
AcDbLine
 10
1287.1213597303
 20
81.5656669044
 30
0.0
 11
1287.1213597303
 21
81.5648935496
 31
0.0
  0
LINE
  5
201
330
1F
100
AcDbEntity
  8
0
  6
Continuous
 62
     7
370
    25
100
AcDbLine
 10
1286.7205060847
 20
81.5656669044
 30
0.0
 11
1287.1213597303
 21
81.5656669044
 31
0.0
  0
LINE
  5
202
330
1F
100
AcDbEntity
  8
0
  6
Continuous
 62
     7
370
    25
100
AcDbLine
 10
1287.4732564917
 20
81.5009324874
 30
0.0
 11
1287.4732564917
 21
81.5017058422
 31
0.0
  0
LINE
  5
203
330
1F
100
AcDbEntity
  8
0
  6
Continuous
 62
     7
370
    25
100
AcDbLine
 10
1287.3697537489
 20
81.5315260742
 30
0.0
 11
1287.4732564917
 21
81.5017058422
 31
0.0
  0
LINE
  5
204
330
1F
100
AcDbEntity
  8
0
  6
Continuous
 62
     7
370
    25
100
AcDbLine
 10
1306.2682950739
 20
80.3694996383
 30
0.0
 11
1306.2682950739
 21
80.3702729931
 31
0.0
  0
SPLINE
  5
205
330
1F
100
AcDbEntity
  8
0
  6
Continuous
 62
     7
370
    25
100
AcDbSpline
210
0.0
220
0.0
230
1.0
 70
     8
 71
     3
 72
    10
 73
     6
 74
     0
 42
0.00000001
 43
0.00000001
 40
0.0
 40
0.0
 40
0.0
 40
0.0
 40
0.27687792342914
 40
0.5624038656204166
 40
1.0
 40
1.0
 40
1.0
 40
1.0
 10
1307.248765618512
 20
81.50170584217598
 30
0.0
 10
1307.118826547295
 20
81.44019103594894
 30
0.0
 10
1306.854889881478
 20
81.315240066993
 30
0.0
 10
1306.473511702139
 20
80.94360110128743
 30
0.0
 10
1306.345662691995
 20
80.58642034176655
 30
0.0
 10
1306.268295073946
 20
80.37027299306118
 30
0.0
  0
LINE
  5
206
330
1F
100
AcDbEntity
  8
0
  6
Continuous
 62
     7
370
    25
100
AcDbLine
 10
1309.3338833315
 20
80.3694996383
 30
0.0
 11
1309.3338833315
 21
80.3702729931
 31
0.0
  0
SPLINE
  5
207
330
1F
100
AcDbEntity
  8
0
  6
Continuous
 62
     7
370
    25
100
AcDbSpline
210
0.0
220
0.0
230
1.0
 70
     8
 71
     3
 72
    10
 73
     6
 74
     0
 42
0.00000001
 43
0.00000001
 40
0.0
 40
0.0
 40
0.0
 40
0.0
 40
0.2768779234291824
 40
0.5624038656204461
 40
1.0
 40
1.0
 40
1.0
 40
1.0
 10
1309.333883331478
 20
80.37027299306118
 30
0.0
 10
1309.291476182559
 20
80.50764042349566
 30
0.0
 10
1309.205337337732
 20
80.78666582548463
 30
0.0
 10
1308.891722938758
 20
81.21702691715187
 30
0.0
 10
1308.556358204087
 20
81.39438057067197
 30
0.0
 10
1308.353412786912
 20
81.50170584217598
 30
0.0
  0
LINE
  5
208
330
1F
100
AcDbEntity
  8
0
  6
Continuous
 62
     7
370
    25
100
AcDbLine
 10
1288.4537270363
 20
80.3694996383
 30
0.0
 11
1288.4537270363
 21
80.3702729931
 31
0.0
  0
SPLINE
  5
209
330
1F
100
AcDbEntity
  8
0
  6
Continuous
 62
     7
370
    25
100
AcDbSpline
210
0.0
220
0.0
230
1.0
 70
     8
 71
     3
 72
    10
 73
     6
 74
     0
 42
0.00000001
 43
0.00000001
 40
0.0
 40
0.0
 40
0.0
 40
0.0
 40
0.27687792342914
 40
0.5624038656204167
 40
1.0
 40
1.0
 40
1.0
 40
1.0
 10
1287.473256491733
 20
81.50170584217598
 30
0.0
 10
1287.603195562951
 20
81.44019103594894
 30
0.0
 10
1287.867132228767
 20
81.31524006699301
 30
0.0
 10
1288.248510408106
 20
80.94360110128744
 30
0.0
 10
1288.37635941825
 20
80.58642034176655
 30
0.0
 10
1288.453727036299
 20
80.37027299306118
 30
0.0
  0
LINE
  5
20A
330
1F
100
AcDbEntity
  8
0
  6
Continuous
 62
     7
370
    25
100
AcDbLine
 10
1285.3881387788
 20
80.3694996383
 30
0.0
 11
1285.3881387788
 21
80.3702729931
 31
0.0
  0
SPLINE
  5
20B
330
1F
100
AcDbEntity
  8
0
  6
Continuous
 62
     7
370
    25
100
AcDbSpline
210
0.0
220
0.0
230
1.0
 70
     8
 71
     3
 72
    10
 73
     6
 74
     0
 42
0.00000001
 43
0.00000001
 40
0.0
 40
0.0
 40
0.0
 40
0.0
 40
0.2768779234291734
 40
0.5624038656204405
 40
1.0
 40
1.0
 40
1.0
 40
1.0
 10
1285.388138778767
 20
80.37027299306118
 30
0.0
 10
1285.430545927686
 20
80.50764042349566
 30
0.0
 10
1285.516684772513
 20
80.78666582548463
 30
0.0
 10
1285.830299171487
 20
81.21702691715186
 30
0.0
 10
1286.165663906157
 20
81.39438057067197
 30
0.0
 10
1286.368609323333
 20
81.50170584217598
 30
0.0
  0
LINE
  5
20C
330
1F
100
AcDbEntity
  8
0
  6
Continuous
 62
     7
370
    25
100
AcDbLine
 10
1306.2682950739
 20
80.3702729931
 30
0.0
 11
1305.7712043165
 21
78.1142576962
 31
0.0
  0
LINE
  5
20D
330
1F
100
AcDbEntity
  8
0
  6
Continuous
 62
     7
370
    25
100
AcDbLine
 10
1309.4390860119
 20
78.3647517131
 30
0.0
 11
1309.3338833315
 21
80.3702729931
 31
0.0
  0
LINE
  5
20E
330
1F
100
AcDbEntity
  8
0
  6
Continuous
 62
     7
370
    25
100
AcDbLine
 10
1309.4390860119
 20
78.3639783583
 30
0.0
 11
1309.4390860119
 21
78.3647517131
 31
0.0
  0
LINE
  5
20F
330
1F
100
AcDbEntity
  8
0
  6
Continuous
 62
     7
370
    25
100
AcDbLine
 10
1288.4537270363
 20
80.3702729931
 30
0.0
 11
1288.9508177938
 21
78.1142576962
 31
0.0
  0
LINE
  5
210
330
1F
100
AcDbEntity
  8
0
  6
Continuous
 62
     7
370
    25
100
AcDbLine
 10
1285.2829360984
 20
78.3647517131
 30
0.0
 11
1285.3881387788
 21
80.3702729931
 31
0.0
  0
LINE
  5
211
330
1F
100
AcDbEntity
  8
0
  6
Continuous
 62
     7
370
    25
100
AcDbLine
 10
1285.2829360984
 20
78.3639783583
 30
0.0
 11
1285.2829360984
 21
78.3647517131
 31
0.0
  0
LINE
  5
212
330
1F
100
AcDbEntity
  8
0
  6
Continuous
 62
     7
370
    25
100
AcDbLine
 10
1304.8610110551
 20
78.1142576962
 30
0.0
 11
1304.8610110551
 21
79.6142576962
 31
0.0
  0
LINE
  5
213
330
1F
100
AcDbEntity
  8
0
  6
Continuous
 62
     7
370
    25
100
AcDbLine
 10
1289.8610110551
 20
78.1142576962
 30
0.0
 11
1289.8610110551
 21
79.6142576962
 31
0.0
  0
LINE
  5
214
330
1F
100
AcDbEntity
  8
0
  6
Continuous
 62
     7
370
    25
100
AcDbLine
 10
1289.8610110551
 20
79.6142576962
 30
0.0
 11
1304.8610110551
 21
79.6142576962
 31
0.0
  0
LINE
  5
215
330
1F
100
AcDbEntity
  8
0
  6
Continuous
 62
     8
370
    25
100
AcDbLine
 10
729.5610110551
 20
37.9065142067
 30
0.0
 11
729.1610110553
 21
37.9065142067
 31
0.0
  0
LINE
  5
216
330
1F
100
AcDbEntity
  8
0
  6
Continuous
 62
     8
370
    25
100
AcDbLine
 10
730.5610110551
 20
62.4065142066
 30
0.0
 11
730.5610110551
 21
34.7725396079
 31
0.0
  0
LINE
  5
217
330
1F
100
AcDbEntity
  8
0
  6
Continuous
 62
     8
370
    25
100
AcDbLine
 10
1323.5610110551
 20
62.4065142066
 30
0.0
 11
1323.5610110551
 21
34.7725396079
 31
0.0
  0
LINE
  5
218
330
1F
100
AcDbEntity
  8
0
  6
Continuous
 62
     8
370
    25
100
AcDbLine
 10
1307.2448698668
 20
80.1523884156
 30
0.0
 11
1306.7957878306
 21
78.1142576962
 31
0.0
  0
LINE
  5
219
330
1F
100
AcDbEntity
  8
0
  6
Continuous
 62
     8
370
    25
100
AcDbLine
 10
1287.4771522435
 20
80.1523884156
 30
0.0
 11
1287.9262342796
 21
78.1142576962
 31
0.0
  0
LINE
  5
21A
330
1F
100
AcDbEntity
  8
0
  6
Continuous
 62
     8
370
    25
100
AcDbLine
 10
1305.7713747176
 20
78.1142576962
 30
0.0
 11
1306.2682950739
 21
80.3694996383
 31
0.0
  0
LINE
  5
21B
330
1F
100
AcDbEntity
  8
0
  6
Continuous
 62
     8
370
    25
100
AcDbLine
 10
1288.9506473926
 20
78.1142576962
 30
0.0
 11
1288.4537270363
 21
80.3694996383
 31
0.0
  0
ENDSEC
  0
SECTION
  2
OBJECTS
  0
DICTIONARY
  5
C
330
0
100
AcDbDictionary
281
     1
  3
ACAD_GROUP
350
D
  3
ACAD_LAYOUT
350
1A
  3
ACAD_MLINESTYLE
350
17
  3
ACAD_PLOTSETTINGS
350
19
  3
ACAD_PLOTSTYLENAME
350
E
  3
ACAD_SCALELIST
350
47
  3
DWGPROPS
350
21C
  0
DICTIONARY
  5
D
102
{ACAD_REACTORS
330
C
102
}
330
C
100
AcDbDictionary
281
     1
  0
DICTIONARY
  5
1A
102
{ACAD_REACTORS
330
C
102
}
330
C
100
AcDbDictionary
281
     1
  3
Layout1
350
1E
  3
Layout2
350
26
  3
Model
350
22
  0
DICTIONARY
  5
17
102
{ACAD_REACTORS
330
C
102
}
330
C
100
AcDbDictionary
281
     1
  3
Standard
350
18
  0
DICTIONARY
  5
19
102
{ACAD_REACTORS
330
C
102
}
330
C
100
AcDbDictionary
281
     1
  0
ACDBDICTIONARYWDFLT
  5
E
102
{ACAD_REACTORS
330
C
102
}
330
C
100
AcDbDictionary
281
     1
  3
Normal
350
F
100
AcDbDictionaryWithDefault
340
F
  0
DICTIONARY
  5
47
102
{ACAD_REACTORS
330
C
102
}
330
C
100
AcDbDictionary
281
     1
  3
A0
350
48
  3
A1
350
49
  3
A2
350
4A
  3
A3
350
4B
  3
A4
350
4C
  3
A5
350
4D
  3
A6
350
4E
  3
A7
350
4F
  3
A8
350
50
  3
A9
350
51
  3
B0
350
52
  3
B1
350
53
  3
B2
350
54
  3
B3
350
55
  3
B4
350
56
  3
B5
350
57
  3
B6
350
58
  3
B7
350
59
  3
B8
350
5A
  3
B9
350
5B
  3
C0
350
5C
  3
C1
350
5D
  3
C2
350
5E
  3
C3
350
5F
  3
C4
350
60
  3
C5
350
61
  3
C6
350
62
  3
C7
350
63
  3
C8
350
64
  3
C9
350
65
  3
D0
350
66
  3
D1
350
67
  3
D2
350
68
  0
XRECORD
  5
21C
102
{ACAD_REACTORS
330
C
102
}
330
C
100
AcDbXrecord
280
     1
  1
DWGPROPS COOKIE
  2

  3

  4

  6

  7

  8
Vostorgin
  9

300
=
301
=
302
=
303
=
304
=
305
=
306
=
307
=
308
=
309
=
 40
0.0
 41
2459275.404083866
 42
2459275.404084456
  1

 90
        0
  0
LAYOUT
  5
1E
102
{ACAD_REACTORS
330
1A
102
}
330
1A
100
AcDbPlotSettings
  1

  2
none_device
  4

  6

 40
0.0
 41
0.0
 42
0.0
 43
0.0
 44
0.0
 45
0.0
 46
0.0
 47
0.0
 48
0.0
 49
0.0
140
0.0
141
0.0
142
1.0
143
1.0
 70
   688
 72
     1
 73
     0
 74
     5
  7

 75
    16
147
1.0
148
0.0
149
0.0
100
AcDbLayout
  1
Layout1
 70
     1
 71
     1
 10
0.0
 20
0.0
 11
420.0
 21
297.0
 12
0.0
 22
0.0
 32
0.0
 14
1.0000000000E+20
 24
1.0000000000E+20
 34
1.0000000000E+20
 15
-1.0000000000E+20
 25
-1.0000000000E+20
 35
-1.0000000000E+20
146
0.0
 13
0.0
 23
0.0
 33
0.0
 16
1.0
 26
0.0
 36
0.0
 17
0.0
 27
1.0
 37
0.0
 76
     0
330
1B
  0
LAYOUT
  5
26
102
{ACAD_REACTORS
330
1A
102
}
330
1A
100
AcDbPlotSettings
  1

  2
none_device
  4

  6

 40
0.0
 41
0.0
 42
0.0
 43
0.0
 44
0.0
 45
0.0
 46
0.0
 47
0.0
 48
0.0
 49
0.0
140
0.0
141
0.0
142
1.0
143
1.0
 70
   688
 72
     1
 73
     0
 74
     5
  7

 75
    16
147
1.0
148
0.0
149
0.0
100
AcDbLayout
  1
Layout2
 70
     1
 71
     2
 10
0.0
 20
0.0
 11
0.0
 21
0.0
 12
0.0
 22
0.0
 32
0.0
 14
0.0
 24
0.0
 34
0.0
 15
0.0
 25
0.0
 35
0.0
146
0.0
 13
0.0
 23
0.0
 33
0.0
 16
1.0
 26
0.0
 36
0.0
 17
0.0
 27
1.0
 37
0.0
 76
     0
330
23
  0
LAYOUT
  5
22
102
{ACAD_REACTORS
330
1A
102
}
330
1A
100
AcDbPlotSettings
  1

  2
none_device
  4
Letter_(8.50_x_11.00_Inches)
  6

 40
6.35
 41
6.35
 42
6.35000508
 43
6.35000508
 44
215.9
 45
279.4
 46
0.0
 47
0.0
 48
0.0
 49
0.0
140
0.0
141
0.0
142
1.0
143
1.0
 70
  1712
 72
     1
 73
     0
 74
     0
  7

 75
     0
147
1.0
148
0.0
149
0.0
100
AcDbLayout
  1
Model
 70
     1
 71
     0
 10
0.0
 20
0.0
 11
1189.0
 21
841.0
 12
0.0
 22
0.0
 32
0.0
 14
0.0
 24
0.0
 34
0.0
 15
1189.0
 25
841.0
 35
0.0
146
0.0
 13
0.0
 23
0.0
 33
0.0
 16
1.0
 26
0.0
 36
0.0
 17
0.0
 27
1.0
 37
0.0
 76
     0
330
1F
331
29
  0
MLINESTYLE
  5
18
102
{ACAD_REACTORS
330
17
102
}
330
17
100
AcDbMlineStyle
  2
Standard
 70
     0
  3

 62
   256
 51
90.0
 52
90.0
 71
     2
 49
0.5
 62
   256
  6
BYLAYER
 49
-0.5
 62
   256
  6
BYLAYER
  0
ACDBPLACEHOLDER
  5
F
102
{ACAD_REACTORS
330
E
102
}
330
E
  0
SCALE
  5
48
102
{ACAD_REACTORS
330
47
102
}
330
47
100
AcDbScale
 70
     0
300
1:1
140
1.0
141
1.0
290
     1
  0
SCALE
  5
49
102
{ACAD_REACTORS
330
47
102
}
330
47
100
AcDbScale
 70
     0
300
1:2
140
1.0
141
2.0
290
     0
  0
SCALE
  5
4A
102
{ACAD_REACTORS
330
47
102
}
330
47
100
AcDbScale
 70
     0
300
1:4
140
1.0
141
4.0
290
     0
  0
SCALE
  5
4B
102
{ACAD_REACTORS
330
47
102
}
330
47
100
AcDbScale
 70
     0
300
1:5
140
1.0
141
5.0
290
     0
  0
SCALE
  5
4C
102
{ACAD_REACTORS
330
47
102
}
330
47
100
AcDbScale
 70
     0
300
1:8
140
1.0
141
8.0
290
     0
  0
SCALE
  5
4D
102
{ACAD_REACTORS
330
47
102
}
330
47
100
AcDbScale
 70
     0
300
1:10
140
1.0
141
10.0
290
     0
  0
SCALE
  5
4E
102
{ACAD_REACTORS
330
47
102
}
330
47
100
AcDbScale
 70
     0
300
1:16
140
1.0
141
16.0
290
     0
  0
SCALE
  5
4F
102
{ACAD_REACTORS
330
47
102
}
330
47
100
AcDbScale
 70
     0
300
1:20
140
1.0
141
20.0
290
     0
  0
SCALE
  5
50
102
{ACAD_REACTORS
330
47
102
}
330
47
100
AcDbScale
 70
     0
300
1:30
140
1.0
141
30.0
290
     0
  0
SCALE
  5
51
102
{ACAD_REACTORS
330
47
102
}
330
47
100
AcDbScale
 70
     0
300
1:40
140
1.0
141
40.0
290
     0
  0
SCALE
  5
52
102
{ACAD_REACTORS
330
47
102
}
330
47
100
AcDbScale
 70
     0
300
1:50
140
1.0
141
50.0
290
     0
  0
SCALE
  5
53
102
{ACAD_REACTORS
330
47
102
}
330
47
100
AcDbScale
 70
     0
300
1:100
140
1.0
141
100.0
290
     0
  0
SCALE
  5
54
102
{ACAD_REACTORS
330
47
102
}
330
47
100
AcDbScale
 70
     0
300
2:1
140
2.0
141
1.0
290
     0
  0
SCALE
  5
55
102
{ACAD_REACTORS
330
47
102
}
330
47
100
AcDbScale
 70
     0
300
4:1
140
4.0
141
1.0
290
     0
  0
SCALE
  5
56
102
{ACAD_REACTORS
330
47
102
}
330
47
100
AcDbScale
 70
     0
300
8:1
140
8.0
141
1.0
290
     0
  0
SCALE
  5
57
102
{ACAD_REACTORS
330
47
102
}
330
47
100
AcDbScale
 70
     0
300
10:1
140
10.0
141
1.0
290
     0
  0
SCALE
  5
58
102
{ACAD_REACTORS
330
47
102
}
330
47
100
AcDbScale
 70
     0
300
100:1
140
100.0
141
1.0
290
     0
  0
SCALE
  5
59
102
{ACAD_REACTORS
330
47
102
}
330
47
100
AcDbScale
 70
     0
300
1/128" = 1'-0"
140
0.0078125
141
12.0
290
     0
  0
SCALE
  5
5A
102
{ACAD_REACTORS
330
47
102
}
330
47
100
AcDbScale
 70
     0
300
1/64" = 1'-0"
140
0.015625
141
12.0
290
     0
  0
SCALE
  5
5B
102
{ACAD_REACTORS
330
47
102
}
330
47
100
AcDbScale
 70
     0
300
1/32" = 1'-0"
140
0.03125
141
12.0
290
     0
  0
SCALE
  5
5C
102
{ACAD_REACTORS
330
47
102
}
330
47
100
AcDbScale
 70
     0
300
1/16" = 1'-0"
140
0.0625
141
12.0
290
     0
  0
SCALE
  5
5D
102
{ACAD_REACTORS
330
47
102
}
330
47
100
AcDbScale
 70
     0
300
3/32" = 1'-0"
140
0.09375
141
12.0
290
     0
  0
SCALE
  5
5E
102
{ACAD_REACTORS
330
47
102
}
330
47
100
AcDbScale
 70
     0
300
1/8" = 1'-0"
140
0.125
141
12.0
290
     0
  0
SCALE
  5
5F
102
{ACAD_REACTORS
330
47
102
}
330
47
100
AcDbScale
 70
     0
300
3/16" = 1'-0"
140
0.1875
141
12.0
290
     0
  0
SCALE
  5
60
102
{ACAD_REACTORS
330
47
102
}
330
47
100
AcDbScale
 70
     0
300
1/4" = 1'-0"
140
0.25
141
12.0
290
     0
  0
SCALE
  5
61
102
{ACAD_REACTORS
330
47
102
}
330
47
100
AcDbScale
 70
     0
300
3/8" = 1'-0"
140
0.375
141
12.0
290
     0
  0
SCALE
  5
62
102
{ACAD_REACTORS
330
47
102
}
330
47
100
AcDbScale
 70
     0
300
1/2" = 1'-0"
140
0.5
141
12.0
290
     0
  0
SCALE
  5
63
102
{ACAD_REACTORS
330
47
102
}
330
47
100
AcDbScale
 70
     0
300
3/4" = 1'-0"
140
0.75
141
12.0
290
     0
  0
SCALE
  5
64
102
{ACAD_REACTORS
330
47
102
}
330
47
100
AcDbScale
 70
     0
300
1" = 1'-0"
140
1.0
141
12.0
290
     0
  0
SCALE
  5
65
102
{ACAD_REACTORS
330
47
102
}
330
47
100
AcDbScale
 70
     0
300
1-1/2" = 1'-0"
140
1.5
141
12.0
290
     0
  0
SCALE
  5
66
102
{ACAD_REACTORS
330
47
102
}
330
47
100
AcDbScale
 70
     0
300
3" = 1'-0"
140
3.0
141
12.0
290
     0
  0
SCALE
  5
67
102
{ACAD_REACTORS
330
47
102
}
330
47
100
AcDbScale
 70
     0
300
6" = 1'-0"
140
6.0
141
12.0
290
     0
  0
SCALE
  5
68
102
{ACAD_REACTORS
330
47
102
}
330
47
100
AcDbScale
 70
     0
300
1'-0" = 1'-0"
140
12.0
141
12.0
290
     0
  0
ENDSEC
  0
EOF
